  0
SECTION
  2
HEADER
  9
$ACADVER
  1
AC1018
  9
$ACADMAINTVER
 70
     0
  9
$DWGCODEPAGE
  3
ANSI_932
  9
$INSBASE
 10
0.0
 20
0.0
 30
0.0
  9
$EXTMIN
 10
-210.0
 20
-148.5
 30
0.0
  9
$EXTMAX
 10
210.0
 20
148.5
 30
0.0
  9
$LIMMIN
 10
0.0
 20
0.0
  9
$LIMMAX
 10
12.0
 20
9.0
  9
$ORTHOMODE
 70
     0
  9
$REGENMODE
 70
     1
  9
$FILLMODE
 70
     1
  9
$QTEXTMODE
 70
     0
  9
$MIRRTEXT
 70
     1
  9
$LTSCALE
 40
10.0
  9
$ATTMODE
 70
     1
  9
$TEXTSIZE
 40
0.2
  9
$TRACEWID
 40
0.05
  9
$TEXTSTYLE
  7
STANDARD
  9
$CLAYER
  8
0
  9
$CELTYPE
  6
ByBlock
  9
$CECOLOR
 62
   256
  9
$CELTSCALE
 40
1.0
  9
$DISPSILH
 70
     0
  9
$DIMSCALE
 40
1.0
  9
$DIMASZ
 40
0.18
  9
$DIMEXO
 40
0.0625
  9
$DIMDLI
 40
0.38
  9
$DIMRND
 40
0.0
  9
$DIMDLE
 40
0.0
  9
$DIMEXE
 40
0.18
  9
$DIMTP
 40
0.0
  9
$DIMTM
 40
0.0
  9
$DIMTXT
 40
0.18
  9
$DIMCEN
 40
0.09
  9
$DIMTSZ
 40
0.0
  9
$DIMTOL
 70
     0
  9
$DIMLIM
 70
     0
  9
$DIMTIH
 70
     1
  9
$DIMTOH
 70
     1
  9
$DIMSE1
 70
     0
  9
$DIMSE2
 70
     0
  9
$DIMTAD
 70
     0
  9
$DIMZIN
 70
     0
  9
$DIMBLK
  1

  9
$DIMASO
 70
     1
  9
$DIMSHO
 70
     1
  9
$DIMPOST
  1

  9
$DIMAPOST
  1

  9
$DIMALT
 70
     0
  9
$DIMALTD
 70
     2
  9
$DIMALTF
 40
25.4
  9
$DIMLFAC
 40
1.0
  9
$DIMTOFL
 70
     0
  9
$DIMTVP
 40
0.0
  9
$DIMTIX
 70
     0
  9
$DIMSOXD
 70
     0
  9
$DIMSAH
 70
     0
  9
$DIMBLK1
  1

  9
$DIMBLK2
  1

  9
$DIMSTYLE
  2
Standard
  9
$DIMCLRD
 70
     0
  9
$DIMCLRE
 70
     0
  9
$DIMCLRT
 70
     0
  9
$DIMTFAC
 40
1.0
  9
$DIMGAP
 40
0.09
  9
$DIMJUST
 70
     0
  9
$DIMSD1
 70
     0
  9
$DIMSD2
 70
     0
  9
$DIMTOLJ
 70
     1
  9
$DIMTZIN
 70
     0
  9
$DIMALTZ
 70
     0
  9
$DIMALTTZ
 70
     0
  9
$DIMUPT
 70
     0
  9
$DIMDEC
 70
     4
  9
$DIMTDEC
 70
     4
  9
$DIMALTU
 70
     2
  9
$DIMALTTD
 70
     2
  9
$DIMTXSTY
  7
STANDARD
  9
$DIMAUNIT
 70
     0
  9
$DIMADEC
 70
     0
  9
$DIMALTRND
 40
0.0
  9
$DIMAZIN
 70
     0
  9
$DIMDSEP
 70
    46
  9
$DIMATFIT
 70
     3
  9
$DIMFRAC
 70
     0
  9
$DIMLDRBLK
  1

  9
$DIMLUNIT
 70
     2
  9
$DIMLWD
 70
    -2
  9
$DIMLWE
 70
    -2
  9
$DIMTMOVE
 70
     0
  9
$LUNITS
 70
     2
  9
$LUPREC
 70
     4
  9
$SKETCHINC
 40
0.1
  9
$FILLETRAD
 40
0.5
  9
$AUNITS
 70
     0
  9
$AUPREC
 70
     0
  9
$MENU
  1
.
  9
$ELEVATION
 40
0.0
  9
$PELEVATION
 40
0.0
  9
$THICKNESS
 40
0.0
  9
$LIMCHECK
 70
     0
  9
$CHAMFERA
 40
0.5
  9
$CHAMFERB
 40
0.5
  9
$CHAMFERC
 40
1.0
  9
$CHAMFERD
 40
0.0
  9
$SKPOLY
 70
     0
  9
$TDCREATE
 40
2460242.412767928
  9
$TDUCREATE
 40
2460242.037767928
  9
$TDUPDATE
 40
2460242.41276794
  9
$TDUUPDATE
 40
2460242.03776794
  9
$TDINDWG
 40
0.0000000116
  9
$TDUSRTIMER
 40
0.0000000116
  9
$USRTIMER
 70
     1
  9
$ANGBASE
 50
0.0
  9
$ANGDIR
 70
     0
  9
$PDMODE
 70
    32
  9
$PDSIZE
 40
1.5
  9
$PLINEWID
 40
0.0
  9
$SPLFRAME
 70
     0
  9
$SPLINETYPE
 70
     6
  9
$SPLINESEGS
 70
     8
  9
$HANDSEED
  5
1C6
  9
$SURFTAB1
 70
     6
  9
$SURFTAB2
 70
     6
  9
$SURFTYPE
 70
     6
  9
$SURFU
 70
     6
  9
$SURFV
 70
     6
  9
$UCSBASE
  2

  9
$UCSNAME
  2

  9
$UCSORG
 10
0.0
 20
0.0
 30
0.0
  9
$UCSXDIR
 10
1.0
 20
0.0
 30
0.0
  9
$UCSYDIR
 10
0.0
 20
1.0
 30
0.0
  9
$UCSORTHOREF
  2

  9
$UCSORTHOVIEW
 70
     0
  9
$UCSORGTOP
 10
0.0
 20
0.0
 30
0.0
  9
$UCSORGBOTTOM
 10
0.0
 20
0.0
 30
0.0
  9
$UCSORGLEFT
 10
0.0
 20
0.0
 30
0.0
  9
$UCSORGRIGHT
 10
0.0
 20
0.0
 30
0.0
  9
$UCSORGFRONT
 10
0.0
 20
0.0
 30
0.0
  9
$UCSORGBACK
 10
0.0
 20
0.0
 30
0.0
  9
$PUCSBASE
  2

  9
$PUCSNAME
  2

  9
$PUCSORG
 10
0.0
 20
0.0
 30
0.0
  9
$PUCSXDIR
 10
1.0
 20
0.0
 30
0.0
  9
$PUCSYDIR
 10
0.0
 20
1.0
 30
0.0
  9
$PUCSORTHOREF
  2

  9
$PUCSORTHOVIEW
 70
     0
  9
$PUCSORGTOP
 10
0.0
 20
0.0
 30
0.0
  9
$PUCSORGBOTTOM
 10
0.0
 20
0.0
 30
0.0
  9
$PUCSORGLEFT
 10
0.0
 20
0.0
 30
0.0
  9
$PUCSORGRIGHT
 10
0.0
 20
0.0
 30
0.0
  9
$PUCSORGFRONT
 10
0.0
 20
0.0
 30
0.0
  9
$PUCSORGBACK
 10
0.0
 20
0.0
 30
0.0
  9
$USERI1
 70
     0
  9
$USERI2
 70
     0
  9
$USERI3
 70
     0
  9
$USERI4
 70
     0
  9
$USERI5
 70
     0
  9
$USERR1
 40
0.0
  9
$USERR2
 40
0.0
  9
$USERR3
 40
0.0
  9
$USERR4
 40
0.0
  9
$USERR5
 40
0.0
  9
$WORLDVIEW
 70
     1
  9
$SHADEDGE
 70
     3
  9
$SHADEDIF
 70
    70
  9
$TILEMODE
 70
     1
  9
$MAXACTVP
 70
    64
  9
$PINSBASE
 10
0.0
 20
0.0
 30
0.0
  9
$PLIMCHECK
 70
     0
  9
$PEXTMIN
 10
1.000000000000000E+20
 20
1.000000000000000E+20
 30
1.000000000000000E+20
  9
$PEXTMAX
 10
-1.000000000000000E+20
 20
-1.000000000000000E+20
 30
-1.000000000000000E+20
  9
$PLIMMIN
 10
0.0
 20
0.0
  9
$PLIMMAX
 10
12.0
 20
9.0
  9
$UNITMODE
 70
     0
  9
$VISRETAIN
 70
     1
  9
$PLINEGEN
 70
     0
  9
$PSLTSCALE
 70
     1
  9
$TREEDEPTH
 70
  3020
  9
$CMLSTYLE
  2
Standard
  9
$CMLJUST
 70
     0
  9
$CMLSCALE
 40
1.0
  9
$PROXYGRAPHICS
 70
     1
  9
$MEASUREMENT
 70
     0
  9
$CELWEIGHT
370
    -1
  9
$ENDCAPS
280
     0
  9
$JOINSTYLE
280
     0
  9
$LWDISPLAY
290
     0
  9
$INSUNITS
 70
     0
  9
$HYPERLINKBASE
  1

  9
$STYLESHEET
  1

  9
$XEDIT
290
     1
  9
$CEPSNTYPE
380
     0
  9
$PSTYLEMODE
290
     1
  9
$FINGERPRINTGUID
  2
{A507D799-8126-423F-9C25-C88A3F418049}
  9
$VERSIONGUID
  2
{FAEB1C32-E019-11D5-929B-00C0DF256EC4}
  9
$EXTNAMES
290
     1
  9
$PSVPSCALE
 40
0.0
  9
$OLESTARTUP
290
     0
  9
$SORTENTS
280
   127
  9
$INDEXCTL
280
     0
  9
$HIDETEXT
280
     1
  9
$XCLIPFRAME
290
     0
  9
$HALOGAP
280
     0
  9
$OBSCOLOR
 70
   257
  9
$OBSLTYPE
280
     0
  9
$INTERSECTIONDISPLAY
280
     0
  9
$INTERSECTIONCOLOR
 70
   257
  9
$DIMASSOC
280
     2
  9
$PROJECTNAME
  1

  0
ENDSEC
  0
SECTION
  2
CLASSES
  0
CLASS
  1
ACDBDICTIONARYWDFLT
  2
AcDbDictionaryWithDefault
  3
ObjectDBX Classes
 90
        0
 91
        3
280
     0
281
     0
  0
ENDSEC
  0
SECTION
  2
TABLES
  0
TABLE
  2
VPORT
  5
8
330
0
100
AcDbSymbolTable
 70
     1
  0
VPORT
  5
1C1
330
8
100
AcDbSymbolTableRecord
100
AcDbViewportTableRecord
  2
*Active
 70
     0
 10
0.0
 20
0.0
 11
1.0
 21
1.0
 12
10.42990654205607
 22
4.5
 13
0.0
 23
0.0
 14
0.5
 24
0.5
 15
0.5
 25
0.5
 16
0.0
 26
0.0
 36
1.0
 17
0.0
 27
0.0
 37
0.0
 40
9.0
 41
1.972972972850329
 42
50.0
 43
0.0
 44
0.0
 50
0.0
 51
0.0
 71
     0
 72
   100
 73
     1
 74
     3
 75
     0
 76
     0
 77
     0
 78
     0
281
     0
 65
     1
110
0.0
120
0.0
130
0.0
111
1.0
121
0.0
131
0.0
112
0.0
122
1.0
132
0.0
 79
     0
146
0.0
  0
ENDTAB
  0
TABLE
  2
LTYPE
  5
5
330
0
100
AcDbSymbolTable
 70
     9
  0
LTYPE
  5
14
330
5
100
AcDbSymbolTableRecord
100
AcDbLinetypeTableRecord
  2
ByBlock
 70
     0
  3

 72
    65
 73
     0
 40
0.0
  0
LTYPE
  5
15
330
5
100
AcDbSymbolTableRecord
100
AcDbLinetypeTableRecord
  2
ByLayer
 70
     0
  3

 72
    65
 73
     0
 40
0.0
  0
LTYPE
  5
16
330
5
100
AcDbSymbolTableRecord
100
AcDbLinetypeTableRecord
  2
CONTINUOUS
 70
     0
  3
実線
 72
    65
 73
     0
 40
0.0
  0
LTYPE
  5
21
330
5
100
AcDbSymbolTableRecord
100
AcDbLinetypeTableRecord
  2
DASHED
 70
     0
  3
破線A
 72
    65
 73
     2
 40
0.6000000000000001
 49
0.4
 74
     0
 49
-0.2
 74
     0
  0
LTYPE
  5
22
330
5
100
AcDbSymbolTableRecord
100
AcDbLinetypeTableRecord
  2
DASHEDX2
 70
     0
  3
破線B
 72
    65
 73
     2
 40
1.3
 49
0.9
 74
     0
 49
-0.4
 74
     0
  0
LTYPE
  5
23
330
5
100
AcDbSymbolTableRecord
100
AcDbLinetypeTableRecord
  2
DASHDOT
 70
     0
  3
１点鎖線A
 72
    65
 73
     4
 40
0.5375
 49
0.375
 74
     0
 49
-0.05
 74
     0
 49
0.0625
 74
     0
 49
-0.05
 74
     0
  0
LTYPE
  5
24
330
5
100
AcDbSymbolTableRecord
100
AcDbLinetypeTableRecord
  2
DASHDOTX2
 70
     0
  3
１点鎖線B
 72
    65
 73
     4
 40
1.075
 49
0.75
 74
     0
 49
-0.1
 74
     0
 49
0.125
 74
     0
 49
-0.1
 74
     0
  0
LTYPE
  5
25
330
5
100
AcDbSymbolTableRecord
100
AcDbLinetypeTableRecord
  2
DIVIDE2
 70
     0
  3
２点鎖線A
 72
    65
 73
     6
 40
0.5125
 49
0.3
 74
     0
 49
-0.0375
 74
     0
 49
0.05
 74
     0
 49
-0.0375
 74
     0
 49
0.05
 74
     0
 49
-0.0375
 74
     0
  0
LTYPE
  5
26
330
5
100
AcDbSymbolTableRecord
100
AcDbLinetypeTableRecord
  2
DIVIDE
 70
     0
  3
２点鎖線B
 72
    65
 73
     6
 40
1.05
 49
0.55
 74
     0
 49
-0.1
 74
     0
 49
0.1
 74
     0
 49
-0.1
 74
     0
 49
0.1
 74
     0
 49
-0.1
 74
     0
  0
LTYPE
  5
27
330
5
100
AcDbSymbolTableRecord
100
AcDbLinetypeTableRecord
  2
DOT
 70
     0
  3
点線A
 72
    65
 73
     2
 40
0.1125
 49
0.0625
 74
     0
 49
-0.05
 74
     0
  0
LTYPE
  5
28
330
5
100
AcDbSymbolTableRecord
100
AcDbLinetypeTableRecord
  2
DOTX2
 70
     0
  3
点線B
 72
    65
 73
     2
 40
0.275
 49
0.15
 74
     0
 49
-0.125
 74
     0
  0
ENDTAB
  0
TABLE
  2
LAYER
  5
2
330
0
100
AcDbSymbolTable
 70
    34
  0
LAYER
  5
10
330
2
100
AcDbSymbolTableRecord
100
AcDbLayerTableRecord
  2
0
 70
     0
 62
    17
  6
CONTINUOUS
370
    -3
390
F
  0
LAYER
  5
2F
330
2
100
AcDbSymbolTableRecord
100
AcDbLayerTableRecord
  2
通り芯
 70
     0
 62
    15
  6
CONTINUOUS
370
    -3
390
F
  0
LAYER
  5
30
330
2
100
AcDbSymbolTableRecord
100
AcDbLayerTableRecord
  2
補助線
 70
     0
 62
    16
  6
DOT
370
    -3
390
F
  0
LAYER
  5
31
330
2
100
AcDbSymbolTableRecord
100
AcDbLayerTableRecord
  2
躯体
 70
     0
 62
    31
  6
CONTINUOUS
370
    -3
390
F
  0
LAYER
  5
32
330
2
100
AcDbSymbolTableRecord
100
AcDbLayerTableRecord
  2
型材
 70
     0
 62
    32
  6
CONTINUOUS
370
    -3
390
F
  0
LAYER
  5
33
330
2
100
AcDbSymbolTableRecord
100
AcDbLayerTableRecord
  2
型材断面
 70
     0
 62
    47
  6
CONTINUOUS
370
    -3
390
F
  0
LAYER
  5
34
330
2
100
AcDbSymbolTableRecord
100
AcDbLayerTableRecord
  2
ガラス
 70
     0
 62
    48
  6
CONTINUOUS
370
    -3
390
F
  0
LAYER
  5
35
330
2
100
AcDbSymbolTableRecord
100
AcDbLayerTableRecord
  2
ゴム等
 70
     0
 62
    63
  6
CONTINUOUS
370
    -3
390
F
  0
LAYER
  5
36
330
2
100
AcDbSymbolTableRecord
100
AcDbLayerTableRecord
  2
ボルト／ビス
 70
     0
 62
    64
  6
CONTINUOUS
370
    -3
390
F
  0
LAYER
  5
37
330
2
100
AcDbSymbolTableRecord
100
AcDbLayerTableRecord
  2
文字
 70
     0
 62
    79
  6
CONTINUOUS
370
    -3
390
F
  0
LAYER
  5
38
330
2
100
AcDbSymbolTableRecord
100
AcDbLayerTableRecord
  2
寸法
 70
     0
 62
    80
  6
CONTINUOUS
370
    -3
390
F
  0
LAYER
  5
39
330
2
100
AcDbSymbolTableRecord
100
AcDbLayerTableRecord
  2
ﾊｯﾁﾝｸﾞ
 70
     0
 62
    95
  6
CONTINUOUS
370
    -3
390
F
  0
LAYER
  5
3A
330
2
100
AcDbSymbolTableRecord
100
AcDbLayerTableRecord
  2
別途部材
 70
     0
 62
    96
  6
CONTINUOUS
370
    -3
390
F
  0
LAYER
  5
3B
330
2
100
AcDbSymbolTableRecord
100
AcDbLayerTableRecord
  2
曲げ物
 70
     0
 62
   111
  6
CONTINUOUS
370
    -3
390
F
  0
LAYER
  5
3C
330
2
100
AcDbSymbolTableRecord
100
AcDbLayerTableRecord
  2
鉄骨等
 70
     0
 62
   112
  6
CONTINUOUS
370
    -3
390
F
  0
LAYER
  5
3D
330
2
100
AcDbSymbolTableRecord
100
AcDbLayerTableRecord
  2
St
 70
     0
 62
   127
  6
CONTINUOUS
370
    -3
390
F
  0
LAYER
  5
3E
330
2
100
AcDbSymbolTableRecord
100
AcDbLayerTableRecord
  2
その他部品等
 70
     0
 62
   128
  6
CONTINUOUS
370
    -3
390
F
  0
LAYER
  5
3F
330
2
100
AcDbSymbolTableRecord
100
AcDbLayerTableRecord
  2
ｶﾞｽｹｯﾄ
 70
     0
 62
   143
  6
CONTINUOUS
370
    -3
390
F
  0
LAYER
  5
40
330
2
100
AcDbSymbolTableRecord
100
AcDbLayerTableRecord
  2
ｽｹｯﾁ
 70
     0
 62
    14
  6
CONTINUOUS
370
    -3
390
F
  0
LAYER
  5
42
330
2
100
AcDbSymbolTableRecord
100
AcDbLayerTableRecord
  2
1
 70
     0
 62
    30
  6
CONTINUOUS
370
    -3
390
F
  0
LAYER
  5
43
330
2
100
AcDbSymbolTableRecord
100
AcDbLayerTableRecord
  2
4
 70
     0
 62
    33
  6
CONTINUOUS
370
    -3
390
F
  0
LAYER
  5
44
330
2
100
AcDbSymbolTableRecord
100
AcDbLayerTableRecord
  2
ﾚｲﾔ3
 70
     0
 62
    46
  6
CONTINUOUS
370
    -3
390
F
  0
LAYER
  5
45
330
2
100
AcDbSymbolTableRecord
100
AcDbLayerTableRecord
  2
外形線
 70
     0
 62
    49
  6
CONTINUOUS
370
    -3
390
F
  0
LAYER
  5
46
330
2
100
AcDbSymbolTableRecord
100
AcDbLayerTableRecord
  2
部品
 70
     0
 62
    14
  6
CONTINUOUS
370
    -3
390
F
  0
LAYER
  5
47
330
2
100
AcDbSymbolTableRecord
100
AcDbLayerTableRecord
  2
サッシ芯
 70
     0
 62
    17
  6
DASHDOTX2
370
    -3
390
F
  0
LAYER
  5
48
330
2
100
AcDbSymbolTableRecord
100
AcDbLayerTableRecord
  2
寸法線
 70
     0
 62
    62
  6
CONTINUOUS
370
    -3
390
F
  0
LAYER
  5
49
330
2
100
AcDbSymbolTableRecord
100
AcDbLayerTableRecord
  2
姿図外形線
 70
     0
 62
    65
  6
CONTINUOUS
370
    -3
390
F
  0
LAYER
  5
4A
330
2
100
AcDbSymbolTableRecord
100
AcDbLayerTableRecord
  2
姿補助線
 70
     0
 62
    30
  6
CONTINUOUS
370
    -3
390
F
  0
LAYER
  5
4B
330
2
100
AcDbSymbolTableRecord
100
AcDbLayerTableRecord
  2
透視線
 70
     0
 62
    78
  6
DOT
370
    -3
390
F
  0
LAYER
  5
4C
330
2
100
AcDbSymbolTableRecord
100
AcDbLayerTableRecord
  2
用紙
 70
     0
 62
    81
  6
CONTINUOUS
370
    -3
390
F
  0
LAYER
  5
4D
330
2
100
AcDbSymbolTableRecord
100
AcDbLayerTableRecord
  2
実線図枠
 70
     0
 62
    94
  6
CONTINUOUS
370
    -3
390
F
  0
LAYER
  5
4E
330
2
100
AcDbSymbolTableRecord
100
AcDbLayerTableRecord
  2
補助図枠
 70
     0
 62
    97
  6
CONTINUOUS
370
    -3
390
F
  0
LAYER
  5
4F
330
2
100
AcDbSymbolTableRecord
100
AcDbLayerTableRecord
  2
建具記号
 70
     0
 62
   110
  6
CONTINUOUS
370
    -3
390
F
  0
LAYER
  5
50
330
2
100
AcDbSymbolTableRecord
100
AcDbLayerTableRecord
  2
補助文字
 70
     0
 62
   113
  6
CONTINUOUS
370
    -3
390
F
  0
ENDTAB
  0
TABLE
  2
STYLE
  5
3
330
0
100
AcDbSymbolTable
 70
    10
  0
STYLE
  5
11
330
3
100
AcDbSymbolTableRecord
100
AcDbTextStyleTableRecord
  2
STANDARD
 70
     0
 40
1.0
 41
1.0
 50
0.0
 71
     0
 42
1.0
  3
TXT
  4
BIGFONT
  0
STYLE
  5
52
330
3
100
AcDbSymbolTableRecord
100
AcDbTextStyleTableRecord
  2
TATE
 70
     4
 40
1.0
 41
1.0
 50
0.0
 71
     0
 42
1.0
  3
TXT
  4
BIGFONT
  0
STYLE
  5
53
330
3
100
AcDbSymbolTableRecord
100
AcDbTextStyleTableRecord
  2
TextStyle03
 70
     0
 40
1.0
 41
1.0
 50
0.0
 71
     0
 42
1.0
  3
MONOTXT
  4
BIGFONT
  0
STYLE
  5
54
330
3
100
AcDbSymbolTableRecord
100
AcDbTextStyleTableRecord
  2
TextStyle04
 70
     0
 40
1.0
 41
1.0
 50
0.0
 71
     0
 42
1.0
  3
MONOTXT
  4
BIGFONT
  0
STYLE
  5
55
330
3
100
AcDbSymbolTableRecord
100
AcDbTextStyleTableRecord
  2
TextStyle05
 70
     0
 40
1.0
 41
1.0
 50
0.0
 71
     0
 42
1.0
  3
MONOTXT
  4
BIGFONT
  0
STYLE
  5
56
330
3
100
AcDbSymbolTableRecord
100
AcDbTextStyleTableRecord
  2
TextStyle06
 70
     0
 40
1.0
 41
1.0
 50
0.0
 71
     0
 42
1.0
  3
MONOTXT
  4
BIGFONT
  0
STYLE
  5
57
330
3
100
AcDbSymbolTableRecord
100
AcDbTextStyleTableRecord
  2
TextStyle07
 70
     0
 40
1.0
 41
1.0
 50
0.0
 71
     0
 42
1.0
  3
MONOTXT
  4
BIGFONT
  0
STYLE
  5
58
330
3
100
AcDbSymbolTableRecord
100
AcDbTextStyleTableRecord
  2
TextStyle08
 70
     0
 40
1.0
 41
1.0
 50
0.0
 71
     0
 42
1.0
  3
MONOTXT
  4
BIGFONT
  0
STYLE
  5
59
330
3
100
AcDbSymbolTableRecord
100
AcDbTextStyleTableRecord
  2
TextStyle09
 70
     0
 40
1.0
 41
1.0
 50
0.0
 71
     0
 42
1.0
  3
MONOTXT
  4
BIGFONT
  0
STYLE
  5
5A
330
3
100
AcDbSymbolTableRecord
100
AcDbTextStyleTableRecord
  2
TextStyle10
 70
     0
 40
1.0
 41
1.0
 50
0.0
 71
     0
 42
1.0
  3
MONOTXT
  4
BIGFONT
  0
ENDTAB
  0
TABLE
  2
VIEW
  5
6
330
0
100
AcDbSymbolTable
 70
     0
  0
ENDTAB
  0
TABLE
  2
UCS
  5
7
330
0
100
AcDbSymbolTable
 70
     0
  0
ENDTAB
  0
TABLE
  2
APPID
  5
9
330
0
100
AcDbSymbolTable
 70
     1
  0
APPID
  5
12
330
9
100
AcDbSymbolTableRecord
100
AcDbRegAppTableRecord
  2
ACAD
 70
     0
  0
ENDTAB
  0
TABLE
  2
DIMSTYLE
  5
A
330
0
100
AcDbSymbolTable
 70
     1
100
AcDbDimStyleTable
  0
DIMSTYLE
105
5B
330
A
100
AcDbSymbolTableRecord
100
AcDbDimStyleTableRecord
  2
Standard
 70
     0
340
11
  0
ENDTAB
  0
TABLE
  2
BLOCK_RECORD
  5
1
330
0
100
AcDbSymbolTable
 70
    17
  0
BLOCK_RECORD
  5
1D
330
1
100
AcDbSymbolTableRecord
100
AcDbBlockTableRecord
  2
*Model_Space
340
1E
  0
BLOCK_RECORD
  5
1B
330
1
100
AcDbSymbolTableRecord
100
AcDbBlockTableRecord
  2
*Paper_Space
340
1C
  0
BLOCK_RECORD
  5
5D
330
1
100
AcDbSymbolTableRecord
100
AcDbBlockTableRecord
  2
*U0
340
0
102
{BLKREFS
331
EA
102
}
  0
BLOCK_RECORD
  5
66
330
1
100
AcDbSymbolTableRecord
100
AcDbBlockTableRecord
  2
*U1
340
0
102
{BLKREFS
331
192
102
}
  0
BLOCK_RECORD
  5
6E
330
1
100
AcDbSymbolTableRecord
100
AcDbBlockTableRecord
  2
*U2
340
0
102
{BLKREFS
331
193
102
}
  0
BLOCK_RECORD
  5
77
330
1
100
AcDbSymbolTableRecord
100
AcDbBlockTableRecord
  2
*U3
340
0
102
{BLKREFS
331
194
102
}
  0
BLOCK_RECORD
  5
7E
330
1
100
AcDbSymbolTableRecord
100
AcDbBlockTableRecord
  2
*U4
340
0
102
{BLKREFS
331
195
102
}
  0
BLOCK_RECORD
  5
87
330
1
100
AcDbSymbolTableRecord
100
AcDbBlockTableRecord
  2
*U5
340
0
102
{BLKREFS
331
196
102
}
  0
BLOCK_RECORD
  5
90
330
1
100
AcDbSymbolTableRecord
100
AcDbBlockTableRecord
  2
*U6
340
0
102
{BLKREFS
331
197
102
}
  0
BLOCK_RECORD
  5
97
330
1
100
AcDbSymbolTableRecord
100
AcDbBlockTableRecord
  2
*U7
340
0
102
{BLKREFS
331
198
102
}
  0
BLOCK_RECORD
  5
9E
330
1
100
AcDbSymbolTableRecord
100
AcDbBlockTableRecord
  2
*U8
340
0
102
{BLKREFS
331
199
102
}
  0
BLOCK_RECORD
  5
A5
330
1
100
AcDbSymbolTableRecord
100
AcDbBlockTableRecord
  2
*U9
340
0
102
{BLKREFS
331
19A
102
}
  0
BLOCK_RECORD
  5
AD
330
1
100
AcDbSymbolTableRecord
100
AcDbBlockTableRecord
  2
*U10
340
0
102
{BLKREFS
331
19B
102
}
  0
BLOCK_RECORD
  5
B5
330
1
100
AcDbSymbolTableRecord
100
AcDbBlockTableRecord
  2
*U11
340
0
102
{BLKREFS
331
19C
102
}
  0
BLOCK_RECORD
  5
BD
330
1
100
AcDbSymbolTableRecord
100
AcDbBlockTableRecord
  2
*U12
340
0
102
{BLKREFS
331
19D
102
}
  0
BLOCK_RECORD
  5
C5
330
1
100
AcDbSymbolTableRecord
100
AcDbBlockTableRecord
  2
*U13
340
0
102
{BLKREFS
331
19E
102
}
  0
BLOCK_RECORD
  5
CE
330
1
100
AcDbSymbolTableRecord
100
AcDbBlockTableRecord
  2
*U14
340
0
102
{BLKREFS
331
19F
102
}
  0
BLOCK_RECORD
  5
D5
330
1
100
AcDbSymbolTableRecord
100
AcDbBlockTableRecord
  2
*U15
340
0
102
{BLKREFS
331
1A0
102
}
  0
BLOCK_RECORD
  5
DC
330
1
100
AcDbSymbolTableRecord
100
AcDbBlockTableRecord
  2
*U16
340
0
102
{BLKREFS
331
1A1
102
}
  0
ENDTAB
  0
ENDSEC
  0
SECTION
  2
BLOCKS
  0
BLOCK
  5
1C2
330
1D
100
AcDbEntity
  8
0
100
AcDbBlockBegin
  2
*Model_Space
 70
     0
 71
     0
 10
0.0
 20
0.0
 30
0.0
  3
*Model_Space
  1

  0
ENDBLK
  5
1C3
330
1D
100
AcDbEntity
  8
0
100
AcDbBlockEnd
  0
BLOCK
  5
1C4
330
1B
100
AcDbEntity
 67
     1
  8
0
100
AcDbBlockBegin
  2
*Paper_Space
 70
     0
 71
     0
 10
0.0
 20
0.0
 30
0.0
  3
*Paper_Space
  1

  0
ENDBLK
  5
1C5
330
1B
100
AcDbEntity
 67
     1
  8
0
100
AcDbBlockEnd
  0
BLOCK
  5
5C
330
5D
100
AcDbEntity
  8
0
100
AcDbBlockBegin
  2
*U0
 70
     1
 71
     0
 10
0.0
 20
0.0
 30
0.0
  3
*U0
  1

  0
LINE
  5
5E
330
5D
100
AcDbEntity
  8
型材断面
  6
Continuous
100
AcDbLine
 10
195.0
 20
133.5
 30
0.0
 11
195.0
 21
-133.5
 31
0.0
  0
LINE
  5
5F
330
5D
100
AcDbEntity
  8
型材断面
  6
Continuous
100
AcDbLine
 10
195.0
 20
-133.5
 30
0.0
 11
-185.0
 21
-133.5
 31
0.0
  0
LINE
  5
60
330
5D
100
AcDbEntity
  8
型材断面
  6
Continuous
100
AcDbLine
 10
-185.0
 20
-133.5
 30
0.0
 11
-185.0
 21
133.5
 31
0.0
  0
LINE
  5
61
330
5D
100
AcDbEntity
  8
型材断面
  6
Continuous
100
AcDbLine
 10
195.0
 20
133.5
 30
0.0
 11
-185.0
 21
133.5
 31
0.0
  0
LINE
  5
62
330
5D
100
AcDbEntity
  8
型材断面
  6
Continuous
100
AcDbLine
 10
145.0
 20
-133.5
 30
0.0
 11
145.0
 21
-118.5
 31
0.0
  0
LINE
  5
63
330
5D
100
AcDbEntity
  8
型材断面
  6
Continuous
100
AcDbLine
 10
195.0
 20
-118.5
 30
0.0
 11
145.0
 21
-118.5
 31
0.0
  0
ENDBLK
  5
64
330
5D
100
AcDbEntity
  8
0
100
AcDbBlockEnd
  0
BLOCK
  5
65
330
66
100
AcDbEntity
  8
0
100
AcDbBlockBegin
  2
*U1
 70
     1
 71
     0
 10
0.0
 20
0.0
 30
0.0
  3
*U1
  1

  0
LINE
  5
67
330
66
100
AcDbEntity
  8
寸法
  6
ByBlock
 62
     0
100
AcDbLine
 10
-70.442275
 20
-16.511205
 30
0.0
 11
-70.442275
 21
-13.121378
 31
0.0
  0
LINE
  5
68
330
66
100
AcDbEntity
  8
寸法
  6
ByBlock
 62
     0
100
AcDbLine
 10
46.224393
 20
-13.121378
 30
0.0
 11
-70.442275
 21
-13.121378
 31
0.0
  0
POINT
  5
69
330
66
100
AcDbEntity
  8
寸法
 62
     0
100
AcDbPoint
 10
46.224393
 20
-13.121378
 30
0.0
  0
POINT
  5
6A
330
66
100
AcDbEntity
  8
寸法
 62
     0
100
AcDbPoint
 10
-70.442275
 20
-13.121378
 30
0.0
  0
TEXT
  5
6B
330
66
100
AcDbEntity
  8
寸法
  6
Continuous
 62
     0
100
AcDbText
 10
-23.84375
 20
-12.75
 30
0.0
 40
3.0
  1
呼称寸法　3500
  7
TextStyle03
 72
     5
 11
-0.40625
 21
-12.75
 31
0.0
100
AcDbText
  0
ENDBLK
  5
6C
330
66
100
AcDbEntity
  8
0
100
AcDbBlockEnd
  0
BLOCK
  5
6D
330
6E
100
AcDbEntity
  8
0
100
AcDbBlockBegin
  2
*U2
 70
     1
 71
     0
 10
0.0
 20
0.0
 30
0.0
  3
*U2
  1

  0
LINE
  5
6F
330
6E
100
AcDbEntity
  8
寸法
  6
ByBlock
 62
     0
100
AcDbLine
 10
-53.775608
 20
19.183902
 30
0.0
 11
-53.775608
 21
14.042105
 31
0.0
  0
LINE
  5
70
330
6E
100
AcDbEntity
  8
寸法
  6
ByBlock
 62
     0
100
AcDbLine
 10
29.557727
 20
19.183902
 30
0.0
 11
29.557727
 21
14.042105
 31
0.0
  0
LINE
  5
71
330
6E
100
AcDbEntity
  8
寸法
  6
ByBlock
 62
     0
100
AcDbLine
 10
-53.775608
 20
14.042105
 30
0.0
 11
29.557727
 21
14.042105
 31
0.0
  0
POINT
  5
72
330
6E
100
AcDbEntity
  8
寸法
 62
     0
100
AcDbPoint
 10
-53.775608
 20
14.042105
 30
0.0
  0
POINT
  5
73
330
6E
100
AcDbEntity
  8
寸法
 62
     0
100
AcDbPoint
 10
29.557727
 20
14.042105
 30
0.0
  0
TEXT
  5
74
330
6E
100
AcDbEntity
  8
寸法
  6
Continuous
 62
     0
100
AcDbText
 10
-15.40625
 20
14.4
 30
0.0
 40
3.0
  1
2500
  7
TextStyle03
 72
     5
 11
-8.84375
 21
14.4
 31
0.0
100
AcDbText
  0
ENDBLK
  5
75
330
6E
100
AcDbEntity
  8
0
100
AcDbBlockEnd
  0
BLOCK
  5
76
330
77
100
AcDbEntity
  8
0
100
AcDbBlockBegin
  2
*U3
 70
     1
 71
     0
 10
0.0
 20
0.0
 30
0.0
  3
*U3
  1

  0
LINE
  5
78
330
77
100
AcDbEntity
  8
寸法
  6
ByBlock
 62
     0
100
AcDbLine
 10
80.24404300000001
 20
22.814033
 30
0.0
 11
80.24404300000001
 21
42.814033
 31
0.0
  0
POINT
  5
79
330
77
100
AcDbEntity
  8
寸法
 62
     0
100
AcDbPoint
 10
80.24404300000001
 20
22.814033
 30
0.0
  0
POINT
  5
7A
330
77
100
AcDbEntity
  8
寸法
 62
     0
100
AcDbPoint
 10
80.24404300000001
 20
42.814033
 30
0.0
  0
TEXT
  5
7B
330
77
100
AcDbEntity
  8
寸法
  6
Continuous
 62
     0
100
AcDbText
 10
79.84999999999999
 20
21.925
 30
0.0
 40
3.0
  1
呼称寸法　600
 50
90.0
  7
TextStyle03
 72
     5
 11
79.84999999999999
 21
43.675
 31
0.0
100
AcDbText
  0
ENDBLK
  5
7C
330
77
100
AcDbEntity
  8
0
100
AcDbBlockEnd
  0
BLOCK
  5
7D
330
7E
100
AcDbEntity
  8
0
100
AcDbBlockBegin
  2
*U4
 70
     1
 71
     0
 10
0.0
 20
0.0
 30
0.0
  3
*U4
  1

  0
LINE
  5
7F
330
7E
100
AcDbEntity
  8
寸法
  6
ByBlock
 62
     0
100
AcDbLine
 10
-73.442275
 20
39.4807
 30
0.0
 11
-86.735113
 21
39.4807
 31
0.0
  0
LINE
  5
80
330
7E
100
AcDbEntity
  8
寸法
  6
ByBlock
 62
     0
100
AcDbLine
 10
-73.442275
 20
26.147365
 30
0.0
 11
-86.735113
 21
26.147365
 31
0.0
  0
LINE
  5
81
330
7E
100
AcDbEntity
  8
寸法
  6
ByBlock
 62
     0
100
AcDbLine
 10
-86.735113
 20
39.4807
 30
0.0
 11
-86.735113
 21
26.147365
 31
0.0
  0
POINT
  5
82
330
7E
100
AcDbEntity
  8
寸法
 62
     0
100
AcDbPoint
 10
-86.735113
 20
39.4807
 30
0.0
  0
POINT
  5
83
330
7E
100
AcDbEntity
  8
寸法
 62
     0
100
AcDbPoint
 10
-86.735113
 20
26.147365
 30
0.0
  0
TEXT
  5
84
330
7E
100
AcDbEntity
  8
寸法
  6
Continuous
 62
     0
100
AcDbText
 10
-87.175
 20
30.3625
 30
0.0
 40
3.0
  1
400
 50
90.0
  7
TextStyle03
 72
     5
 11
-87.175
 21
35.2375
 31
0.0
100
AcDbText
  0
ENDBLK
  5
85
330
7E
100
AcDbEntity
  8
0
100
AcDbBlockEnd
  0
BLOCK
  5
86
330
87
100
AcDbEntity
  8
0
100
AcDbBlockBegin
  2
*U5
 70
     1
 71
     0
 10
0.0
 20
0.0
 30
0.0
  3
*U5
  1

  0
LINE
  5
88
330
87
100
AcDbEntity
  8
寸法
  6
ByBlock
 62
     0
100
AcDbLine
 10
-65.442273
 20
45.814033
 30
0.0
 11
-65.442273
 21
74.922105
 31
0.0
  0
LINE
  5
89
330
87
100
AcDbEntity
  8
寸法
  6
ByBlock
 62
     0
100
AcDbLine
 10
-38.775608
 20
45.814033
 30
0.0
 11
-38.775608
 21
74.922105
 31
0.0
  0
LINE
  5
8A
330
87
100
AcDbEntity
  8
寸法
  6
ByBlock
 62
     0
100
AcDbLine
 10
-65.442273
 20
74.922105
 30
0.0
 11
-38.775608
 21
74.922105
 31
0.0
  0
POINT
  5
8B
330
87
100
AcDbEntity
  8
寸法
 62
     0
100
AcDbPoint
 10
-65.442273
 20
74.922105
 30
0.0
  0
POINT
  5
8C
330
87
100
AcDbEntity
  8
寸法
 62
     0
100
AcDbPoint
 10
-38.775608
 20
74.922105
 30
0.0
  0
TEXT
  5
8D
330
87
100
AcDbEntity
  8
寸法
  6
Continuous
 62
     0
100
AcDbText
 10
-54.5625
 20
75.3
 30
0.0
 40
3.0
  1
800
  7
TextStyle03
 72
     5
 11
-49.6875
 21
75.3
 31
0.0
100
AcDbText
  0
ENDBLK
  5
8E
330
87
100
AcDbEntity
  8
0
100
AcDbBlockEnd
  0
BLOCK
  5
8F
330
90
100
AcDbEntity
  8
0
100
AcDbBlockBegin
  2
*U6
 70
     1
 71
     0
 10
0.0
 20
0.0
 30
0.0
  3
*U6
  1

  0
LINE
  5
91
330
90
100
AcDbEntity
  8
寸法
  6
ByBlock
 62
     0
100
AcDbLine
 10
-12.10894
 20
45.814033
 30
0.0
 11
-12.10894
 21
74.922105
 31
0.0
  0
LINE
  5
92
330
90
100
AcDbEntity
  8
寸法
  6
ByBlock
 62
     0
100
AcDbLine
 10
-38.775608
 20
74.922105
 30
0.0
 11
-12.10894
 21
74.922105
 31
0.0
  0
POINT
  5
93
330
90
100
AcDbEntity
  8
寸法
 62
     0
100
AcDbPoint
 10
-12.10894
 20
74.922105
 30
0.0
  0
TEXT
  5
94
330
90
100
AcDbEntity
  8
寸法
  6
Continuous
 62
     0
100
AcDbText
 10
-27.9125
 20
75.3
 30
0.0
 40
3.0
  1
800
  7
TextStyle03
 72
     5
 11
-23.0375
 21
75.3
 31
0.0
100
AcDbText
  0
ENDBLK
  5
95
330
90
100
AcDbEntity
  8
0
100
AcDbBlockEnd
  0
BLOCK
  5
96
330
97
100
AcDbEntity
  8
0
100
AcDbBlockBegin
  2
*U7
 70
     1
 71
     0
 10
0.0
 20
0.0
 30
0.0
  3
*U7
  1

  0
LINE
  5
98
330
97
100
AcDbEntity
  8
寸法
  6
ByBlock
 62
     0
100
AcDbLine
 10
14.557727
 20
45.814033
 30
0.0
 11
14.557727
 21
74.922105
 31
0.0
  0
LINE
  5
99
330
97
100
AcDbEntity
  8
寸法
  6
ByBlock
 62
     0
100
AcDbLine
 10
-12.10894
 20
74.922105
 30
0.0
 11
14.557727
 21
74.922105
 31
0.0
  0
POINT
  5
9A
330
97
100
AcDbEntity
  8
寸法
 62
     0
100
AcDbPoint
 10
14.557727
 20
74.922105
 30
0.0
  0
TEXT
  5
9B
330
97
100
AcDbEntity
  8
寸法
  6
Continuous
 62
     0
100
AcDbText
 10
-1.2375
 20
75.3
 30
0.0
 40
3.0
  1
800
  7
TextStyle03
 72
     5
 11
3.6375
 21
75.3
 31
0.0
100
AcDbText
  0
ENDBLK
  5
9C
330
97
100
AcDbEntity
  8
0
100
AcDbBlockEnd
  0
BLOCK
  5
9D
330
9E
100
AcDbEntity
  8
0
100
AcDbBlockBegin
  2
*U8
 70
     1
 71
     0
 10
0.0
 20
0.0
 30
0.0
  3
*U8
  1

  0
LINE
  5
9F
330
9E
100
AcDbEntity
  8
寸法
  6
ByBlock
 62
     0
100
AcDbLine
 10
41.224393
 20
45.814033
 30
0.0
 11
41.224393
 21
74.922105
 31
0.0
  0
LINE
  5
A0
330
9E
100
AcDbEntity
  8
寸法
  6
ByBlock
 62
     0
100
AcDbLine
 10
14.557727
 20
74.922105
 30
0.0
 11
41.224393
 21
74.922105
 31
0.0
  0
POINT
  5
A1
330
9E
100
AcDbEntity
  8
寸法
 62
     0
100
AcDbPoint
 10
41.224393
 20
74.922105
 30
0.0
  0
TEXT
  5
A2
330
9E
100
AcDbEntity
  8
寸法
  6
Continuous
 62
     0
100
AcDbText
 10
25.4375
 20
75.3
 30
0.0
 40
3.0
  1
800
  7
TextStyle03
 72
     5
 11
30.3125
 21
75.3
 31
0.0
100
AcDbText
  0
ENDBLK
  5
A3
330
9E
100
AcDbEntity
  8
0
100
AcDbBlockEnd
  0
BLOCK
  5
A4
330
A5
100
AcDbEntity
  8
0
100
AcDbBlockBegin
  2
*U9
 70
     1
 71
     0
 10
0.0
 20
0.0
 30
0.0
  3
*U9
  1

  0
LINE
  5
A6
330
A5
100
AcDbEntity
  8
寸法
  6
ByBlock
 62
     0
100
AcDbLine
 10
136.09123
 20
45.9807
 30
0.0
 11
80.24404300000001
 21
45.9807
 31
0.0
  0
LINE
  5
A7
330
A5
100
AcDbEntity
  8
寸法
  6
ByBlock
 62
     0
100
AcDbLine
 10
80.24404300000001
 20
42.814033
 30
0.0
 11
80.24404300000001
 21
45.9807
 31
0.0
  0
POINT
  5
A8
330
A5
100
AcDbEntity
  8
寸法
 62
     0
100
AcDbPoint
 10
80.24404300000001
 20
42.814033
 30
0.0
  0
POINT
  5
A9
330
A5
100
AcDbEntity
  8
寸法
 62
     0
100
AcDbPoint
 10
80.24404300000001
 20
45.9807
 30
0.0
  0
TEXT
  5
AA
330
A5
100
AcDbEntity
  8
寸法
  6
Continuous
 62
     0
100
AcDbText
 10
79.84999999999999
 20
46.15625
 30
0.0
 40
3.0
  1
95
 50
90.0
  7
TextStyle03
 72
     5
 11
79.84999999999999
 21
49.34375
 31
0.0
100
AcDbText
  0
ENDBLK
  5
AB
330
A5
100
AcDbEntity
  8
0
100
AcDbBlockEnd
  0
BLOCK
  5
AC
330
AD
100
AcDbEntity
  8
0
100
AcDbBlockBegin
  2
*U10
 70
     1
 71
     0
 10
0.0
 20
0.0
 30
0.0
  3
*U10
  1

  0
LINE
  5
AE
330
AD
100
AcDbEntity
  8
寸法
  6
ByBlock
 62
     0
100
AcDbLine
 10
136.09123
 20
19.647365
 30
0.0
 11
80.24404300000001
 21
19.647365
 31
0.0
  0
LINE
  5
AF
330
AD
100
AcDbEntity
  8
寸法
  6
ByBlock
 62
     0
100
AcDbLine
 10
80.24404300000001
 20
22.814033
 30
0.0
 11
80.24404300000001
 21
19.647365
 31
0.0
  0
POINT
  5
B0
330
AD
100
AcDbEntity
  8
寸法
 62
     0
100
AcDbPoint
 10
80.24404300000001
 20
22.814033
 30
0.0
  0
POINT
  5
B1
330
AD
100
AcDbEntity
  8
寸法
 62
     0
100
AcDbPoint
 10
80.24404300000001
 20
19.647365
 30
0.0
  0
TEXT
  5
B2
330
AD
100
AcDbEntity
  8
寸法
  6
Continuous
 62
     0
100
AcDbText
 10
79.84999999999999
 20
16.25625
 30
0.0
 40
3.0
  1
95
 50
90.0
  7
TextStyle03
 72
     5
 11
79.84999999999999
 21
19.44375
 31
0.0
100
AcDbText
  0
ENDBLK
  5
B3
330
AD
100
AcDbEntity
  8
0
100
AcDbBlockEnd
  0
BLOCK
  5
B4
330
B5
100
AcDbEntity
  8
0
100
AcDbBlockBegin
  2
*U11
 70
     1
 71
     0
 10
0.0
 20
0.0
 30
0.0
  3
*U11
  1

  0
LINE
  5
B6
330
B5
100
AcDbEntity
  8
寸法
  6
ByBlock
 62
     0
100
AcDbLine
 10
-73.608937
 20
-70.54318499999999
 30
0.0
 11
-73.608937
 21
-13.121378
 31
0.0
  0
LINE
  5
B7
330
B5
100
AcDbEntity
  8
寸法
  6
ByBlock
 62
     0
100
AcDbLine
 10
-70.442275
 20
-13.121378
 30
0.0
 11
-73.608937
 21
-13.121378
 31
0.0
  0
POINT
  5
B8
330
B5
100
AcDbEntity
  8
寸法
 62
     0
100
AcDbPoint
 10
-70.442275
 20
-13.121378
 30
0.0
  0
POINT
  5
B9
330
B5
100
AcDbEntity
  8
寸法
 62
     0
100
AcDbPoint
 10
-73.608937
 20
-13.121378
 30
0.0
  0
TEXT
  5
BA
330
B5
100
AcDbEntity
  8
寸法
  6
Continuous
 62
     0
100
AcDbText
 10
-73.64375
 20
-12.75
 30
0.0
 40
3.0
  1
95
  7
TextStyle03
 72
     5
 11
-70.45625
 21
-12.75
 31
0.0
100
AcDbText
  0
ENDBLK
  5
BB
330
B5
100
AcDbEntity
  8
0
100
AcDbBlockEnd
  0
BLOCK
  5
BC
330
BD
100
AcDbEntity
  8
0
100
AcDbBlockBegin
  2
*U12
 70
     1
 71
     0
 10
0.0
 20
0.0
 30
0.0
  3
*U12
  1

  0
LINE
  5
BE
330
BD
100
AcDbEntity
  8
寸法
  6
ByBlock
 62
     0
100
AcDbLine
 10
49.391057
 20
-70.54318499999999
 30
0.0
 11
49.391057
 21
-13.121378
 31
0.0
  0
LINE
  5
BF
330
BD
100
AcDbEntity
  8
寸法
  6
ByBlock
 62
     0
100
AcDbLine
 10
46.224393
 20
-13.121378
 30
0.0
 11
49.391057
 21
-13.121378
 31
0.0
  0
POINT
  5
C0
330
BD
100
AcDbEntity
  8
寸法
 62
     0
100
AcDbPoint
 10
46.224393
 20
-13.121378
 30
0.0
  0
POINT
  5
C1
330
BD
100
AcDbEntity
  8
寸法
 62
     0
100
AcDbPoint
 10
49.391057
 20
-13.121378
 30
0.0
  0
TEXT
  5
C2
330
BD
100
AcDbEntity
  8
寸法
  6
Continuous
 62
     0
100
AcDbText
 10
46.20625
 20
-12.75
 30
0.0
 40
3.0
  1
95
  7
TextStyle03
 72
     5
 11
49.39375
 21
-12.75
 31
0.0
100
AcDbText
  0
ENDBLK
  5
C3
330
BD
100
AcDbEntity
  8
0
100
AcDbBlockEnd
  0
BLOCK
  5
C4
330
C5
100
AcDbEntity
  8
0
100
AcDbBlockBegin
  2
*U13
 70
     1
 71
     0
 10
0.0
 20
0.0
 30
0.0
  3
*U13
  1

  0
LINE
  5
C6
330
C5
100
AcDbEntity
  8
寸法
  6
ByBlock
 62
     0
100
AcDbLine
 10
158.537835
 20
-49.533713
 30
0.0
 11
165.404422
 21
-49.533713
 31
0.0
  0
LINE
  5
C7
330
C5
100
AcDbEntity
  8
寸法
  6
ByBlock
 62
     0
100
AcDbLine
 10
158.537835
 20
-69.20038
 30
0.0
 11
165.404422
 21
-69.20038
 31
0.0
  0
LINE
  5
C8
330
C5
100
AcDbEntity
  8
寸法
  6
ByBlock
 62
     0
100
AcDbLine
 10
165.404422
 20
-49.533713
 30
0.0
 11
165.404422
 21
-69.20038
 31
0.0
  0
POINT
  5
C9
330
C5
100
AcDbEntity
  8
寸法
 62
     0
100
AcDbPoint
 10
165.404422
 20
-49.533713
 30
0.0
  0
POINT
  5
CA
330
C5
100
AcDbEntity
  8
寸法
 62
     0
100
AcDbPoint
 10
165.404422
 20
-69.20038
 30
0.0
  0
TEXT
  5
CB
330
C5
100
AcDbEntity
  8
寸法
  6
Continuous
 62
     0
100
AcDbText
 10
165.025
 20
-62.625
 30
0.0
 40
4.0
  1
590
 50
90.0
  7
TextStyle03
 72
     5
 11
165.025
 21
-56.125
 31
0.0
100
AcDbText
  0
ENDBLK
  5
CC
330
C5
100
AcDbEntity
  8
0
100
AcDbBlockEnd
  0
BLOCK
  5
CD
330
CE
100
AcDbEntity
  8
0
100
AcDbBlockBegin
  2
*U14
 70
     1
 71
     0
 10
0.0
 20
0.0
 30
0.0
  3
*U14
  1

  0
LINE
  5
CF
330
CE
100
AcDbEntity
  8
寸法
  6
Continuous
100
AcDbLine
 10
138.234778
 20
56.897547
 30
0.0
 11
133.934775
 21
56.897547
 31
0.0
  0
POINT
  5
D0
330
CE
100
AcDbEntity
  8
寸法
100
AcDbPoint
 10
138.234778
 20
56.897547
 30
0.0
  0
POINT
  5
D1
330
CE
100
AcDbEntity
  8
寸法
100
AcDbPoint
 10
133.934775
 20
56.897547
 30
0.0
  0
TEXT
  5
D2
330
CE
100
AcDbEntity
  8
寸法
  6
Continuous
100
AcDbText
 10
133.6375
 20
57.25
 30
0.0
 40
3.0
  1
129
  7
TextStyle03
 72
     5
 11
138.5125
 21
57.25
 31
0.0
100
AcDbText
  0
ENDBLK
  5
D3
330
CE
100
AcDbEntity
  8
0
100
AcDbBlockEnd
  0
BLOCK
  5
D4
330
D5
100
AcDbEntity
  8
0
100
AcDbBlockBegin
  2
*U15
 70
     1
 71
     0
 10
0.0
 20
0.0
 30
0.0
  3
*U15
  1

  0
LINE
  5
D6
330
D5
100
AcDbEntity
  8
寸法
  6
Continuous
100
AcDbLine
 10
60.30791
 20
-73.085008
 30
0.0
 11
60.30791
 21
-68.78500800000001
 31
0.0
  0
POINT
  5
D7
330
D5
100
AcDbEntity
  8
寸法
100
AcDbPoint
 10
60.30791
 20
-73.085008
 30
0.0
  0
POINT
  5
D8
330
D5
100
AcDbEntity
  8
寸法
100
AcDbPoint
 10
60.30791
 20
-68.78500800000001
 30
0.0
  0
TEXT
  5
D9
330
D5
100
AcDbEntity
  8
寸法
  6
Continuous
100
AcDbText
 10
64.375
 20
-73.3625
 30
0.0
 40
3.0
  1
129
 50
90.0
  7
TextStyle03
 72
     5
 11
64.375
 21
-68.4875
 31
0.0
100
AcDbText
  0
ENDBLK
  5
DA
330
D5
100
AcDbEntity
  8
0
100
AcDbBlockEnd
  0
BLOCK
  5
DB
330
DC
100
AcDbEntity
  8
0
100
AcDbBlockBegin
  2
*U16
 70
     1
 71
     0
 10
0.0
 20
0.0
 30
0.0
  3
*U16
  1

  0
LINE
  5
DD
330
DC
100
AcDbEntity
  8
寸法
  6
Continuous
100
AcDbLine
 10
155.537835
 20
-44.533713
 30
0.0
 11
155.537835
 21
-37.56704
 31
0.0
  0
LINE
  5
DE
330
DC
100
AcDbEntity
  8
寸法
  6
Continuous
100
AcDbLine
 10
117.471168
 20
-44.533713
 30
0.0
 11
117.471168
 21
-37.56704
 31
0.0
  0
LINE
  5
DF
330
DC
100
AcDbEntity
  8
寸法
  6
Continuous
100
AcDbLine
 10
155.537835
 20
-37.56704
 30
0.0
 11
117.471168
 21
-37.56704
 31
0.0
  0
POINT
  5
E0
330
DC
100
AcDbEntity
  8
寸法
100
AcDbPoint
 10
155.537835
 20
-37.56704
 30
0.0
  0
POINT
  5
E1
330
DC
100
AcDbEntity
  8
寸法
100
AcDbPoint
 10
117.471168
 20
-37.56704
 30
0.0
  0
TEXT
  5
E2
330
DC
100
AcDbEntity
  8
寸法
  6
Continuous
100
AcDbText
 10
133.21875
 20
-37.2
 30
0.0
 40
3.0
  1
1142
  7
TextStyle03
 72
     5
 11
139.78125
 21
-37.2
 31
0.0
100
AcDbText
  0
ENDBLK
  5
E3
330
DC
100
AcDbEntity
  8
0
100
AcDbBlockEnd
  0
ENDSEC
  0
SECTION
  2
ENTITIES
  0
LWPOLYLINE
  5
E4
330
1D
100
AcDbEntity
  8
通り芯
  6
Continuous
100
AcDbPolyline
 90
        4
 70
     1
 43
0.0
 10
-210.0
 20
-148.5
 10
210.0
 20
-148.5
 10
210.0
 20
148.5
 10
-210.0
 20
148.5
  0
INSERT
  5
EA
330
1D
100
AcDbEntity
  8
型材断面
  6
Continuous
100
AcDbBlockReference
  2
*U0
 10
0.0
 20
0.0
 30
0.0
  0
LINE
  5
EB
330
1D
100
AcDbEntity
  8
型材断面
  6
DASHDOT
100
AcDbLine
 10
46.224393
 20
-77.83644200000001
 30
0.0
 11
46.224393
 21
42.814033
 31
0.0
  0
LINE
  5
EC
330
1D
100
AcDbEntity
  8
型材断面
  6
DASHDOT
100
AcDbLine
 10
-12.10894
 20
-77.83644200000001
 30
0.0
 11
-12.10894
 21
42.814033
 31
0.0
  0
LINE
  5
ED
330
1D
100
AcDbEntity
  8
型材断面
  6
DASHDOT
100
AcDbLine
 10
-70.442275
 20
-77.83644200000001
 30
0.0
 11
-70.442275
 21
42.814033
 31
0.0
  0
LINE
  5
EE
330
1D
100
AcDbEntity
  8
型材断面
  6
DASHDOT
100
AcDbLine
 10
143.901155
 20
42.814033
 30
0.0
 11
-70.442275
 21
42.814033
 31
0.0
  0
LINE
  5
EF
330
1D
100
AcDbEntity
  8
型材断面
  6
DASHDOT
100
AcDbLine
 10
143.901155
 20
32.814033
 30
0.0
 11
-70.442275
 21
32.814033
 31
0.0
  0
LINE
  5
F0
330
1D
100
AcDbEntity
  8
型材断面
  6
DASHDOT
100
AcDbLine
 10
143.901155
 20
22.814033
 30
0.0
 11
-70.442275
 21
22.814033
 31
0.0
  0
LINE
  5
F1
330
1D
100
AcDbEntity
  8
型材断面
  6
Continuous
100
AcDbLine
 10
-53.775608
 20
45.444162
 30
0.0
 11
-55.271238
 21
48.03467
 31
0.0
  0
LINE
  5
F2
330
1D
100
AcDbEntity
  8
型材断面
  6
Continuous
100
AcDbLine
 10
-53.775608
 20
45.444162
 30
0.0
 11
-52.279978
 21
48.03467
 31
0.0
  0
LINE
  5
F3
330
1D
100
AcDbEntity
  8
型材断面
  6
Continuous
100
AcDbLine
 10
-52.279978
 20
48.03467
 30
0.0
 11
-55.271238
 21
48.03467
 31
0.0
  0
LINE
  5
F4
330
1D
100
AcDbEntity
  8
型材断面
  6
Continuous
100
AcDbLine
 10
-111.294482
 20
87.32138000000001
 30
0.0
 11
-112.790113
 21
84.730873
 31
0.0
  0
LINE
  5
F5
330
1D
100
AcDbEntity
  8
型材断面
  6
Continuous
100
AcDbLine
 10
-111.294482
 20
87.32138000000001
 30
0.0
 11
-109.798852
 21
84.730873
 31
0.0
  0
LINE
  5
F6
330
1D
100
AcDbEntity
  8
型材断面
  6
Continuous
100
AcDbLine
 10
-109.798852
 20
84.730873
 30
0.0
 11
-112.790113
 21
84.730873
 31
0.0
  0
LINE
  5
F7
330
1D
100
AcDbEntity
  8
型材断面
  6
Continuous
100
AcDbLine
 10
-117.31707
 20
83.792277
 30
0.0
 11
-71.07529200000001
 21
83.792277
 31
0.0
  0
LINE
  5
F8
330
1D
100
AcDbEntity
  8
型材断面
  6
Continuous
100
AcDbLine
 10
-73.072405
 20
32.814033
 30
0.0
 11
-75.662913
 21
34.309663
 31
0.0
  0
LINE
  5
F9
330
1D
100
AcDbEntity
  8
型材断面
  6
Continuous
100
AcDbLine
 10
-73.072405
 20
32.814033
 30
0.0
 11
-75.662913
 21
31.318403
 31
0.0
  0
LINE
  5
FA
330
1D
100
AcDbEntity
  8
型材断面
  6
Continuous
100
AcDbLine
 10
-75.662913
 20
31.318403
 30
0.0
 11
-75.662913
 21
34.309663
 31
0.0
  0
LINE
  5
FB
330
1D
100
AcDbEntity
  8
型材断面
  6
Continuous
100
AcDbLine
 10
-53.775608
 20
20.183902
 30
0.0
 11
-55.271238
 21
17.593395
 31
0.0
  0
LINE
  5
FC
330
1D
100
AcDbEntity
  8
型材断面
  6
Continuous
100
AcDbLine
 10
-53.775608
 20
20.183902
 30
0.0
 11
-52.279978
 21
17.593395
 31
0.0
  0
LINE
  5
FD
330
1D
100
AcDbEntity
  8
型材断面
  6
Continuous
100
AcDbLine
 10
-52.279978
 20
17.593395
 30
0.0
 11
-55.271238
 21
17.593395
 31
0.0
  0
LINE
  5
FE
330
1D
100
AcDbEntity
  8
型材断面
  6
Continuous
100
AcDbLine
 10
29.557727
 20
45.444162
 30
0.0
 11
31.053357
 21
48.03467
 31
0.0
  0
LINE
  5
FF
330
1D
100
AcDbEntity
  8
型材断面
  6
Continuous
100
AcDbLine
 10
29.557727
 20
45.444162
 30
0.0
 11
28.062097
 21
48.03467
 31
0.0
  0
LINE
  5
100
330
1D
100
AcDbEntity
  8
型材断面
  6
Continuous
100
AcDbLine
 10
28.062097
 20
48.03467
 30
0.0
 11
31.053357
 21
48.03467
 31
0.0
  0
LINE
  5
101
330
1D
100
AcDbEntity
  8
型材断面
  6
Continuous
100
AcDbLine
 10
48.854525
 20
32.814033
 30
0.0
 11
51.445032
 21
34.309663
 31
0.0
  0
LINE
  5
102
330
1D
100
AcDbEntity
  8
型材断面
  6
Continuous
100
AcDbLine
 10
48.854525
 20
32.814033
 30
0.0
 11
51.445032
 21
31.318403
 31
0.0
  0
LINE
  5
103
330
1D
100
AcDbEntity
  8
型材断面
  6
Continuous
100
AcDbLine
 10
51.445032
 20
31.318403
 30
0.0
 11
51.445032
 21
34.309663
 31
0.0
  0
LINE
  5
104
330
1D
100
AcDbEntity
  8
型材断面
  6
Continuous
100
AcDbLine
 10
29.557727
 20
20.183902
 30
0.0
 11
31.053357
 21
17.593395
 31
0.0
  0
LINE
  5
105
330
1D
100
AcDbEntity
  8
型材断面
  6
Continuous
100
AcDbLine
 10
29.557727
 20
20.183902
 30
0.0
 11
28.062097
 21
17.593395
 31
0.0
  0
LINE
  5
106
330
1D
100
AcDbEntity
  8
型材断面
  6
Continuous
100
AcDbLine
 10
28.062097
 20
17.593395
 30
0.0
 11
31.053357
 21
17.593395
 31
0.0
  0
LINE
  5
107
330
1D
100
AcDbEntity
  8
型材断面
  6
Continuous
100
AcDbLine
 10
-117.31707
 20
77.99376700000001
 30
0.0
 11
-71.07529200000001
 21
77.99376700000001
 31
0.0
  0
LINE
  5
108
330
1D
100
AcDbEntity
  8
型材断面
  6
Continuous
100
AcDbLine
 10
49.39106
 20
45.9807
 30
0.0
 11
49.39106
 21
19.647365
 31
0.0
  0
LINE
  5
109
330
1D
100
AcDbEntity
  8
型材断面
  6
Continuous
100
AcDbLine
 10
49.39106
 20
45.9807
 30
0.0
 11
-73.60894
 21
45.9807
 31
0.0
  0
LINE
  5
10A
330
1D
100
AcDbEntity
  8
型材断面
  6
Continuous
100
AcDbLine
 10
-73.60894
 20
45.9807
 30
0.0
 11
-73.60894
 21
19.647365
 31
0.0
  0
LINE
  5
10B
330
1D
100
AcDbEntity
  8
型材断面
  6
Continuous
100
AcDbLine
 10
49.39106
 20
19.647365
 30
0.0
 11
-73.60894
 21
19.647365
 31
0.0
  0
LINE
  5
10C
330
1D
100
AcDbEntity
  8
型材断面
  6
DASHDOT
100
AcDbLine
 10
-31.675608
 20
22.814033
 30
0.0
 11
-31.675608
 21
42.814033
 31
0.0
  0
LINE
  5
10D
330
1D
100
AcDbEntity
  8
型材断面
  6
DASHDOT
100
AcDbLine
 10
7.457727
 20
22.814033
 30
0.0
 11
7.457727
 21
42.814033
 31
0.0
  0
LINE
  5
10E
330
1D
100
AcDbEntity
  8
型材断面
  6
Continuous
100
AcDbLine
 10
47.735212
 20
21.067512
 30
0.0
 11
47.970912
 21
21.303212
 31
0.0
  0
LINE
  5
10F
330
1D
100
AcDbEntity
  8
型材断面
  6
Continuous
100
AcDbLine
 10
-71.953092
 20
21.067512
 30
0.0
 11
-72.188793
 21
21.303212
 31
0.0
  0
LINE
  5
110
330
1D
100
AcDbEntity
  8
型材断面
  6
Continuous
100
AcDbLine
 10
27.257727
 20
23.56751
 30
0.0
 11
27.257727
 21
21.06751
 31
0.0
  0
LINE
  5
111
330
1D
100
AcDbEntity
  8
型材断面
  6
Continuous
100
AcDbLine
 10
26.424393
 20
23.56751
 30
0.0
 11
26.424393
 21
21.06751
 31
0.0
  0
LINE
  5
112
330
1D
100
AcDbEntity
  8
型材断面
  6
Continuous
100
AcDbLine
 10
-11.692273
 20
23.56751
 30
0.0
 11
-11.692273
 21
21.06751
 31
0.0
  0
LINE
  5
113
330
1D
100
AcDbEntity
  8
型材断面
  6
Continuous
100
AcDbLine
 10
-12.525608
 20
23.56751
 30
0.0
 11
-12.525608
 21
21.06751
 31
0.0
  0
LINE
  5
114
330
1D
100
AcDbEntity
  8
型材断面
  6
Continuous
100
AcDbLine
 10
-51.475608
 20
23.56751
 30
0.0
 11
-51.475608
 21
21.06751
 31
0.0
  0
LINE
  5
115
330
1D
100
AcDbEntity
  8
型材断面
  6
Continuous
100
AcDbLine
 10
-50.642273
 20
23.56751
 30
0.0
 11
-50.642273
 21
21.06751
 31
0.0
  0
LINE
  5
116
330
1D
100
AcDbEntity
  8
型材断面
  6
Continuous
100
AcDbLine
 10
-32.842275
 20
24.400843
 30
0.0
 11
-30.50894
 21
24.400843
 31
0.0
  0
LINE
  5
117
330
1D
100
AcDbEntity
  8
型材断面
  6
Continuous
100
AcDbLine
 10
8.624395
 20
24.400843
 30
0.0
 11
6.29106
 21
24.400843
 31
0.0
  0
LINE
  5
118
330
1D
100
AcDbEntity
  8
型材断面
  6
Continuous
100
AcDbLine
 10
47.735212
 20
44.560553
 30
0.0
 11
47.970912
 21
44.324853
 31
0.0
  0
LINE
  5
119
330
1D
100
AcDbEntity
  8
型材断面
  6
Continuous
100
AcDbLine
 10
-71.953092
 20
44.560553
 30
0.0
 11
-72.188793
 21
44.324853
 31
0.0
  0
LINE
  5
11A
330
1D
100
AcDbEntity
  8
型材断面
  6
Continuous
100
AcDbLine
 10
27.257727
 20
42.060555
 30
0.0
 11
27.257727
 21
44.560555
 31
0.0
  0
LINE
  5
11B
330
1D
100
AcDbEntity
  8
型材断面
  6
Continuous
100
AcDbLine
 10
26.424393
 20
42.060555
 30
0.0
 11
26.424393
 21
44.560555
 31
0.0
  0
LINE
  5
11C
330
1D
100
AcDbEntity
  8
型材断面
  6
Continuous
100
AcDbLine
 10
-11.692273
 20
42.060555
 30
0.0
 11
-11.692273
 21
44.560555
 31
0.0
  0
LINE
  5
11D
330
1D
100
AcDbEntity
  8
型材断面
  6
Continuous
100
AcDbLine
 10
-12.525608
 20
42.060555
 30
0.0
 11
-12.525608
 21
44.560555
 31
0.0
  0
LINE
  5
11E
330
1D
100
AcDbEntity
  8
型材断面
  6
Continuous
100
AcDbLine
 10
-51.475608
 20
42.060555
 30
0.0
 11
-51.475608
 21
44.560555
 31
0.0
  0
LINE
  5
11F
330
1D
100
AcDbEntity
  8
型材断面
  6
Continuous
100
AcDbLine
 10
-50.642273
 20
42.060555
 30
0.0
 11
-50.642273
 21
44.560555
 31
0.0
  0
LINE
  5
120
330
1D
100
AcDbEntity
  8
型材断面
  6
Continuous
100
AcDbLine
 10
-69.453092
 20
42.060555
 30
0.0
 11
-69.688795
 21
41.824848
 31
0.0
  0
LINE
  5
121
330
1D
100
AcDbEntity
  8
型材断面
  6
Continuous
100
AcDbLine
 10
-32.842275
 20
41.227223
 30
0.0
 11
-30.50894
 21
41.227223
 31
0.0
  0
LINE
  5
122
330
1D
100
AcDbEntity
  8
型材断面
  6
Continuous
100
AcDbLine
 10
8.624395
 20
41.227223
 30
0.0
 11
6.29106
 21
41.227223
 31
0.0
  0
LINE
  5
123
330
1D
100
AcDbEntity
  8
型材断面
  6
Continuous
100
AcDbLine
 10
47.970915
 20
32.397365
 30
0.0
 11
45.470915
 21
32.397365
 31
0.0
  0
LINE
  5
124
330
1D
100
AcDbEntity
  8
型材断面
  6
Continuous
100
AcDbLine
 10
47.970915
 20
33.2307
 30
0.0
 11
45.470915
 21
33.2307
 31
0.0
  0
LINE
  5
125
330
1D
100
AcDbEntity
  8
型材断面
  6
Continuous
100
AcDbLine
 10
-72.188795
 20
32.397365
 30
0.0
 11
-69.688795
 21
32.397365
 31
0.0
  0
LINE
  5
126
330
1D
100
AcDbEntity
  8
型材断面
  6
Continuous
100
AcDbLine
 10
-72.188795
 20
33.2307
 30
0.0
 11
-69.688795
 21
33.2307
 31
0.0
  0
LINE
  5
127
330
1D
100
AcDbEntity
  8
型材断面
  6
Continuous
100
AcDbLine
 10
45.470912
 20
23.803215
 30
0.0
 11
47.970915
 21
21.30321
 31
0.0
  0
LINE
  5
128
330
1D
100
AcDbEntity
  8
型材断面
  6
Continuous
100
AcDbLine
 10
45.235215
 20
23.567512
 30
0.0
 11
47.735212
 21
21.067512
 31
0.0
  0
LINE
  5
129
330
1D
100
AcDbEntity
  8
型材断面
  6
Continuous
100
AcDbLine
 10
45.235215
 20
23.567512
 30
0.0
 11
45.470915
 21
23.803218
 31
0.0
  0
LINE
  5
12A
330
1D
100
AcDbEntity
  8
型材断面
  6
Continuous
100
AcDbLine
 10
49.39106
 20
19.647365
 30
0.0
 11
47.853062
 21
21.185362
 31
0.0
  0
LINE
  5
12B
330
1D
100
AcDbEntity
  8
型材断面
  6
Continuous
100
AcDbLine
 10
45.470915
 20
32.397365
 30
0.0
 11
45.470915
 21
23.803218
 31
0.0
  0
LINE
  5
12C
330
1D
100
AcDbEntity
  8
型材断面
  6
Continuous
100
AcDbLine
 10
45.470915
 20
33.2307
 30
0.0
 11
45.470915
 21
41.824848
 31
0.0
  0
LINE
  5
12D
330
1D
100
AcDbEntity
  8
型材断面
  6
Continuous
100
AcDbLine
 10
45.470915
 20
41.824848
 30
0.0
 11
45.235215
 21
42.060553
 31
0.0
  0
LINE
  5
12E
330
1D
100
AcDbEntity
  8
型材断面
  6
Continuous
100
AcDbLine
 10
45.470912
 20
41.82485
 30
0.0
 11
47.970915
 21
44.324855
 31
0.0
  0
LINE
  5
12F
330
1D
100
AcDbEntity
  8
型材断面
  6
Continuous
100
AcDbLine
 10
47.970915
 20
21.30321
 30
0.0
 11
47.970915
 21
44.324855
 31
0.0
  0
LINE
  5
130
330
1D
100
AcDbEntity
  8
型材断面
  6
Continuous
100
AcDbLine
 10
45.235215
 20
42.060553
 30
0.0
 11
47.735212
 21
44.560553
 31
0.0
  0
LINE
  5
131
330
1D
100
AcDbEntity
  8
型材断面
  6
Continuous
100
AcDbLine
 10
49.39106
 20
45.9807
 30
0.0
 11
47.853062
 21
44.442703
 31
0.0
  0
LINE
  5
132
330
1D
100
AcDbEntity
  8
型材断面
  6
Continuous
100
AcDbLine
 10
27.257727
 20
42.060553
 30
0.0
 11
45.235215
 21
42.060553
 31
0.0
  0
LINE
  5
133
330
1D
100
AcDbEntity
  8
型材断面
  6
Continuous
100
AcDbLine
 10
27.257727
 20
23.567512
 30
0.0
 11
45.235215
 21
23.567512
 31
0.0
  0
LINE
  5
134
330
1D
100
AcDbEntity
  8
型材断面
  6
Continuous
100
AcDbLine
 10
-11.692273
 20
23.567512
 30
0.0
 11
26.424393
 21
23.567512
 31
0.0
  0
LINE
  5
135
330
1D
100
AcDbEntity
  8
型材断面
  6
Continuous
100
AcDbLine
 10
-11.692273
 20
42.060553
 30
0.0
 11
26.424393
 21
42.060553
 31
0.0
  0
LINE
  5
136
330
1D
100
AcDbEntity
  8
型材断面
  6
Continuous
100
AcDbLine
 10
-50.642273
 20
42.060553
 30
0.0
 11
-12.525608
 21
42.060553
 31
0.0
  0
LINE
  5
137
330
1D
100
AcDbEntity
  8
型材断面
  6
Continuous
100
AcDbLine
 10
-50.642273
 20
23.567512
 30
0.0
 11
-12.525608
 21
23.567512
 31
0.0
  0
LINE
  5
138
330
1D
100
AcDbEntity
  8
型材断面
  6
Continuous
100
AcDbLine
 10
-51.475608
 20
42.060553
 30
0.0
 11
-69.45309500000001
 21
42.060553
 31
0.0
  0
LINE
  5
139
330
1D
100
AcDbEntity
  8
型材断面
  6
Continuous
100
AcDbLine
 10
-69.688795
 20
33.2307
 30
0.0
 11
-69.688795
 21
41.824853
 31
0.0
  0
LINE
  5
13A
330
1D
100
AcDbEntity
  8
型材断面
  6
Continuous
100
AcDbLine
 10
-69.45309500000001
 20
42.060553
 30
0.0
 11
-71.953092
 21
44.560553
 31
0.0
  0
LINE
  5
13B
330
1D
100
AcDbEntity
  8
型材断面
  6
Continuous
100
AcDbLine
 10
47.735212
 20
44.560553
 30
0.0
 11
-71.953092
 21
44.560553
 31
0.0
  0
LINE
  5
13C
330
1D
100
AcDbEntity
  8
型材断面
  6
Continuous
100
AcDbLine
 10
-69.688795
 20
41.824853
 30
0.0
 11
-72.188795
 21
44.324855
 31
0.0
  0
LINE
  5
13D
330
1D
100
AcDbEntity
  8
型材断面
  6
Continuous
100
AcDbLine
 10
-73.60894
 20
45.9807
 30
0.0
 11
-72.070943
 21
44.442703
 31
0.0
  0
LINE
  5
13E
330
1D
100
AcDbEntity
  8
型材断面
  6
Continuous
100
AcDbLine
 10
-51.475608
 20
23.567512
 30
0.0
 11
-69.45309500000001
 21
23.567512
 31
0.0
  0
LINE
  5
13F
330
1D
100
AcDbEntity
  8
型材断面
  6
Continuous
100
AcDbLine
 10
-69.45309500000001
 20
23.567512
 30
0.0
 11
-69.688795
 21
23.803218
 31
0.0
  0
LINE
  5
140
330
1D
100
AcDbEntity
  8
型材断面
  6
Continuous
100
AcDbLine
 10
-69.688795
 20
32.397365
 30
0.0
 11
-69.688795
 21
23.803218
 31
0.0
  0
LINE
  5
141
330
1D
100
AcDbEntity
  8
型材断面
  6
Continuous
100
AcDbLine
 10
-69.45309500000001
 20
23.567512
 30
0.0
 11
-71.953092
 21
21.067512
 31
0.0
  0
LINE
  5
142
330
1D
100
AcDbEntity
  8
型材断面
  6
Continuous
100
AcDbLine
 10
47.735212
 20
21.067512
 30
0.0
 11
-71.953092
 21
21.067512
 31
0.0
  0
LINE
  5
143
330
1D
100
AcDbEntity
  8
型材断面
  6
Continuous
100
AcDbLine
 10
-69.688793
 20
23.803215
 30
0.0
 11
-72.188795
 21
21.30321
 31
0.0
  0
LINE
  5
144
330
1D
100
AcDbEntity
  8
型材断面
  6
Continuous
100
AcDbLine
 10
-72.188795
 20
44.324855
 30
0.0
 11
-72.188795
 21
21.30321
 31
0.0
  0
LINE
  5
145
330
1D
100
AcDbEntity
  8
型材断面
  6
Continuous
100
AcDbLine
 10
-73.60894
 20
19.647365
 30
0.0
 11
-72.070943
 21
21.185362
 31
0.0
  0
LINE
  5
146
330
1D
100
AcDbEntity
  8
型材断面
  6
Continuous
100
AcDbLine
 10
8.624395
 20
24.400843
 30
0.0
 11
8.624395
 21
41.227223
 31
0.0
  0
LINE
  5
147
330
1D
100
AcDbEntity
  8
型材断面
  6
Continuous
100
AcDbLine
 10
6.29106
 20
24.400843
 30
0.0
 11
6.29106
 21
41.227223
 31
0.0
  0
LINE
  5
148
330
1D
100
AcDbEntity
  8
型材断面
  6
Continuous
100
AcDbLine
 10
-30.50894
 20
24.400843
 30
0.0
 11
-30.50894
 21
41.227223
 31
0.0
  0
LINE
  5
149
330
1D
100
AcDbEntity
  8
型材断面
  6
Continuous
100
AcDbLine
 10
-32.842275
 20
24.400843
 30
0.0
 11
-32.842275
 21
41.227223
 31
0.0
  0
LINE
  5
14A
330
1D
100
AcDbEntity
  8
型材断面
  6
Continuous
 62
    14
100
AcDbLine
 10
138.234778
 20
45.9807
 30
0.0
 11
137.734778
 21
45.9807
 31
0.0
  0
LINE
  5
14B
330
1D
100
AcDbEntity
  8
型材断面
  6
Continuous
100
AcDbLine
 10
137.568112
 20
44.147365
 30
0.0
 11
137.734778
 21
45.9807
 31
0.0
  0
LINE
  5
14C
330
1D
100
AcDbEntity
  8
型材断面
  6
Continuous
100
AcDbLine
 10
137.734778
 20
45.9807
 30
0.0
 11
138.234778
 21
45.9807
 31
0.0
  0
LINE
  5
14D
330
1D
100
AcDbEntity
  8
型材断面
  6
Continuous
100
AcDbLine
 10
138.234778
 20
45.147365
 30
0.0
 11
138.568112
 21
45.147365
 31
0.0
  0
LWPOLYLINE
  5
14E
330
1D
100
AcDbEntity
  8
型材断面
  6
Continuous
100
AcDbPolyline
 90
        3
 70
     0
 43
0.0
 10
135.884778
 20
44.147365
 10
135.751442
 20
44.01403
 10
135.601442
 20
44.01403
  0
LINE
  5
153
330
1D
100
AcDbEntity
  8
型材断面
  6
Continuous
100
AcDbLine
 10
137.568112
 20
44.147365
 30
0.0
 11
135.884778
 21
44.147365
 31
0.0
  0
LINE
  5
154
330
1D
100
AcDbEntity
  8
型材断面
  6
Continuous
 62
    14
100
AcDbLine
 10
138.234778
 20
19.647365
 30
0.0
 11
137.734778
 21
19.647365
 31
0.0
  0
LINE
  5
155
330
1D
100
AcDbEntity
  8
型材断面
  6
Continuous
100
AcDbLine
 10
137.568112
 20
21.480695
 30
0.0
 11
137.734778
 21
19.647365
 31
0.0
  0
LINE
  5
156
330
1D
100
AcDbEntity
  8
型材断面
  6
Continuous
100
AcDbLine
 10
137.734778
 20
19.647365
 30
0.0
 11
138.234778
 21
19.647365
 31
0.0
  0
LINE
  5
157
330
1D
100
AcDbEntity
  8
型材断面
  6
Continuous
100
AcDbLine
 10
138.234778
 20
20.480695
 30
0.0
 11
138.568112
 21
20.480695
 31
0.0
  0
LINE
  5
158
330
1D
100
AcDbEntity
  8
型材断面
  6
Continuous
100
AcDbLine
 10
137.568112
 20
21.480695
 30
0.0
 11
137.568112
 21
44.147365
 31
0.0
  0
LINE
  5
159
330
1D
100
AcDbEntity
  8
型材断面
  6
Continuous
100
AcDbLine
 10
137.734778
 20
19.647365
 30
0.0
 11
137.734778
 21
45.9807
 31
0.0
  0
LINE
  5
15A
330
1D
100
AcDbEntity
  8
型材断面
  6
Continuous
100
AcDbLine
 10
138.234778
 20
19.647365
 30
0.0
 11
138.234778
 21
45.9807
 31
0.0
  0
LINE
  5
15B
330
1D
100
AcDbEntity
  8
型材断面
  6
Continuous
100
AcDbLine
 10
138.56811
 20
20.480695
 30
0.0
 11
138.56811
 21
45.147365
 31
0.0
  0
LWPOLYLINE
  5
15C
330
1D
100
AcDbEntity
  8
型材断面
  6
Continuous
100
AcDbPolyline
 90
        3
 70
     0
 43
0.0
 10
135.884778
 20
21.480697
 10
135.751442
 20
21.61403
 10
135.601442
 20
21.61403
  0
LINE
  5
161
330
1D
100
AcDbEntity
  8
型材断面
  6
Continuous
100
AcDbLine
 10
137.568112
 20
21.480695
 30
0.0
 11
135.884778
 21
21.480695
 31
0.0
  0
LINE
  5
162
330
1D
100
AcDbEntity
  8
型材断面
  6
Continuous
100
AcDbLine
 10
135.601442
 20
21.330697
 30
0.0
 11
135.601442
 21
44.297365
 31
0.0
  0
LINE
  5
163
330
1D
100
AcDbEntity
  8
型材断面
  6
Continuous
100
AcDbLine
 10
134.101442
 20
21.174175
 30
0.0
 11
134.101442
 21
44.453885
 31
0.0
  0
LINE
  5
164
330
1D
100
AcDbEntity
  8
型材断面
  6
Continuous
100
AcDbLine
 10
133.934775
 20
44.353888
 30
0.0
 11
133.934775
 21
21.274175
 31
0.0
  0
LINE
  5
165
330
1D
100
AcDbEntity
  8
型材断面
  6
Continuous
100
AcDbLine
 10
135.751442
 20
44.01403
 30
0.0
 11
135.751442
 21
21.61403
 31
0.0
  0
LINE
  5
166
330
1D
100
AcDbEntity
  8
型材断面
  6
Continuous
100
AcDbLine
 10
135.884778
 20
21.480697
 30
0.0
 11
135.884778
 21
44.147365
 31
0.0
  0
LINE
  5
167
330
1D
100
AcDbEntity
  8
型材断面
  6
Continuous
 62
    14
100
AcDbLine
 10
49.391057
 20
-73.085008
 30
0.0
 11
49.391057
 21
-72.585008
 31
0.0
  0
LINE
  5
168
330
1D
100
AcDbEntity
  8
型材断面
  6
Continuous
100
AcDbLine
 10
47.557723
 20
-72.418345
 30
0.0
 11
49.391057
 21
-72.585008
 31
0.0
  0
LINE
  5
169
330
1D
100
AcDbEntity
  8
型材断面
  6
Continuous
100
AcDbLine
 10
49.391057
 20
-72.585008
 30
0.0
 11
49.391057
 21
-73.085008
 31
0.0
  0
LINE
  5
16A
330
1D
100
AcDbEntity
  8
型材断面
  6
Continuous
100
AcDbLine
 10
48.557723
 20
-73.085008
 30
0.0
 11
48.557723
 21
-73.418345
 31
0.0
  0
LWPOLYLINE
  5
16B
330
1D
100
AcDbEntity
  8
型材断面
  6
Continuous
100
AcDbPolyline
 90
        3
 70
     0
 43
0.0
 10
47.557723
 20
-70.73500799999999
 10
47.424388
 20
-70.601675
 10
47.424388
 20
-70.45167499999999
  0
LINE
  5
170
330
1D
100
AcDbEntity
  8
型材断面
  6
Continuous
100
AcDbLine
 10
47.557723
 20
-72.418345
 30
0.0
 11
47.557723
 21
-70.73501
 31
0.0
  0
LINE
  5
171
330
1D
100
AcDbEntity
  8
型材断面
  6
Continuous
 62
    14
100
AcDbLine
 10
-73.608943
 20
-73.085008
 30
0.0
 11
-73.608943
 21
-72.585008
 31
0.0
  0
LINE
  5
172
330
1D
100
AcDbEntity
  8
型材断面
  6
Continuous
100
AcDbLine
 10
-71.77561
 20
-72.418345
 30
0.0
 11
-73.608943
 21
-72.585008
 31
0.0
  0
LINE
  5
173
330
1D
100
AcDbEntity
  8
型材断面
  6
Continuous
100
AcDbLine
 10
-73.608943
 20
-72.585008
 30
0.0
 11
-73.608943
 21
-73.085008
 31
0.0
  0
LINE
  5
174
330
1D
100
AcDbEntity
  8
型材断面
  6
Continuous
100
AcDbLine
 10
-72.77561
 20
-73.085008
 30
0.0
 11
-72.77561
 21
-73.418345
 31
0.0
  0
LINE
  5
175
330
1D
100
AcDbEntity
  8
型材断面
  6
Continuous
100
AcDbLine
 10
-71.77561
 20
-72.418345
 30
0.0
 11
47.557723
 21
-72.418345
 31
0.0
  0
LINE
  5
176
330
1D
100
AcDbEntity
  8
型材断面
  6
Continuous
100
AcDbLine
 10
-73.608943
 20
-72.585008
 30
0.0
 11
49.391057
 21
-72.585008
 31
0.0
  0
LINE
  5
177
330
1D
100
AcDbEntity
  8
型材断面
  6
Continuous
100
AcDbLine
 10
-73.608943
 20
-73.085008
 30
0.0
 11
49.391057
 21
-73.085008
 31
0.0
  0
LINE
  5
178
330
1D
100
AcDbEntity
  8
型材断面
  6
Continuous
100
AcDbLine
 10
-72.77561
 20
-73.41834
 30
0.0
 11
48.557723
 21
-73.41834
 31
0.0
  0
LWPOLYLINE
  5
179
330
1D
100
AcDbEntity
  8
型材断面
  6
Continuous
100
AcDbPolyline
 90
        3
 70
     0
 43
0.0
 10
-71.77560800000001
 20
-70.73500799999999
 10
-71.642275
 20
-70.601675
 10
-71.642275
 20
-70.45167499999999
  0
LINE
  5
17E
330
1D
100
AcDbEntity
  8
型材断面
  6
Continuous
100
AcDbLine
 10
-71.77561
 20
-72.418345
 30
0.0
 11
-71.77561
 21
-70.73501
 31
0.0
  0
LINE
  5
17F
330
1D
100
AcDbEntity
  8
型材断面
  6
Continuous
100
AcDbLine
 10
-71.925608
 20
-70.45167499999999
 30
0.0
 11
47.707723
 21
-70.45167499999999
 31
0.0
  0
LINE
  5
180
330
1D
100
AcDbEntity
  8
型材断面
  6
Continuous
100
AcDbLine
 10
-72.08213000000001
 20
-68.95167499999999
 30
0.0
 11
47.864243
 21
-68.95167499999999
 31
0.0
  0
LINE
  5
181
330
1D
100
AcDbEntity
  8
型材断面
  6
Continuous
100
AcDbLine
 10
47.764245
 20
-68.785005
 30
0.0
 11
-71.98213
 21
-68.785005
 31
0.0
  0
LINE
  5
182
330
1D
100
AcDbEntity
  8
型材断面
  6
Continuous
100
AcDbLine
 10
47.424388
 20
-70.601675
 30
0.0
 11
-71.642275
 21
-70.601675
 31
0.0
  0
LINE
  5
183
330
1D
100
AcDbEntity
  8
型材断面
  6
Continuous
100
AcDbLine
 10
-71.77560800000001
 20
-70.73500799999999
 30
0.0
 11
47.557723
 21
-70.73500799999999
 31
0.0
  0
TEXT
  5
184
330
1D
100
AcDbEntity
  8
文字
  6
Continuous
100
AcDbText
 10
-108.5
 20
84.95
 30
0.0
 40
3.0
  1
は排水穴位置を示す
  7
TextStyle03
 72
     5
 11
-78.5
 21
84.95
 31
0.0
100
AcDbText
  0
TEXT
  5
185
330
1D
100
AcDbEntity
  8
文字
  6
Continuous
100
AcDbText
 10
137.0
 20
-62.775
 30
0.0
 40
3.0
  1
網入り6.8t
  7
TextStyle03
 72
     5
 11
153.6875
 21
-62.775
 31
0.0
100
AcDbText
  0
TEXT
  5
186
330
1D
100
AcDbEntity
  8
文字
  6
Continuous
100
AcDbText
 10
143.675
 20
-67.45
 30
0.0
 40
3.0
  1
×３枚
  7
TextStyle03
 72
     5
 11
153.425
 21
-67.45
 31
0.0
100
AcDbText
  0
TEXT
  5
187
330
1D
100
AcDbEntity
  8
文字
  6
Continuous
100
AcDbText
 10
-91.52500000000001
 20
11.275
 30
0.0
 40
3.0
  1
アンカーピッチ
 50
90.0
  7
TextStyle03
 72
     5
 11
-91.52500000000001
 21
34.525
 31
0.0
100
AcDbText
  0
TEXT
  5
188
330
1D
100
AcDbEntity
  8
文字
  6
Continuous
100
AcDbText
 10
-59.3
 20
79.77500000000001
 30
0.0
 40
3.0
  1
アンカーピッチ
  7
TextStyle03
 72
     5
 11
-36.05
 21
79.77500000000001
 31
0.0
100
AcDbText
  0
TEXT
  5
189
330
1D
100
AcDbEntity
  8
文字
  6
Continuous
100
AcDbText
 10
-112.225
 20
78.925
 30
0.0
 40
3.0
  1
アンカー数量　１４ヶ所
  7
TextStyle03
 72
     5
 11
-75.47499999999999
 21
78.925
 31
0.0
100
AcDbText
  0
LINE
  5
18A
330
1D
100
AcDbEntity
  8
文字
  6
Continuous
100
AcDbLine
 10
133.934775
 20
56.897547
 30
0.0
 11
133.934775
 21
45.685008
 31
0.0
  0
LINE
  5
18B
330
1D
100
AcDbEntity
  8
文字
  6
Continuous
100
AcDbLine
 10
138.234778
 20
56.897547
 30
0.0
 11
138.234778
 21
46.97907
 31
0.0
  0
LINE
  5
18C
330
1D
100
AcDbEntity
  8
文字
  6
Continuous
100
AcDbLine
 10
60.30791
 20
-68.78500800000001
 30
0.0
 11
49.09537
 21
-68.78500800000001
 31
0.0
  0
LINE
  5
18D
330
1D
100
AcDbEntity
  8
文字
  6
Continuous
100
AcDbLine
 10
60.30791
 20
-73.085008
 30
0.0
 11
50.38943
 21
-73.085008
 31
0.0
  0
TEXT
  5
18E
330
1D
100
AcDbEntity
  8
文字
  6
Continuous
100
AcDbText
 10
62.55
 20
125.25
 30
0.0
 40
5.0
  1
シリーズ：ＴＦＦＫＬ
  7
TextStyle03
 72
     5
 11
118.175
 21
125.25
 31
0.0
100
AcDbText
  0
TEXT
  5
18F
330
1D
100
AcDbEntity
  8
文字
  6
Continuous
100
AcDbText
 10
62.55
 20
119.625
 30
0.0
 40
5.0
  1
　　　　　（固定）600×3500タイプ
  7
TextStyle03
 72
     5
 11
154.7375
 21
119.625
 31
0.0
100
AcDbText
  0
TEXT
  5
190
330
1D
100
AcDbEntity
  8
文字
  6
Continuous
100
AcDbText
 10
62.55
 20
114.0
 30
0.0
 40
5.0
  1
図面名　：外観姿図
  7
TextStyle03
 72
     5
 11
112.55
 21
114.0
 31
0.0
100
AcDbText
  0
TEXT
  5
191
330
1D
100
AcDbEntity
  8
文字
  6
Continuous
100
AcDbText
 10
62.55
 20
108.375
 30
0.0
 40
5.0
  1
　　　　　　
  7
TextStyle03
 72
     5
 11
95.675
 21
108.375
 31
0.0
100
AcDbText
  0
INSERT
  5
192
330
1D
100
AcDbEntity
  8
寸法
  6
Continuous
100
AcDbBlockReference
  2
*U1
 10
0.0
 20
0.0
 30
0.0
  0
INSERT
  5
193
330
1D
100
AcDbEntity
  8
寸法
  6
Continuous
100
AcDbBlockReference
  2
*U2
 10
0.0
 20
0.0
 30
0.0
  0
INSERT
  5
194
330
1D
100
AcDbEntity
  8
寸法
  6
Continuous
100
AcDbBlockReference
  2
*U3
 10
0.0
 20
0.0
 30
0.0
  0
INSERT
  5
195
330
1D
100
AcDbEntity
  8
寸法
  6
Continuous
100
AcDbBlockReference
  2
*U4
 10
0.0
 20
0.0
 30
0.0
  0
INSERT
  5
196
330
1D
100
AcDbEntity
  8
寸法
  6
Continuous
100
AcDbBlockReference
  2
*U5
 10
0.0
 20
0.0
 30
0.0
  0
INSERT
  5
197
330
1D
100
AcDbEntity
  8
寸法
  6
Continuous
100
AcDbBlockReference
  2
*U6
 10
0.0
 20
0.0
 30
0.0
  0
INSERT
  5
198
330
1D
100
AcDbEntity
  8
寸法
  6
Continuous
100
AcDbBlockReference
  2
*U7
 10
0.0
 20
0.0
 30
0.0
  0
INSERT
  5
199
330
1D
100
AcDbEntity
  8
寸法
  6
Continuous
100
AcDbBlockReference
  2
*U8
 10
0.0
 20
0.0
 30
0.0
  0
INSERT
  5
19A
330
1D
100
AcDbEntity
  8
寸法
  6
Continuous
100
AcDbBlockReference
  2
*U9
 10
0.0
 20
0.0
 30
0.0
  0
INSERT
  5
19B
330
1D
100
AcDbEntity
  8
寸法
  6
Continuous
100
AcDbBlockReference
  2
*U10
 10
0.0
 20
0.0
 30
0.0
  0
INSERT
  5
19C
330
1D
100
AcDbEntity
  8
寸法
  6
Continuous
100
AcDbBlockReference
  2
*U11
 10
0.0
 20
0.0
 30
0.0
  0
INSERT
  5
19D
330
1D
100
AcDbEntity
  8
寸法
  6
Continuous
100
AcDbBlockReference
  2
*U12
 10
0.0
 20
0.0
 30
0.0
  0
INSERT
  5
19E
330
1D
100
AcDbEntity
  8
寸法
  6
Continuous
100
AcDbBlockReference
  2
*U13
 10
0.0
 20
0.0
 30
0.0
  0
INSERT
  5
19F
330
1D
100
AcDbEntity
  8
寸法
  6
Continuous
100
AcDbBlockReference
  2
*U14
 10
0.0
 20
0.0
 30
0.0
  0
INSERT
  5
1A0
330
1D
100
AcDbEntity
  8
寸法
  6
Continuous
100
AcDbBlockReference
  2
*U15
 10
0.0
 20
0.0
 30
0.0
  0
INSERT
  5
1A1
330
1D
100
AcDbEntity
  8
寸法
  6
Continuous
100
AcDbBlockReference
  2
*U16
 10
0.0
 20
0.0
 30
0.0
  0
LINE
  5
1A2
330
1D
100
AcDbEntity
  8
別途部材
  6
Continuous
 62
    47
100
AcDbLine
 10
134.034775
 20
44.453885
 30
0.0
 11
134.101442
 21
44.453885
 31
0.0
  0
ARC
  5
1A3
330
1D
100
AcDbEntity
  8
別途部材
  6
Continuous
 62
    47
100
AcDbCircle
 10
134.034776
 20
44.353886
 30
0.0
 40
0.1
100
AcDbArc
 50
90.0
 51
180.0
  0
LINE
  5
1A4
330
1D
100
AcDbEntity
  8
別途部材
  6
Continuous
 62
    47
100
AcDbLine
 10
134.101442
 20
44.297365
 30
0.0
 11
135.601442
 21
44.297365
 31
0.0
  0
LINE
  5
1A5
330
1D
100
AcDbEntity
  8
別途部材
  6
Continuous
 62
    47
100
AcDbLine
 10
134.034775
 20
21.174175
 30
0.0
 11
134.101442
 21
21.174175
 31
0.0
  0
ARC
  5
1A6
330
1D
100
AcDbEntity
  8
別途部材
  6
Continuous
 62
    47
100
AcDbCircle
 10
134.034776
 20
21.274175
 30
0.0
 40
0.1
100
AcDbArc
 50
180.0
 51
270.0
  0
LINE
  5
1A7
330
1D
100
AcDbEntity
  8
別途部材
  6
Continuous
 62
    47
100
AcDbLine
 10
134.101442
 20
21.330697
 30
0.0
 11
135.601442
 21
21.330697
 31
0.0
  0
LINE
  5
1A8
330
1D
100
AcDbEntity
  8
別途部材
  6
Continuous
 62
    47
100
AcDbLine
 10
47.864243
 20
-68.88500500000001
 30
0.0
 11
47.864243
 21
-68.95167499999999
 31
0.0
  0
ARC
  5
1A9
330
1D
100
AcDbEntity
  8
別途部材
  6
Continuous
 62
    47
100
AcDbCircle
 10
47.764243
 20
-68.885007
 30
0.0
 40
0.1
100
AcDbArc
 50
0.0
 51
90.0
  0
LINE
  5
1AA
330
1D
100
AcDbEntity
  8
別途部材
  6
Continuous
 62
    47
100
AcDbLine
 10
47.707723
 20
-68.95167499999999
 30
0.0
 11
47.707723
 21
-70.45167499999999
 31
0.0
  0
LINE
  5
1AB
330
1D
100
AcDbEntity
  8
別途部材
  6
Continuous
 62
    47
100
AcDbLine
 10
-72.08213000000001
 20
-68.88500500000001
 30
0.0
 11
-72.08213000000001
 21
-68.95167499999999
 31
0.0
  0
ARC
  5
1AC
330
1D
100
AcDbEntity
  8
別途部材
  6
Continuous
 62
    47
100
AcDbCircle
 10
-71.982131
 20
-68.885007
 30
0.0
 40
0.1
100
AcDbArc
 50
90.0
 51
180.0
  0
LINE
  5
1AD
330
1D
100
AcDbEntity
  8
別途部材
  6
Continuous
 62
    47
100
AcDbLine
 10
-71.925608
 20
-68.95167499999999
 30
0.0
 11
-71.925608
 21
-70.45167499999999
 31
0.0
  0
LINE
  5
1AE
330
1D
100
AcDbEntity
  8
曲げ物
  6
Continuous
100
AcDbLine
 10
155.537835
 20
-69.20038
 30
0.0
 11
155.537835
 21
-49.533713
 31
0.0
  0
LINE
  5
1AF
330
1D
100
AcDbEntity
  8
曲げ物
  6
Continuous
100
AcDbLine
 10
-10.306182
 20
34.61679
 30
0.0
 11
-14.001495
 21
30.921478
 31
0.0
  0
LINE
  5
1B0
330
1D
100
AcDbEntity
  8
曲げ物
  6
Continuous
100
AcDbLine
 10
-11.009652
 20
33.08068
 30
0.0
 11
-12.465383
 21
31.62495
 31
0.0
  0
LINE
  5
1B1
330
1D
100
AcDbEntity
  8
曲げ物
  6
Continuous
100
AcDbLine
 10
-11.842292
 20
33.91332
 30
0.0
 11
-13.298023
 21
32.45759
 31
0.0
  0
LINE
  5
1B2
330
1D
100
AcDbEntity
  8
曲げ物
  6
Continuous
100
AcDbLine
 10
-11.009652
 20
33.08068
 30
0.0
 11
-12.465383
 21
31.62495
 31
0.0
  0
LINE
  5
1B3
330
1D
100
AcDbEntity
  8
曲げ物
  6
Continuous
100
AcDbLine
 10
-11.842292
 20
33.91332
 30
0.0
 11
-13.298023
 21
32.45759
 31
0.0
  0
LINE
  5
1B4
330
1D
100
AcDbEntity
  8
曲げ物
  6
Continuous
100
AcDbLine
 10
28.610488
 20
34.61679
 30
0.0
 11
24.915175
 21
30.921478
 31
0.0
  0
LINE
  5
1B5
330
1D
100
AcDbEntity
  8
曲げ物
  6
Continuous
100
AcDbLine
 10
27.907018
 20
33.08068
 30
0.0
 11
26.451288
 21
31.62495
 31
0.0
  0
LINE
  5
1B6
330
1D
100
AcDbEntity
  8
曲げ物
  6
Continuous
100
AcDbLine
 10
27.074378
 20
33.91332
 30
0.0
 11
25.618648
 21
32.45759
 31
0.0
  0
LINE
  5
1B7
330
1D
100
AcDbEntity
  8
曲げ物
  6
Continuous
100
AcDbLine
 10
27.907018
 20
33.08068
 30
0.0
 11
26.451288
 21
31.62495
 31
0.0
  0
LINE
  5
1B8
330
1D
100
AcDbEntity
  8
曲げ物
  6
Continuous
100
AcDbLine
 10
27.074378
 20
33.91332
 30
0.0
 11
25.618648
 21
32.45759
 31
0.0
  0
LINE
  5
1B9
330
1D
100
AcDbEntity
  8
曲げ物
  6
Continuous
100
AcDbLine
 10
-49.222853
 20
34.61679
 30
0.0
 11
-52.918165
 21
30.921478
 31
0.0
  0
LINE
  5
1BA
330
1D
100
AcDbEntity
  8
曲げ物
  6
Continuous
100
AcDbLine
 10
-49.926322
 20
33.08068
 30
0.0
 11
-51.382053
 21
31.62495
 31
0.0
  0
LINE
  5
1BB
330
1D
100
AcDbEntity
  8
曲げ物
  6
Continuous
100
AcDbLine
 10
-50.758962
 20
33.91332
 30
0.0
 11
-52.214692
 21
32.45759
 31
0.0
  0
LINE
  5
1BC
330
1D
100
AcDbEntity
  8
曲げ物
  6
Continuous
100
AcDbLine
 10
-49.926322
 20
33.08068
 30
0.0
 11
-51.382053
 21
31.62495
 31
0.0
  0
LINE
  5
1BD
330
1D
100
AcDbEntity
  8
曲げ物
  6
Continuous
100
AcDbLine
 10
-50.758962
 20
33.91332
 30
0.0
 11
-52.214692
 21
32.45759
 31
0.0
  0
LINE
  5
1BE
330
1D
100
AcDbEntity
  8
曲げ物
  6
Continuous
100
AcDbLine
 10
155.537835
 20
-49.533713
 30
0.0
 11
117.471168
 21
-49.533713
 31
0.0
  0
LINE
  5
1BF
330
1D
100
AcDbEntity
  8
曲げ物
  6
Continuous
100
AcDbLine
 10
155.537835
 20
-69.20038
 30
0.0
 11
117.471168
 21
-69.20038
 31
0.0
  0
LINE
  5
1C0
330
1D
100
AcDbEntity
  8
曲げ物
  6
Continuous
100
AcDbLine
 10
117.471168
 20
-49.533713
 30
0.0
 11
117.471168
 21
-69.20038
 31
0.0
  0
ENDSEC
  0
SECTION
  2
OBJECTS
  0
DICTIONARY
  5
C
330
0
100
AcDbDictionary
281
     1
  3
ACAD_GROUP
350
D
  3
ACAD_LAYOUT
350
1A
  3
ACAD_MLINESTYLE
350
17
  3
ACAD_PLOTSETTINGS
350
19
  3
ACAD_PLOTSTYLENAME
350
E
  0
DICTIONARY
  5
D
102
{ACAD_REACTORS
330
C
102
}
330
C
100
AcDbDictionary
281
     1
  0
DICTIONARY
  5
1A
102
{ACAD_REACTORS
330
C
102
}
330
C
100
AcDbDictionary
281
     1
  3
Layout1
350
1C
  3
Model
350
1E
  0
DICTIONARY
  5
17
102
{ACAD_REACTORS
330
C
102
}
330
C
100
AcDbDictionary
281
     1
  3
Standard
350
18
  0
DICTIONARY
  5
19
102
{ACAD_REACTORS
330
C
102
}
330
C
100
AcDbDictionary
281
     1
  0
ACDBDICTIONARYWDFLT
  5
E
102
{ACAD_REACTORS
330
C
102
}
330
C
100
AcDbDictionary
281
     1
  3
Normal
350
F
100
AcDbDictionaryWithDefault
340
F
  0
LAYOUT
  5
1C
102
{ACAD_REACTORS
330
1A
102
}
330
1A
100
AcDbPlotSettings
  1

  2

  4

  6

 40
0.0
 41
0.0
 42
0.0
 43
0.0
 44
0.0
 45
0.0
 46
0.0
 47
0.0
 48
0.0
 49
0.0
140
0.0
141
0.0
142
1.0
143
1.0
 70
   688
 72
     0
 73
     0
 74
     5
  7

 75
    16
 76
     0
 77
     2
 78
   300
147
1.0
148
0.0
149
0.0
100
AcDbLayout
  1
Layout1
 70
     1
 71
     1
 10
0.0
 20
0.0
 11
12.0
 21
9.0
 12
0.0
 22
0.0
 32
0.0
 14
1.000000000000000E+20
 24
1.000000000000000E+20
 34
1.000000000000000E+20
 15
-1.000000000000000E+20
 25
-1.000000000000000E+20
 35
-1.000000000000000E+20
146
0.0
 13
0.0
 23
0.0
 33
0.0
 16
1.0
 26
0.0
 36
0.0
 17
0.0
 27
1.0
 37
0.0
 76
     0
330
1B
  0
LAYOUT
  5
1E
102
{ACAD_REACTORS
330
1A
102
}
330
1A
100
AcDbPlotSettings
  1

  2

  4

  6

 40
0.0
 41
0.0
 42
0.0
 43
0.0
 44
0.0
 45
0.0
 46
0.0
 47
0.0
 48
0.0
 49
0.0
140
0.0
141
0.0
142
1.0
143
1.0
 70
  1712
 72
     0
 73
     0
 74
     0
  7

 75
     0
 76
     0
 77
     2
 78
   300
147
1.0
148
0.0
149
0.0
100
AcDbLayout
  1
Model
 70
     1
 71
     0
 10
0.0
 20
0.0
 11
0.0
 21
0.0
 12
0.0
 22
0.0
 32
0.0
 14
-210.0
 24
-148.5
 34
0.0
 15
210.0
 25
148.5
 35
0.0
146
0.0
 13
0.0
 23
0.0
 33
0.0
 16
1.0
 26
0.0
 36
0.0
 17
0.0
 27
1.0
 37
0.0
 76
     0
330
1D
  0
MLINESTYLE
  5
18
102
{ACAD_REACTORS
330
17
102
}
330
17
100
AcDbMlineStyle
  2
Standard
 70
     0
  3

 62
   256
 51
90.0
 52
90.0
 71
     2
 49
0.5
 62
   256
  6
BYLAYER
 49
-0.5
 62
   256
  6
BYLAYER
  0
ACDBPLACEHOLDER
  5
F
102
{ACAD_REACTORS
330
E
102
}
330
E
  0
ENDSEC
  0
EOF
