  0
SECTION
  2
HEADER
  9
$ACADVER
  1
AC1018
  9
$ACADMAINTVER
 70
     0
  9
$DWGCODEPAGE
  3
ANSI_932
  9
$INSBASE
 10
0.0
 20
0.0
 30
0.0
  9
$EXTMIN
 10
-210.0
 20
-148.5
 30
0.0
  9
$EXTMAX
 10
210.0
 20
148.5
 30
0.0
  9
$LIMMIN
 10
0.0
 20
0.0
  9
$LIMMAX
 10
12.0
 20
9.0
  9
$ORTHOMODE
 70
     0
  9
$REGENMODE
 70
     1
  9
$FILLMODE
 70
     1
  9
$QTEXTMODE
 70
     0
  9
$MIRRTEXT
 70
     1
  9
$LTSCALE
 40
10.0
  9
$ATTMODE
 70
     1
  9
$TEXTSIZE
 40
0.2
  9
$TRACEWID
 40
0.05
  9
$TEXTSTYLE
  7
STANDARD
  9
$CLAYER
  8
0
  9
$CELTYPE
  6
ByBlock
  9
$CECOLOR
 62
   256
  9
$CELTSCALE
 40
1.0
  9
$DISPSILH
 70
     0
  9
$DIMSCALE
 40
1.0
  9
$DIMASZ
 40
0.18
  9
$DIMEXO
 40
0.0625
  9
$DIMDLI
 40
0.38
  9
$DIMRND
 40
0.0
  9
$DIMDLE
 40
0.0
  9
$DIMEXE
 40
0.18
  9
$DIMTP
 40
0.0
  9
$DIMTM
 40
0.0
  9
$DIMTXT
 40
0.18
  9
$DIMCEN
 40
0.09
  9
$DIMTSZ
 40
0.0
  9
$DIMTOL
 70
     0
  9
$DIMLIM
 70
     0
  9
$DIMTIH
 70
     1
  9
$DIMTOH
 70
     1
  9
$DIMSE1
 70
     0
  9
$DIMSE2
 70
     0
  9
$DIMTAD
 70
     0
  9
$DIMZIN
 70
     0
  9
$DIMBLK
  1

  9
$DIMASO
 70
     1
  9
$DIMSHO
 70
     1
  9
$DIMPOST
  1

  9
$DIMAPOST
  1

  9
$DIMALT
 70
     0
  9
$DIMALTD
 70
     2
  9
$DIMALTF
 40
25.4
  9
$DIMLFAC
 40
1.0
  9
$DIMTOFL
 70
     0
  9
$DIMTVP
 40
0.0
  9
$DIMTIX
 70
     0
  9
$DIMSOXD
 70
     0
  9
$DIMSAH
 70
     0
  9
$DIMBLK1
  1

  9
$DIMBLK2
  1

  9
$DIMSTYLE
  2
Standard
  9
$DIMCLRD
 70
     0
  9
$DIMCLRE
 70
     0
  9
$DIMCLRT
 70
     0
  9
$DIMTFAC
 40
1.0
  9
$DIMGAP
 40
0.09
  9
$DIMJUST
 70
     0
  9
$DIMSD1
 70
     0
  9
$DIMSD2
 70
     0
  9
$DIMTOLJ
 70
     1
  9
$DIMTZIN
 70
     0
  9
$DIMALTZ
 70
     0
  9
$DIMALTTZ
 70
     0
  9
$DIMUPT
 70
     0
  9
$DIMDEC
 70
     4
  9
$DIMTDEC
 70
     4
  9
$DIMALTU
 70
     2
  9
$DIMALTTD
 70
     2
  9
$DIMTXSTY
  7
STANDARD
  9
$DIMAUNIT
 70
     0
  9
$DIMADEC
 70
     0
  9
$DIMALTRND
 40
0.0
  9
$DIMAZIN
 70
     0
  9
$DIMDSEP
 70
    46
  9
$DIMATFIT
 70
     3
  9
$DIMFRAC
 70
     0
  9
$DIMLDRBLK
  1

  9
$DIMLUNIT
 70
     2
  9
$DIMLWD
 70
    -2
  9
$DIMLWE
 70
    -2
  9
$DIMTMOVE
 70
     0
  9
$LUNITS
 70
     2
  9
$LUPREC
 70
     4
  9
$SKETCHINC
 40
0.1
  9
$FILLETRAD
 40
0.5
  9
$AUNITS
 70
     0
  9
$AUPREC
 70
     0
  9
$MENU
  1
.
  9
$ELEVATION
 40
0.0
  9
$PELEVATION
 40
0.0
  9
$THICKNESS
 40
0.0
  9
$LIMCHECK
 70
     0
  9
$CHAMFERA
 40
0.5
  9
$CHAMFERB
 40
0.5
  9
$CHAMFERC
 40
1.0
  9
$CHAMFERD
 40
0.0
  9
$SKPOLY
 70
     0
  9
$TDCREATE
 40
2460242.412734884
  9
$TDUCREATE
 40
2460242.037734884
  9
$TDUPDATE
 40
2460242.412734896
  9
$TDUUPDATE
 40
2460242.037734896
  9
$TDINDWG
 40
0.0000000116
  9
$TDUSRTIMER
 40
0.0000000116
  9
$USRTIMER
 70
     1
  9
$ANGBASE
 50
0.0
  9
$ANGDIR
 70
     0
  9
$PDMODE
 70
    32
  9
$PDSIZE
 40
1.5
  9
$PLINEWID
 40
0.0
  9
$SPLFRAME
 70
     0
  9
$SPLINETYPE
 70
     6
  9
$SPLINESEGS
 70
     8
  9
$HANDSEED
  5
87D
  9
$SURFTAB1
 70
     6
  9
$SURFTAB2
 70
     6
  9
$SURFTYPE
 70
     6
  9
$SURFU
 70
     6
  9
$SURFV
 70
     6
  9
$UCSBASE
  2

  9
$UCSNAME
  2

  9
$UCSORG
 10
0.0
 20
0.0
 30
0.0
  9
$UCSXDIR
 10
1.0
 20
0.0
 30
0.0
  9
$UCSYDIR
 10
0.0
 20
1.0
 30
0.0
  9
$UCSORTHOREF
  2

  9
$UCSORTHOVIEW
 70
     0
  9
$UCSORGTOP
 10
0.0
 20
0.0
 30
0.0
  9
$UCSORGBOTTOM
 10
0.0
 20
0.0
 30
0.0
  9
$UCSORGLEFT
 10
0.0
 20
0.0
 30
0.0
  9
$UCSORGRIGHT
 10
0.0
 20
0.0
 30
0.0
  9
$UCSORGFRONT
 10
0.0
 20
0.0
 30
0.0
  9
$UCSORGBACK
 10
0.0
 20
0.0
 30
0.0
  9
$PUCSBASE
  2

  9
$PUCSNAME
  2

  9
$PUCSORG
 10
0.0
 20
0.0
 30
0.0
  9
$PUCSXDIR
 10
1.0
 20
0.0
 30
0.0
  9
$PUCSYDIR
 10
0.0
 20
1.0
 30
0.0
  9
$PUCSORTHOREF
  2

  9
$PUCSORTHOVIEW
 70
     0
  9
$PUCSORGTOP
 10
0.0
 20
0.0
 30
0.0
  9
$PUCSORGBOTTOM
 10
0.0
 20
0.0
 30
0.0
  9
$PUCSORGLEFT
 10
0.0
 20
0.0
 30
0.0
  9
$PUCSORGRIGHT
 10
0.0
 20
0.0
 30
0.0
  9
$PUCSORGFRONT
 10
0.0
 20
0.0
 30
0.0
  9
$PUCSORGBACK
 10
0.0
 20
0.0
 30
0.0
  9
$USERI1
 70
     0
  9
$USERI2
 70
     0
  9
$USERI3
 70
     0
  9
$USERI4
 70
     0
  9
$USERI5
 70
     0
  9
$USERR1
 40
0.0
  9
$USERR2
 40
0.0
  9
$USERR3
 40
0.0
  9
$USERR4
 40
0.0
  9
$USERR5
 40
0.0
  9
$WORLDVIEW
 70
     1
  9
$SHADEDGE
 70
     3
  9
$SHADEDIF
 70
    70
  9
$TILEMODE
 70
     1
  9
$MAXACTVP
 70
    64
  9
$PINSBASE
 10
0.0
 20
0.0
 30
0.0
  9
$PLIMCHECK
 70
     0
  9
$PEXTMIN
 10
1.000000000000000E+20
 20
1.000000000000000E+20
 30
1.000000000000000E+20
  9
$PEXTMAX
 10
-1.000000000000000E+20
 20
-1.000000000000000E+20
 30
-1.000000000000000E+20
  9
$PLIMMIN
 10
0.0
 20
0.0
  9
$PLIMMAX
 10
12.0
 20
9.0
  9
$UNITMODE
 70
     0
  9
$VISRETAIN
 70
     1
  9
$PLINEGEN
 70
     0
  9
$PSLTSCALE
 70
     1
  9
$TREEDEPTH
 70
  3020
  9
$CMLSTYLE
  2
Standard
  9
$CMLJUST
 70
     0
  9
$CMLSCALE
 40
1.0
  9
$PROXYGRAPHICS
 70
     1
  9
$MEASUREMENT
 70
     0
  9
$CELWEIGHT
370
    -1
  9
$ENDCAPS
280
     0
  9
$JOINSTYLE
280
     0
  9
$LWDISPLAY
290
     0
  9
$INSUNITS
 70
     0
  9
$HYPERLINKBASE
  1

  9
$STYLESHEET
  1

  9
$XEDIT
290
     1
  9
$CEPSNTYPE
380
     0
  9
$PSTYLEMODE
290
     1
  9
$FINGERPRINTGUID
  2
{50C56100-17DC-42D6-B69C-E3136CAEF496}
  9
$VERSIONGUID
  2
{FAEB1C32-E019-11D5-929B-00C0DF256EC4}
  9
$EXTNAMES
290
     1
  9
$PSVPSCALE
 40
0.0
  9
$OLESTARTUP
290
     0
  9
$SORTENTS
280
   127
  9
$INDEXCTL
280
     0
  9
$HIDETEXT
280
     1
  9
$XCLIPFRAME
290
     0
  9
$HALOGAP
280
     0
  9
$OBSCOLOR
 70
   257
  9
$OBSLTYPE
280
     0
  9
$INTERSECTIONDISPLAY
280
     0
  9
$INTERSECTIONCOLOR
 70
   257
  9
$DIMASSOC
280
     2
  9
$PROJECTNAME
  1

  0
ENDSEC
  0
SECTION
  2
CLASSES
  0
CLASS
  1
ACDBDICTIONARYWDFLT
  2
AcDbDictionaryWithDefault
  3
ObjectDBX Classes
 90
        0
 91
        3
280
     0
281
     0
  0
ENDSEC
  0
SECTION
  2
TABLES
  0
TABLE
  2
VPORT
  5
8
330
0
100
AcDbSymbolTable
 70
     1
  0
VPORT
  5
878
330
8
100
AcDbSymbolTableRecord
100
AcDbViewportTableRecord
  2
*Active
 70
     0
 10
0.0
 20
0.0
 11
1.0
 21
1.0
 12
10.42990654205607
 22
4.5
 13
0.0
 23
0.0
 14
0.5
 24
0.5
 15
0.5
 25
0.5
 16
0.0
 26
0.0
 36
1.0
 17
0.0
 27
0.0
 37
0.0
 40
9.0
 41
1.972972972850329
 42
50.0
 43
0.0
 44
0.0
 50
0.0
 51
0.0
 71
     0
 72
   100
 73
     1
 74
     3
 75
     0
 76
     0
 77
     0
 78
     0
281
     0
 65
     1
110
0.0
120
0.0
130
0.0
111
1.0
121
0.0
131
0.0
112
0.0
122
1.0
132
0.0
 79
     0
146
0.0
  0
ENDTAB
  0
TABLE
  2
LTYPE
  5
5
330
0
100
AcDbSymbolTable
 70
     9
  0
LTYPE
  5
14
330
5
100
AcDbSymbolTableRecord
100
AcDbLinetypeTableRecord
  2
ByBlock
 70
     0
  3

 72
    65
 73
     0
 40
0.0
  0
LTYPE
  5
15
330
5
100
AcDbSymbolTableRecord
100
AcDbLinetypeTableRecord
  2
ByLayer
 70
     0
  3

 72
    65
 73
     0
 40
0.0
  0
LTYPE
  5
16
330
5
100
AcDbSymbolTableRecord
100
AcDbLinetypeTableRecord
  2
CONTINUOUS
 70
     0
  3
実線
 72
    65
 73
     0
 40
0.0
  0
LTYPE
  5
21
330
5
100
AcDbSymbolTableRecord
100
AcDbLinetypeTableRecord
  2
DASHED
 70
     0
  3
破線A
 72
    65
 73
     2
 40
0.6000000000000001
 49
0.4
 74
     0
 49
-0.2
 74
     0
  0
LTYPE
  5
22
330
5
100
AcDbSymbolTableRecord
100
AcDbLinetypeTableRecord
  2
DASHEDX2
 70
     0
  3
破線B
 72
    65
 73
     2
 40
1.3
 49
0.9
 74
     0
 49
-0.4
 74
     0
  0
LTYPE
  5
23
330
5
100
AcDbSymbolTableRecord
100
AcDbLinetypeTableRecord
  2
DASHDOT
 70
     0
  3
１点鎖線A
 72
    65
 73
     4
 40
0.5375
 49
0.375
 74
     0
 49
-0.05
 74
     0
 49
0.0625
 74
     0
 49
-0.05
 74
     0
  0
LTYPE
  5
24
330
5
100
AcDbSymbolTableRecord
100
AcDbLinetypeTableRecord
  2
DASHDOTX2
 70
     0
  3
１点鎖線B
 72
    65
 73
     4
 40
1.075
 49
0.75
 74
     0
 49
-0.1
 74
     0
 49
0.125
 74
     0
 49
-0.1
 74
     0
  0
LTYPE
  5
25
330
5
100
AcDbSymbolTableRecord
100
AcDbLinetypeTableRecord
  2
DIVIDE2
 70
     0
  3
２点鎖線A
 72
    65
 73
     6
 40
0.5125
 49
0.3
 74
     0
 49
-0.0375
 74
     0
 49
0.05
 74
     0
 49
-0.0375
 74
     0
 49
0.05
 74
     0
 49
-0.0375
 74
     0
  0
LTYPE
  5
26
330
5
100
AcDbSymbolTableRecord
100
AcDbLinetypeTableRecord
  2
DIVIDE
 70
     0
  3
２点鎖線B
 72
    65
 73
     6
 40
1.05
 49
0.55
 74
     0
 49
-0.1
 74
     0
 49
0.1
 74
     0
 49
-0.1
 74
     0
 49
0.1
 74
     0
 49
-0.1
 74
     0
  0
LTYPE
  5
27
330
5
100
AcDbSymbolTableRecord
100
AcDbLinetypeTableRecord
  2
DOT
 70
     0
  3
点線A
 72
    65
 73
     2
 40
0.1125
 49
0.0625
 74
     0
 49
-0.05
 74
     0
  0
LTYPE
  5
28
330
5
100
AcDbSymbolTableRecord
100
AcDbLinetypeTableRecord
  2
DOTX2
 70
     0
  3
点線B
 72
    65
 73
     2
 40
0.275
 49
0.15
 74
     0
 49
-0.125
 74
     0
  0
ENDTAB
  0
TABLE
  2
LAYER
  5
2
330
0
100
AcDbSymbolTable
 70
    34
  0
LAYER
  5
10
330
2
100
AcDbSymbolTableRecord
100
AcDbLayerTableRecord
  2
0
 70
     0
 62
    17
  6
CONTINUOUS
370
    -3
390
F
  0
LAYER
  5
2F
330
2
100
AcDbSymbolTableRecord
100
AcDbLayerTableRecord
  2
通り芯
 70
     0
 62
    15
  6
CONTINUOUS
370
    -3
390
F
  0
LAYER
  5
30
330
2
100
AcDbSymbolTableRecord
100
AcDbLayerTableRecord
  2
補助線
 70
     0
 62
    16
  6
DOT
370
    -3
390
F
  0
LAYER
  5
31
330
2
100
AcDbSymbolTableRecord
100
AcDbLayerTableRecord
  2
躯体
 70
     0
 62
    31
  6
CONTINUOUS
370
    -3
390
F
  0
LAYER
  5
32
330
2
100
AcDbSymbolTableRecord
100
AcDbLayerTableRecord
  2
型材
 70
     0
 62
    32
  6
CONTINUOUS
370
    -3
390
F
  0
LAYER
  5
33
330
2
100
AcDbSymbolTableRecord
100
AcDbLayerTableRecord
  2
型材断面
 70
     0
 62
    47
  6
CONTINUOUS
370
    -3
390
F
  0
LAYER
  5
34
330
2
100
AcDbSymbolTableRecord
100
AcDbLayerTableRecord
  2
ガラス
 70
     0
 62
    48
  6
CONTINUOUS
370
    -3
390
F
  0
LAYER
  5
35
330
2
100
AcDbSymbolTableRecord
100
AcDbLayerTableRecord
  2
ゴム等
 70
     0
 62
    63
  6
CONTINUOUS
370
    -3
390
F
  0
LAYER
  5
36
330
2
100
AcDbSymbolTableRecord
100
AcDbLayerTableRecord
  2
ボルト／ビス
 70
     0
 62
    64
  6
CONTINUOUS
370
    -3
390
F
  0
LAYER
  5
37
330
2
100
AcDbSymbolTableRecord
100
AcDbLayerTableRecord
  2
文字
 70
     0
 62
    79
  6
CONTINUOUS
370
    -3
390
F
  0
LAYER
  5
38
330
2
100
AcDbSymbolTableRecord
100
AcDbLayerTableRecord
  2
寸法
 70
     0
 62
    80
  6
CONTINUOUS
370
    -3
390
F
  0
LAYER
  5
39
330
2
100
AcDbSymbolTableRecord
100
AcDbLayerTableRecord
  2
ﾊｯﾁﾝｸﾞ
 70
     0
 62
    95
  6
CONTINUOUS
370
    -3
390
F
  0
LAYER
  5
3A
330
2
100
AcDbSymbolTableRecord
100
AcDbLayerTableRecord
  2
別途部材
 70
     0
 62
    96
  6
CONTINUOUS
370
    -3
390
F
  0
LAYER
  5
3B
330
2
100
AcDbSymbolTableRecord
100
AcDbLayerTableRecord
  2
曲げ物
 70
     0
 62
   111
  6
CONTINUOUS
370
    -3
390
F
  0
LAYER
  5
3C
330
2
100
AcDbSymbolTableRecord
100
AcDbLayerTableRecord
  2
鉄骨等
 70
     0
 62
   112
  6
CONTINUOUS
370
    -3
390
F
  0
LAYER
  5
3D
330
2
100
AcDbSymbolTableRecord
100
AcDbLayerTableRecord
  2
St
 70
     0
 62
   127
  6
CONTINUOUS
370
    -3
390
F
  0
LAYER
  5
3E
330
2
100
AcDbSymbolTableRecord
100
AcDbLayerTableRecord
  2
その他部品等
 70
     0
 62
   128
  6
CONTINUOUS
370
    -3
390
F
  0
LAYER
  5
3F
330
2
100
AcDbSymbolTableRecord
100
AcDbLayerTableRecord
  2
ｶﾞｽｹｯﾄ
 70
     0
 62
   143
  6
CONTINUOUS
370
    -3
390
F
  0
LAYER
  5
40
330
2
100
AcDbSymbolTableRecord
100
AcDbLayerTableRecord
  2
ｽｹｯﾁ
 70
     0
 62
    14
  6
CONTINUOUS
370
    -3
390
F
  0
LAYER
  5
42
330
2
100
AcDbSymbolTableRecord
100
AcDbLayerTableRecord
  2
1
 70
     0
 62
    30
  6
CONTINUOUS
370
    -3
390
F
  0
LAYER
  5
43
330
2
100
AcDbSymbolTableRecord
100
AcDbLayerTableRecord
  2
4
 70
     0
 62
    33
  6
CONTINUOUS
370
    -3
390
F
  0
LAYER
  5
44
330
2
100
AcDbSymbolTableRecord
100
AcDbLayerTableRecord
  2
ﾚｲﾔ3
 70
     0
 62
    46
  6
CONTINUOUS
370
    -3
390
F
  0
LAYER
  5
45
330
2
100
AcDbSymbolTableRecord
100
AcDbLayerTableRecord
  2
外形線
 70
     0
 62
    49
  6
CONTINUOUS
370
    -3
390
F
  0
LAYER
  5
46
330
2
100
AcDbSymbolTableRecord
100
AcDbLayerTableRecord
  2
部品
 70
     0
 62
    14
  6
CONTINUOUS
370
    -3
390
F
  0
LAYER
  5
47
330
2
100
AcDbSymbolTableRecord
100
AcDbLayerTableRecord
  2
サッシ芯
 70
     0
 62
    17
  6
DASHDOTX2
370
    -3
390
F
  0
LAYER
  5
48
330
2
100
AcDbSymbolTableRecord
100
AcDbLayerTableRecord
  2
寸法線
 70
     0
 62
    62
  6
CONTINUOUS
370
    -3
390
F
  0
LAYER
  5
49
330
2
100
AcDbSymbolTableRecord
100
AcDbLayerTableRecord
  2
姿図外形線
 70
     0
 62
    65
  6
CONTINUOUS
370
    -3
390
F
  0
LAYER
  5
4A
330
2
100
AcDbSymbolTableRecord
100
AcDbLayerTableRecord
  2
姿補助線
 70
     0
 62
    30
  6
CONTINUOUS
370
    -3
390
F
  0
LAYER
  5
4B
330
2
100
AcDbSymbolTableRecord
100
AcDbLayerTableRecord
  2
透視線
 70
     0
 62
    78
  6
DOT
370
    -3
390
F
  0
LAYER
  5
4C
330
2
100
AcDbSymbolTableRecord
100
AcDbLayerTableRecord
  2
用紙
 70
     0
 62
    81
  6
CONTINUOUS
370
    -3
390
F
  0
LAYER
  5
4D
330
2
100
AcDbSymbolTableRecord
100
AcDbLayerTableRecord
  2
実線図枠
 70
     0
 62
    94
  6
CONTINUOUS
370
    -3
390
F
  0
LAYER
  5
4E
330
2
100
AcDbSymbolTableRecord
100
AcDbLayerTableRecord
  2
補助図枠
 70
     0
 62
    97
  6
CONTINUOUS
370
    -3
390
F
  0
LAYER
  5
4F
330
2
100
AcDbSymbolTableRecord
100
AcDbLayerTableRecord
  2
建具記号
 70
     0
 62
   110
  6
CONTINUOUS
370
    -3
390
F
  0
LAYER
  5
50
330
2
100
AcDbSymbolTableRecord
100
AcDbLayerTableRecord
  2
補助文字
 70
     0
 62
   113
  6
CONTINUOUS
370
    -3
390
F
  0
ENDTAB
  0
TABLE
  2
STYLE
  5
3
330
0
100
AcDbSymbolTable
 70
    10
  0
STYLE
  5
11
330
3
100
AcDbSymbolTableRecord
100
AcDbTextStyleTableRecord
  2
STANDARD
 70
     0
 40
1.0
 41
1.0
 50
0.0
 71
     0
 42
1.0
  3
TXT
  4
BIGFONT
  0
STYLE
  5
52
330
3
100
AcDbSymbolTableRecord
100
AcDbTextStyleTableRecord
  2
TATE
 70
     4
 40
1.0
 41
1.0
 50
0.0
 71
     0
 42
1.0
  3
TXT
  4
BIGFONT
  0
STYLE
  5
53
330
3
100
AcDbSymbolTableRecord
100
AcDbTextStyleTableRecord
  2
TextStyle03
 70
     0
 40
1.0
 41
1.0
 50
0.0
 71
     0
 42
1.0
  3
MONOTXT
  4
BIGFONT
  0
STYLE
  5
54
330
3
100
AcDbSymbolTableRecord
100
AcDbTextStyleTableRecord
  2
TextStyle04
 70
     0
 40
1.0
 41
1.0
 50
0.0
 71
     0
 42
1.0
  3
MONOTXT
  4
BIGFONT
  0
STYLE
  5
55
330
3
100
AcDbSymbolTableRecord
100
AcDbTextStyleTableRecord
  2
TextStyle05
 70
     0
 40
1.0
 41
1.0
 50
0.0
 71
     0
 42
1.0
  3
MONOTXT
  4
BIGFONT
  0
STYLE
  5
56
330
3
100
AcDbSymbolTableRecord
100
AcDbTextStyleTableRecord
  2
TextStyle06
 70
     0
 40
1.0
 41
1.0
 50
0.0
 71
     0
 42
1.0
  3
MONOTXT
  4
BIGFONT
  0
STYLE
  5
57
330
3
100
AcDbSymbolTableRecord
100
AcDbTextStyleTableRecord
  2
TextStyle07
 70
     0
 40
1.0
 41
1.0
 50
0.0
 71
     0
 42
1.0
  3
MONOTXT
  4
BIGFONT
  0
STYLE
  5
58
330
3
100
AcDbSymbolTableRecord
100
AcDbTextStyleTableRecord
  2
TextStyle08
 70
     0
 40
1.0
 41
1.0
 50
0.0
 71
     0
 42
1.0
  3
MONOTXT
  4
BIGFONT
  0
STYLE
  5
59
330
3
100
AcDbSymbolTableRecord
100
AcDbTextStyleTableRecord
  2
TextStyle09
 70
     0
 40
1.0
 41
1.0
 50
0.0
 71
     0
 42
1.0
  3
MONOTXT
  4
BIGFONT
  0
STYLE
  5
5A
330
3
100
AcDbSymbolTableRecord
100
AcDbTextStyleTableRecord
  2
TextStyle10
 70
     0
 40
1.0
 41
1.0
 50
0.0
 71
     0
 42
1.0
  3
MONOTXT
  4
BIGFONT
  0
ENDTAB
  0
TABLE
  2
VIEW
  5
6
330
0
100
AcDbSymbolTable
 70
     0
  0
ENDTAB
  0
TABLE
  2
UCS
  5
7
330
0
100
AcDbSymbolTable
 70
     0
  0
ENDTAB
  0
TABLE
  2
APPID
  5
9
330
0
100
AcDbSymbolTable
 70
     1
  0
APPID
  5
12
330
9
100
AcDbSymbolTableRecord
100
AcDbRegAppTableRecord
  2
ACAD
 70
     0
  0
ENDTAB
  0
TABLE
  2
DIMSTYLE
  5
A
330
0
100
AcDbSymbolTable
 70
     1
100
AcDbDimStyleTable
  0
DIMSTYLE
105
5B
330
A
100
AcDbSymbolTableRecord
100
AcDbDimStyleTableRecord
  2
Standard
 70
     0
340
11
  0
ENDTAB
  0
TABLE
  2
BLOCK_RECORD
  5
1
330
0
100
AcDbSymbolTable
 70
    57
  0
BLOCK_RECORD
  5
1D
330
1
100
AcDbSymbolTableRecord
100
AcDbBlockTableRecord
  2
*Model_Space
340
1E
  0
BLOCK_RECORD
  5
1B
330
1
100
AcDbSymbolTableRecord
100
AcDbBlockTableRecord
  2
*Paper_Space
340
1C
  0
BLOCK_RECORD
  5
5D
330
1
100
AcDbSymbolTableRecord
100
AcDbBlockTableRecord
  2
*U0
340
0
102
{BLKREFS
331
877
102
}
  0
BLOCK_RECORD
  5
6D
330
1
100
AcDbSymbolTableRecord
100
AcDbBlockTableRecord
  2
*U1
340
0
102
{BLKREFS
331
7EF
102
}
  0
BLOCK_RECORD
  5
76
330
1
100
AcDbSymbolTableRecord
100
AcDbBlockTableRecord
  2
*U2
340
0
102
{BLKREFS
331
7FF
102
}
  0
BLOCK_RECORD
  5
8B
330
1
100
AcDbSymbolTableRecord
100
AcDbBlockTableRecord
  2
*U3
340
0
102
{BLKREFS
331
800
102
}
  0
BLOCK_RECORD
  5
B1
330
1
100
AcDbSymbolTableRecord
100
AcDbBlockTableRecord
  2
*U4
340
0
102
{BLKREFS
331
804
102
}
  0
BLOCK_RECORD
  5
10B
330
1
100
AcDbSymbolTableRecord
100
AcDbBlockTableRecord
  2
*U5
340
0
102
{BLKREFS
331
805
102
}
  0
BLOCK_RECORD
  5
165
330
1
100
AcDbSymbolTableRecord
100
AcDbBlockTableRecord
  2
*U6
340
0
102
{BLKREFS
331
806
102
}
  0
BLOCK_RECORD
  5
1BF
330
1
100
AcDbSymbolTableRecord
100
AcDbBlockTableRecord
  2
*U7
340
0
102
{BLKREFS
331
807
102
}
  0
BLOCK_RECORD
  5
219
330
1
100
AcDbSymbolTableRecord
100
AcDbBlockTableRecord
  2
*U8
340
0
102
{BLKREFS
331
808
102
}
  0
BLOCK_RECORD
  5
273
330
1
100
AcDbSymbolTableRecord
100
AcDbBlockTableRecord
  2
*U9
340
0
102
{BLKREFS
331
809
102
}
  0
BLOCK_RECORD
  5
2CD
330
1
100
AcDbSymbolTableRecord
100
AcDbBlockTableRecord
  2
*U10
340
0
102
{BLKREFS
331
80A
102
}
  0
BLOCK_RECORD
  5
327
330
1
100
AcDbSymbolTableRecord
100
AcDbBlockTableRecord
  2
*U11
340
0
102
{BLKREFS
331
80B
102
}
  0
BLOCK_RECORD
  5
381
330
1
100
AcDbSymbolTableRecord
100
AcDbBlockTableRecord
  2
*U12
340
0
102
{BLKREFS
331
80C
102
}
  0
BLOCK_RECORD
  5
3DB
330
1
100
AcDbSymbolTableRecord
100
AcDbBlockTableRecord
  2
*U13
340
0
102
{BLKREFS
331
80D
102
}
  0
BLOCK_RECORD
  5
435
330
1
100
AcDbSymbolTableRecord
100
AcDbBlockTableRecord
  2
*U14
340
0
102
{BLKREFS
331
80E
102
}
  0
BLOCK_RECORD
  5
48F
330
1
100
AcDbSymbolTableRecord
100
AcDbBlockTableRecord
  2
*U15
340
0
102
{BLKREFS
331
80F
102
}
  0
BLOCK_RECORD
  5
4E9
330
1
100
AcDbSymbolTableRecord
100
AcDbBlockTableRecord
  2
*U16
340
0
102
{BLKREFS
331
810
102
}
  0
BLOCK_RECORD
  5
543
330
1
100
AcDbSymbolTableRecord
100
AcDbBlockTableRecord
  2
*U17
340
0
102
{BLKREFS
331
81E
102
}
  0
BLOCK_RECORD
  5
554
330
1
100
AcDbSymbolTableRecord
100
AcDbBlockTableRecord
  2
*U18
340
0
102
{BLKREFS
331
81F
102
}
  0
BLOCK_RECORD
  5
56A
330
1
100
AcDbSymbolTableRecord
100
AcDbBlockTableRecord
  2
*U19
340
0
102
{BLKREFS
331
820
102
}
  0
BLOCK_RECORD
  5
57C
330
1
100
AcDbSymbolTableRecord
100
AcDbBlockTableRecord
  2
*U20
340
0
102
{BLKREFS
331
821
102
}
  0
BLOCK_RECORD
  5
58D
330
1
100
AcDbSymbolTableRecord
100
AcDbBlockTableRecord
  2
*U21
340
0
102
{BLKREFS
331
822
102
}
  0
BLOCK_RECORD
  5
5B8
330
1
100
AcDbSymbolTableRecord
100
AcDbBlockTableRecord
  2
*U22
340
0
102
{BLKREFS
331
823
102
}
  0
BLOCK_RECORD
  5
5D5
330
1
100
AcDbSymbolTableRecord
100
AcDbBlockTableRecord
  2
*U23
340
0
102
{BLKREFS
331
824
102
}
  0
BLOCK_RECORD
  5
5F2
330
1
100
AcDbSymbolTableRecord
100
AcDbBlockTableRecord
  2
*U24
340
0
102
{BLKREFS
331
825
102
}
  0
BLOCK_RECORD
  5
60F
330
1
100
AcDbSymbolTableRecord
100
AcDbBlockTableRecord
  2
*U25
340
0
102
{BLKREFS
331
826
102
}
  0
BLOCK_RECORD
  5
61F
330
1
100
AcDbSymbolTableRecord
100
AcDbBlockTableRecord
  2
*U26
340
0
102
{BLKREFS
331
827
102
}
  0
BLOCK_RECORD
  5
63C
330
1
100
AcDbSymbolTableRecord
100
AcDbBlockTableRecord
  2
*U27
340
0
102
{BLKREFS
331
82D
102
}
  0
BLOCK_RECORD
  5
65D
330
1
100
AcDbSymbolTableRecord
100
AcDbBlockTableRecord
  2
*U28
340
0
102
{BLKREFS
331
838
102
}
  0
BLOCK_RECORD
  5
666
330
1
100
AcDbSymbolTableRecord
100
AcDbBlockTableRecord
  2
*U29
340
0
102
{BLKREFS
331
839
102
}
  0
BLOCK_RECORD
  5
66D
330
1
100
AcDbSymbolTableRecord
100
AcDbBlockTableRecord
  2
*U30
340
0
102
{BLKREFS
331
83A
102
}
  0
BLOCK_RECORD
  5
676
330
1
100
AcDbSymbolTableRecord
100
AcDbBlockTableRecord
  2
*U31
340
0
102
{BLKREFS
331
83B
102
}
  0
BLOCK_RECORD
  5
67D
330
1
100
AcDbSymbolTableRecord
100
AcDbBlockTableRecord
  2
*U32
340
0
102
{BLKREFS
331
83C
102
}
  0
BLOCK_RECORD
  5
684
330
1
100
AcDbSymbolTableRecord
100
AcDbBlockTableRecord
  2
*U33
340
0
102
{BLKREFS
331
83D
102
}
  0
BLOCK_RECORD
  5
68D
330
1
100
AcDbSymbolTableRecord
100
AcDbBlockTableRecord
  2
*U34
340
0
102
{BLKREFS
331
83F
102
}
  0
BLOCK_RECORD
  5
695
330
1
100
AcDbSymbolTableRecord
100
AcDbBlockTableRecord
  2
*U35
340
0
102
{BLKREFS
331
840
102
}
  0
BLOCK_RECORD
  5
69D
330
1
100
AcDbSymbolTableRecord
100
AcDbBlockTableRecord
  2
*U36
340
0
102
{BLKREFS
331
841
102
}
  0
BLOCK_RECORD
  5
6A6
330
1
100
AcDbSymbolTableRecord
100
AcDbBlockTableRecord
  2
*U37
340
0
102
{BLKREFS
331
842
102
}
  0
BLOCK_RECORD
  5
6AE
330
1
100
AcDbSymbolTableRecord
100
AcDbBlockTableRecord
  2
*U38
340
0
102
{BLKREFS
331
843
102
}
  0
BLOCK_RECORD
  5
6B6
330
1
100
AcDbSymbolTableRecord
100
AcDbBlockTableRecord
  2
*U39
340
0
102
{BLKREFS
331
844
102
}
  0
BLOCK_RECORD
  5
6BE
330
1
100
AcDbSymbolTableRecord
100
AcDbBlockTableRecord
  2
*U40
340
0
102
{BLKREFS
331
845
102
}
  0
BLOCK_RECORD
  5
6C6
330
1
100
AcDbSymbolTableRecord
100
AcDbBlockTableRecord
  2
*U41
340
0
102
{BLKREFS
331
846
102
}
  0
BLOCK_RECORD
  5
6CF
330
1
100
AcDbSymbolTableRecord
100
AcDbBlockTableRecord
  2
*U42
340
0
102
{BLKREFS
331
847
102
}
  0
BLOCK_RECORD
  5
6D7
330
1
100
AcDbSymbolTableRecord
100
AcDbBlockTableRecord
  2
*U43
340
0
102
{BLKREFS
331
848
102
}
  0
BLOCK_RECORD
  5
6DF
330
1
100
AcDbSymbolTableRecord
100
AcDbBlockTableRecord
  2
*U44
340
0
102
{BLKREFS
331
849
102
}
  0
BLOCK_RECORD
  5
6E7
330
1
100
AcDbSymbolTableRecord
100
AcDbBlockTableRecord
  2
*U45
340
0
102
{BLKREFS
331
84A
102
}
  0
BLOCK_RECORD
  5
6EF
330
1
100
AcDbSymbolTableRecord
100
AcDbBlockTableRecord
  2
*U46
340
0
102
{BLKREFS
331
84B
102
}
  0
BLOCK_RECORD
  5
6F8
330
1
100
AcDbSymbolTableRecord
100
AcDbBlockTableRecord
  2
*U47
340
0
102
{BLKREFS
331
84C
102
}
  0
BLOCK_RECORD
  5
700
330
1
100
AcDbSymbolTableRecord
100
AcDbBlockTableRecord
  2
*U48
340
0
102
{BLKREFS
331
84D
102
}
  0
BLOCK_RECORD
  5
708
330
1
100
AcDbSymbolTableRecord
100
AcDbBlockTableRecord
  2
*U49
340
0
102
{BLKREFS
331
84E
102
}
  0
BLOCK_RECORD
  5
710
330
1
100
AcDbSymbolTableRecord
100
AcDbBlockTableRecord
  2
*U50
340
0
102
{BLKREFS
331
801
102
}
  0
BLOCK_RECORD
  5
74B
330
1
100
AcDbSymbolTableRecord
100
AcDbBlockTableRecord
  2
*U51
340
0
102
{BLKREFS
331
802
102
}
  0
BLOCK_RECORD
  5
77A
330
1
100
AcDbSymbolTableRecord
100
AcDbBlockTableRecord
  2
*U52
340
0
102
{BLKREFS
331
828
102
}
  0
BLOCK_RECORD
  5
78A
330
1
100
AcDbSymbolTableRecord
100
AcDbBlockTableRecord
  2
*U53
340
0
102
{BLKREFS
331
803
102
}
  0
BLOCK_RECORD
  5
7BD
330
1
100
AcDbSymbolTableRecord
100
AcDbBlockTableRecord
  2
*U54
340
0
102
{BLKREFS
331
829
102
}
  0
BLOCK_RECORD
  5
7DA
330
1
100
AcDbSymbolTableRecord
100
AcDbBlockTableRecord
  2
*U55
340
0
102
{BLKREFS
331
84F
102
}
  0
BLOCK_RECORD
  5
7E3
330
1
100
AcDbSymbolTableRecord
100
AcDbBlockTableRecord
  2
*U56
340
0
102
{BLKREFS
331
850
102
}
  0
ENDTAB
  0
ENDSEC
  0
SECTION
  2
BLOCKS
  0
BLOCK
  5
879
330
1D
100
AcDbEntity
  8
0
100
AcDbBlockBegin
  2
*Model_Space
 70
     0
 71
     0
 10
0.0
 20
0.0
 30
0.0
  3
*Model_Space
  1

  0
ENDBLK
  5
87A
330
1D
100
AcDbEntity
  8
0
100
AcDbBlockEnd
  0
BLOCK
  5
87B
330
1B
100
AcDbEntity
 67
     1
  8
0
100
AcDbBlockBegin
  2
*Paper_Space
 70
     0
 71
     0
 10
0.0
 20
0.0
 30
0.0
  3
*Paper_Space
  1

  0
ENDBLK
  5
87C
330
1B
100
AcDbEntity
 67
     1
  8
0
100
AcDbBlockEnd
  0
BLOCK
  5
5C
330
5D
100
AcDbEntity
  8
0
100
AcDbBlockBegin
  2
*U0
 70
     1
 71
     0
 10
0.0
 20
0.0
 30
0.0
  3
*U0
  1

  0
LINE
  5
5E
330
5D
100
AcDbEntity
  8
その他部品等
100
AcDbLine
 10
0.225
 20
38.475
 30
0.0
 11
-0.45
 21
39.15
 31
0.0
  0
LINE
  5
5F
330
5D
100
AcDbEntity
  8
その他部品等
100
AcDbLine
 10
2.775
 20
38.475
 30
0.0
 11
-0.45
 21
41.7
 31
0.0
  0
LINE
  5
60
330
5D
100
AcDbEntity
  8
その他部品等
100
AcDbLine
 10
5.325
 20
38.475
 30
0.0
 11
-0.45
 21
44.25
 31
0.0
  0
LINE
  5
61
330
5D
100
AcDbEntity
  8
その他部品等
100
AcDbLine
 10
7.575
 20
38.775
 30
0.0
 11
-0.45
 21
46.8
 31
0.0
  0
LINE
  5
62
330
5D
100
AcDbEntity
  8
その他部品等
100
AcDbLine
 10
7.575
 20
41.325
 30
0.0
 11
1.65
 21
47.25
 31
0.0
  0
LINE
  5
63
330
5D
100
AcDbEntity
  8
その他部品等
100
AcDbLine
 10
7.575
 20
43.875
 30
0.0
 11
4.2
 21
47.25
 31
0.0
  0
LINE
  5
64
330
5D
100
AcDbEntity
  8
その他部品等
100
AcDbLine
 10
7.575
 20
46.425
 30
0.0
 11
6.675
 21
47.25
 31
0.0
  0
LINE
  5
65
330
5D
100
AcDbEntity
  8
その他部品等
100
AcDbLine
 10
7.575
 20
40.2
 30
0.0
 11
5.85
 21
38.475
 31
0.0
  0
LINE
  5
66
330
5D
100
AcDbEntity
  8
その他部品等
100
AcDbLine
 10
7.575
 20
42.75
 30
0.0
 11
3.3
 21
38.475
 31
0.0
  0
LINE
  5
67
330
5D
100
AcDbEntity
  8
その他部品等
100
AcDbLine
 10
7.575
 20
45.3
 30
0.0
 11
0.75
 21
38.475
 31
0.0
  0
LINE
  5
68
330
5D
100
AcDbEntity
  8
その他部品等
100
AcDbLine
 10
7.05
 20
47.25
 30
0.0
 11
-0.45
 21
39.825
 31
0.0
  0
LINE
  5
69
330
5D
100
AcDbEntity
  8
その他部品等
100
AcDbLine
 10
4.5
 20
47.25
 30
0.0
 11
-0.45
 21
42.375
 31
0.0
  0
LINE
  5
6A
330
5D
100
AcDbEntity
  8
その他部品等
100
AcDbLine
 10
1.95
 20
47.25
 30
0.0
 11
-0.45
 21
44.925
 31
0.0
  0
ENDBLK
  5
6B
330
5D
100
AcDbEntity
  8
0
100
AcDbBlockEnd
  0
BLOCK
  5
6C
330
6D
100
AcDbEntity
  8
0
100
AcDbBlockBegin
  2
*U1
 70
     1
 71
     0
 10
0.0
 20
0.0
 30
0.0
  3
*U1
  1

  0
LINE
  5
6E
330
6D
100
AcDbEntity
  8
型材断面
  6
Continuous
100
AcDbLine
 10
195.0
 20
133.5
 30
0.0
 11
195.0
 21
-133.5
 31
0.0
  0
LINE
  5
6F
330
6D
100
AcDbEntity
  8
型材断面
  6
Continuous
100
AcDbLine
 10
195.0
 20
-133.5
 30
0.0
 11
-185.0
 21
-133.5
 31
0.0
  0
LINE
  5
70
330
6D
100
AcDbEntity
  8
型材断面
  6
Continuous
100
AcDbLine
 10
-185.0
 20
-133.5
 30
0.0
 11
-185.0
 21
133.5
 31
0.0
  0
LINE
  5
71
330
6D
100
AcDbEntity
  8
型材断面
  6
Continuous
100
AcDbLine
 10
195.0
 20
133.5
 30
0.0
 11
-185.0
 21
133.5
 31
0.0
  0
LINE
  5
72
330
6D
100
AcDbEntity
  8
型材断面
  6
Continuous
100
AcDbLine
 10
145.0
 20
-133.5
 30
0.0
 11
145.0
 21
-118.5
 31
0.0
  0
LINE
  5
73
330
6D
100
AcDbEntity
  8
型材断面
  6
Continuous
100
AcDbLine
 10
195.0
 20
-118.5
 30
0.0
 11
145.0
 21
-118.5
 31
0.0
  0
ENDBLK
  5
74
330
6D
100
AcDbEntity
  8
0
100
AcDbBlockEnd
  0
BLOCK
  5
75
330
76
100
AcDbEntity
  8
0
100
AcDbBlockBegin
  2
*U2
 70
     1
 71
     0
 10
0.0
 20
0.0
 30
0.0
  3
*U2
  1

  0
LINE
  5
77
330
76
100
AcDbEntity
  8
型材断面
  6
Continuous
100
AcDbLine
 10
1.741152
 20
-12.124145
 30
0.0
 11
0.541152
 21
-12.124145
 31
0.0
  0
LINE
  5
78
330
76
100
AcDbEntity
  8
型材断面
  6
Continuous
100
AcDbLine
 10
-25.058845
 20
8.975852
 30
0.0
 11
-25.058845
 21
7.475852
 31
0.0
  0
LINE
  5
79
330
76
100
AcDbEntity
  8
型材断面
  6
Continuous
100
AcDbLine
 10
-25.058845
 20
7.475852
 30
0.0
 11
-27.25885
 21
7.475852
 31
0.0
  0
LINE
  5
7A
330
76
100
AcDbEntity
  8
型材断面
  6
Continuous
100
AcDbLine
 10
-25.058845
 20
8.975852
 30
0.0
 11
-29.258845
 21
8.975852
 31
0.0
  0
LINE
  5
7B
330
76
100
AcDbEntity
  8
型材断面
  6
Continuous
100
AcDbLine
 10
-29.258845
 20
8.975852
 30
0.0
 11
-29.258845
 21
-10.524147
 31
0.0
  0
LINE
  5
7C
330
76
100
AcDbEntity
  8
型材断面
  6
Continuous
100
AcDbLine
 10
-27.25885
 20
7.475852
 30
0.0
 11
-27.25885
 21
-8.524145000000001
 31
0.0
  0
LINE
  5
7D
330
76
100
AcDbEntity
  8
型材断面
  6
Continuous
100
AcDbLine
 10
0.541152
 20
-6.524143
 30
0.0
 11
1.741152
 21
-6.524143
 31
0.0
  0
LINE
  5
7E
330
76
100
AcDbEntity
  8
型材断面
  6
Continuous
100
AcDbLine
 10
-29.258845
 20
-10.524147
 30
0.0
 11
0.541152
 21
-10.524147
 31
0.0
  0
LINE
  5
7F
330
76
100
AcDbEntity
  8
型材断面
  6
Continuous
100
AcDbLine
 10
0.541152
 20
-6.524143
 30
0.0
 11
0.541152
 21
-8.524145000000001
 31
0.0
  0
LINE
  5
80
330
76
100
AcDbEntity
  8
型材断面
  6
Continuous
100
AcDbLine
 10
-20.05885
 20
-8.524145000000001
 30
0.0
 11
-20.05885
 21
-6.224143
 31
0.0
  0
LINE
  5
81
330
76
100
AcDbEntity
  8
型材断面
  6
Continuous
100
AcDbLine
 10
-18.55885
 20
-8.524145000000001
 30
0.0
 11
-18.55885
 21
-4.724143
 31
0.0
  0
LINE
  5
82
330
76
100
AcDbEntity
  8
型材断面
  6
Continuous
100
AcDbLine
 10
-18.55885
 20
-4.724143
 30
0.0
 11
-22.558847
 21
-4.724143
 31
0.0
  0
LINE
  5
83
330
76
100
AcDbEntity
  8
型材断面
  6
Continuous
100
AcDbLine
 10
-22.558847
 20
-4.724143
 30
0.0
 11
-22.558847
 21
-6.224143
 31
0.0
  0
LINE
  5
84
330
76
100
AcDbEntity
  8
型材断面
  6
Continuous
100
AcDbLine
 10
-20.05885
 20
-6.224143
 30
0.0
 11
-22.558847
 21
-6.224143
 31
0.0
  0
LINE
  5
85
330
76
100
AcDbEntity
  8
型材断面
  6
Continuous
100
AcDbLine
 10
-27.25885
 20
-8.524145000000001
 30
0.0
 11
-20.05885
 21
-8.524145000000001
 31
0.0
  0
LINE
  5
86
330
76
100
AcDbEntity
  8
型材断面
  6
Continuous
100
AcDbLine
 10
-18.55885
 20
-8.524145000000001
 30
0.0
 11
0.541152
 21
-8.524145000000001
 31
0.0
  0
LINE
  5
87
330
76
100
AcDbEntity
  8
型材断面
  6
Continuous
100
AcDbLine
 10
1.741152
 20
-6.524143
 30
0.0
 11
1.741152
 21
-12.124145
 31
0.0
  0
LINE
  5
88
330
76
100
AcDbEntity
  8
型材断面
  6
Continuous
100
AcDbLine
 10
0.541152
 20
-10.524147
 30
0.0
 11
0.541152
 21
-12.124145
 31
0.0
  0
ENDBLK
  5
89
330
76
100
AcDbEntity
  8
0
100
AcDbBlockEnd
  0
BLOCK
  5
8A
330
8B
100
AcDbEntity
  8
0
100
AcDbBlockBegin
  2
*U3
 70
     1
 71
     0
 10
0.0
 20
0.0
 30
0.0
  3
*U3
  1

  0
LINE
  5
8C
330
8B
100
AcDbEntity
  8
型材
  6
Continuous
 62
    47
100
AcDbLine
 10
-2.761982
 20
5.075748
 30
0.0
 11
-2.761982
 21
4.175748
 31
0.0
  0
LINE
  5
8D
330
8B
100
AcDbEntity
  8
型材
  6
Continuous
 62
    47
100
AcDbLine
 10
-2.161982
 20
5.675748
 30
0.0
 11
-2.761982
 21
5.075748
 31
0.0
  0
LINE
  5
8E
330
8B
100
AcDbEntity
  8
型材
  6
Continuous
 62
    47
100
AcDbLine
 10
-2.761982
 20
4.175748
 30
0.0
 11
-0.261978
 21
4.175763
 31
0.0
  0
LINE
  5
8F
330
8B
100
AcDbEntity
  8
型材
  6
Continuous
 62
    47
100
AcDbLine
 10
-2.161982
 20
5.675748
 30
0.0
 11
1.238023
 21
5.675755
 31
0.0
  0
LINE
  5
90
330
8B
100
AcDbEntity
  8
型材
  6
Continuous
 62
    47
100
AcDbLine
 10
1.238023
 20
2.675755
 30
0.0
 11
-6.661877
 21
-5.224145
 31
0.0
  0
LINE
  5
91
330
8B
100
AcDbEntity
  8
型材
  6
Continuous
 62
    47
100
AcDbLine
 10
1.238023
 20
5.675763
 30
0.0
 11
1.238038
 21
2.67577
 31
0.0
  0
LINE
  5
92
330
8B
100
AcDbEntity
  8
型材
  6
Continuous
 62
    47
100
AcDbLine
 10
-0.261978
 20
4.175755
 30
0.0
 11
-0.261978
 21
3.297077
 31
0.0
  0
LINE
  5
93
330
8B
100
AcDbEntity
  8
型材
  6
Continuous
 62
    47
100
AcDbLine
 10
-8.261867000000001
 20
-5.924143
 30
0.0
 11
-8.261867000000001
 21
-4.702812
 31
0.0
  0
LINE
  5
94
330
8B
100
AcDbEntity
  8
型材
  6
Continuous
 62
    47
100
AcDbLine
 10
-6.661863
 20
-7.424143
 30
0.0
 11
-6.661863
 21
-5.22413
 31
0.0
  0
LINE
  5
95
330
8B
100
AcDbEntity
  8
型材
  6
Continuous
 62
    47
100
AcDbLine
 10
-7.761978
 20
5.075733
 30
0.0
 11
-7.761978
 21
4.175733
 31
0.0
  0
LINE
  5
96
330
8B
100
AcDbEntity
  8
型材
  6
Continuous
 62
    47
100
AcDbLine
 10
-7.761978
 20
5.075733
 30
0.0
 11
-8.361978000000001
 21
5.675725
 31
0.0
  0
LINE
  5
97
330
8B
100
AcDbEntity
  8
型材
  6
Continuous
 62
    47
100
AcDbLine
 10
-8.361978000000001
 20
5.675725
 30
0.0
 11
-11.761982
 21
5.675718
 31
0.0
  0
LINE
  5
98
330
8B
100
AcDbEntity
  8
型材
  6
Continuous
 62
    47
100
AcDbLine
 10
-7.761978
 20
4.175733
 30
0.0
 11
-10.261967
 21
4.175718
 31
0.0
  0
LINE
  5
99
330
8B
100
AcDbEntity
  8
型材
  6
Continuous
 62
    47
100
AcDbLine
 10
-10.761873
 20
-8.524137
 30
0.0
 11
-10.761873
 21
-5.924143
 31
0.0
  0
LINE
  5
9A
330
8B
100
AcDbEntity
  8
型材
  6
Continuous
 62
    47
100
AcDbLine
 10
-9.261873
 20
-8.524137
 30
0.0
 11
-9.261873
 21
-7.424143
 31
0.0
  0
LINE
  5
9B
330
8B
100
AcDbEntity
  8
型材
  6
Continuous
 62
    47
100
AcDbLine
 10
-9.261873
 20
-8.524137
 30
0.0
 11
-10.761873
 21
-8.524137
 31
0.0
  0
LINE
  5
9C
330
8B
100
AcDbEntity
  8
型材
  6
Continuous
 62
    47
100
AcDbLine
 10
-8.261867000000001
 20
-5.924143
 30
0.0
 11
-10.761873
 21
-5.924143
 31
0.0
  0
LINE
  5
9D
330
8B
100
AcDbEntity
  8
型材
  6
Continuous
 62
    47
100
AcDbLine
 10
-20.562212
 20
-6.52415
 30
0.0
 11
-22.558847
 21
-6.52415
 31
0.0
  0
LINE
  5
9E
330
8B
100
AcDbEntity
  8
型材
  6
Continuous
 62
    47
100
AcDbLine
 10
-20.562212
 20
-6.52415
 30
0.0
 11
-20.562212
 21
-8.524145000000001
 31
0.0
  0
LINE
  5
9F
330
8B
100
AcDbEntity
  8
型材
  6
Continuous
 62
    47
100
AcDbLine
 10
-20.562212
 20
-8.524145000000001
 30
0.0
 11
-24.058847
 21
-8.524145000000001
 31
0.0
  0
LINE
  5
A0
330
8B
100
AcDbEntity
  8
型材
  6
Continuous
 62
    47
100
AcDbLine
 10
-24.058847
 20
-8.524145000000001
 30
0.0
 11
-24.058847
 21
5.675687
 31
0.0
  0
LINE
  5
A1
330
8B
100
AcDbEntity
  8
型材
  6
Continuous
 62
    47
100
AcDbLine
 10
-24.058847
 20
5.675687
 30
0.0
 11
-22.558847
 21
5.675695
 31
0.0
  0
LINE
  5
A2
330
8B
100
AcDbEntity
  8
型材
  6
Continuous
 62
    47
100
AcDbLine
 10
-8.261867000000001
 20
-4.702812
 30
0.0
 11
-4.383317
 21
-0.82427
 31
0.0
  0
LINE
  5
A3
330
8B
100
AcDbEntity
  8
型材
  6
Continuous
 62
    47
100
AcDbLine
 10
-0.261992
 20
3.297062
 30
0.0
 11
-2.883317
 21
0.675737
 31
0.0
  0
LINE
  5
A4
330
8B
100
AcDbEntity
  8
型材
  6
Continuous
 62
    47
100
AcDbLine
 10
-10.261967
 20
4.17577
 30
0.0
 11
-10.261967
 21
0.675722
 31
0.0
  0
LINE
  5
A5
330
8B
100
AcDbEntity
  8
型材
  6
Continuous
 62
    47
100
AcDbLine
 10
-22.558847
 20
5.675695
 30
0.0
 11
-22.558847
 21
0.6757
 31
0.0
  0
LINE
  5
A6
330
8B
100
AcDbEntity
  8
型材
  6
Continuous
 62
    47
100
AcDbLine
 10
-4.383317
 20
-0.82427
 30
0.0
 11
-22.558847
 21
-0.824308
 31
0.0
  0
LINE
  5
A7
330
8B
100
AcDbEntity
  8
型材
  6
Continuous
 62
    47
100
AcDbLine
 10
-22.558847
 20
-6.52415
 30
0.0
 11
-22.558847
 21
-0.824308
 31
0.0
  0
LINE
  5
A8
330
8B
100
AcDbEntity
  8
型材
  6
Continuous
 62
    47
100
AcDbLine
 10
-11.761982
 20
5.67577
 30
0.0
 11
-11.761953
 21
0.675722
 31
0.0
  0
LINE
  5
A9
330
8B
100
AcDbEntity
  8
型材
  6
Continuous
 62
    47
100
AcDbLine
 10
-2.883317
 20
0.675737
 30
0.0
 11
-10.261967
 21
0.675722
 31
0.0
  0
LINE
  5
AA
330
8B
100
AcDbEntity
  8
型材
  6
Continuous
 62
    47
100
AcDbLine
 10
-16.062212
 20
0.375715
 30
0.0
 11
-16.362212
 21
0.675715
 31
0.0
  0
LINE
  5
AB
330
8B
100
AcDbEntity
  8
型材
  6
Continuous
 62
    47
100
AcDbLine
 10
-16.062212
 20
0.375715
 30
0.0
 11
-15.762212
 21
0.675715
 31
0.0
  0
LINE
  5
AC
330
8B
100
AcDbEntity
  8
型材
  6
Continuous
 62
    47
100
AcDbLine
 10
-11.761953
 20
0.675722
 30
0.0
 11
-15.762212
 21
0.675715
 31
0.0
  0
LINE
  5
AD
330
8B
100
AcDbEntity
  8
型材
  6
Continuous
 62
    47
100
AcDbLine
 10
-16.362212
 20
0.675715
 30
0.0
 11
-22.558847
 21
0.6757
 31
0.0
  0
LINE
  5
AE
330
8B
100
AcDbEntity
  8
型材
  6
Continuous
 62
    47
100
AcDbLine
 10
-9.261873
 20
-7.424143
 30
0.0
 11
-6.661863
 21
-7.424143
 31
0.0
  0
ENDBLK
  5
AF
330
8B
100
AcDbEntity
  8
0
100
AcDbBlockEnd
  0
BLOCK
  5
B0
330
B1
100
AcDbEntity
  8
0
100
AcDbBlockBegin
  2
*U4
 70
     1
 71
     0
 10
0.0
 20
0.0
 30
0.0
  3
*U4
  1

  0
POLYLINE
  5
B2
330
B1
100
AcDbEntity
  8
ガラス
  6
Continuous
100
AcDb2dPolyline
 66
     1
 10
0.0
 20
0.0
 30
0.0
 70
     4
  0
VERTEX
  5
B3
330
B2
100
AcDbEntity
  8
ガラス
  6
Continuous
100
AcDbVertex
100
AcDb2dVertex
 10
2.475
 20
-9.225
 30
0.0
 70
     8
  0
VERTEX
  5
B4
330
B2
100
AcDbEntity
  8
ガラス
  6
Continuous
100
AcDbVertex
100
AcDb2dVertex
 10
2.475
 20
-9.15
 30
0.0
 70
     8
  0
VERTEX
  5
B5
330
B2
100
AcDbEntity
  8
ガラス
  6
Continuous
100
AcDbVertex
100
AcDb2dVertex
 10
2.5
 20
-9.1
 30
0.0
 70
     8
  0
VERTEX
  5
B6
330
B2
100
AcDbEntity
  8
ガラス
  6
Continuous
100
AcDbVertex
100
AcDb2dVertex
 10
2.525
 20
-9.025
 30
0.0
 70
     8
  0
VERTEX
  5
B7
330
B2
100
AcDbEntity
  8
ガラス
  6
Continuous
100
AcDbVertex
100
AcDb2dVertex
 10
2.55
 20
-8.975
 30
0.0
 70
     8
  0
VERTEX
  5
B8
330
B2
100
AcDbEntity
  8
ガラス
  6
Continuous
100
AcDbVertex
100
AcDb2dVertex
 10
2.55
 20
-8.9
 30
0.0
 70
     8
  0
VERTEX
  5
B9
330
B2
100
AcDbEntity
  8
ガラス
  6
Continuous
100
AcDbVertex
100
AcDb2dVertex
 10
2.575
 20
-8.85
 30
0.0
 70
     8
  0
VERTEX
  5
BA
330
B2
100
AcDbEntity
  8
ガラス
  6
Continuous
100
AcDbVertex
100
AcDb2dVertex
 10
2.6
 20
-8.800000000000001
 30
0.0
 70
     8
  0
VERTEX
  5
BB
330
B2
100
AcDbEntity
  8
ガラス
  6
Continuous
100
AcDbVertex
100
AcDb2dVertex
 10
2.625
 20
-8.725
 30
0.0
 70
     8
  0
VERTEX
  5
BC
330
B2
100
AcDbEntity
  8
ガラス
  6
Continuous
100
AcDbVertex
100
AcDb2dVertex
 10
2.65
 20
-8.675000000000001
 30
0.0
 70
     8
  0
VERTEX
  5
BD
330
B2
100
AcDbEntity
  8
ガラス
  6
Continuous
100
AcDbVertex
100
AcDb2dVertex
 10
2.675
 20
-8.6
 30
0.0
 70
     8
  0
VERTEX
  5
BE
330
B2
100
AcDbEntity
  8
ガラス
  6
Continuous
100
AcDbVertex
100
AcDb2dVertex
 10
2.7
 20
-8.550000000000001
 30
0.0
 70
     8
  0
VERTEX
  5
BF
330
B2
100
AcDbEntity
  8
ガラス
  6
Continuous
100
AcDbVertex
100
AcDb2dVertex
 10
2.725
 20
-8.5
 30
0.0
 70
     8
  0
VERTEX
  5
C0
330
B2
100
AcDbEntity
  8
ガラス
  6
Continuous
100
AcDbVertex
100
AcDb2dVertex
 10
2.75
 20
-8.449999999999999
 30
0.0
 70
     8
  0
VERTEX
  5
C1
330
B2
100
AcDbEntity
  8
ガラス
  6
Continuous
100
AcDbVertex
100
AcDb2dVertex
 10
2.775
 20
-8.4
 30
0.0
 70
     8
  0
VERTEX
  5
C2
330
B2
100
AcDbEntity
  8
ガラス
  6
Continuous
100
AcDbVertex
100
AcDb2dVertex
 10
2.8
 20
-8.324999999999999
 30
0.0
 70
     8
  0
VERTEX
  5
C3
330
B2
100
AcDbEntity
  8
ガラス
  6
Continuous
100
AcDbVertex
100
AcDb2dVertex
 10
2.825
 20
-8.275
 30
0.0
 70
     8
  0
VERTEX
  5
C4
330
B2
100
AcDbEntity
  8
ガラス
  6
Continuous
100
AcDbVertex
100
AcDb2dVertex
 10
2.85
 20
-8.225
 30
0.0
 70
     8
  0
VERTEX
  5
C5
330
B2
100
AcDbEntity
  8
ガラス
  6
Continuous
100
AcDbVertex
100
AcDb2dVertex
 10
2.9
 20
-8.199999999999999
 30
0.0
 70
     8
  0
VERTEX
  5
C6
330
B2
100
AcDbEntity
  8
ガラス
  6
Continuous
100
AcDbVertex
100
AcDb2dVertex
 10
2.925
 20
-8.15
 30
0.0
 70
     8
  0
VERTEX
  5
C7
330
B2
100
AcDbEntity
  8
ガラス
  6
Continuous
100
AcDbVertex
100
AcDb2dVertex
 10
2.975
 20
-8.1
 30
0.0
 70
     8
  0
VERTEX
  5
C8
330
B2
100
AcDbEntity
  8
ガラス
  6
Continuous
100
AcDbVertex
100
AcDb2dVertex
 10
3.0
 20
-8.050000000000001
 30
0.0
 70
     8
  0
VERTEX
  5
C9
330
B2
100
AcDbEntity
  8
ガラス
  6
Continuous
100
AcDbVertex
100
AcDb2dVertex
 10
3.05
 20
-8.025
 30
0.0
 70
     8
  0
VERTEX
  5
CA
330
B2
100
AcDbEntity
  8
ガラス
  6
Continuous
100
AcDbVertex
100
AcDb2dVertex
 10
3.1
 20
-7.975
 30
0.0
 70
     8
  0
VERTEX
  5
CB
330
B2
100
AcDbEntity
  8
ガラス
  6
Continuous
100
AcDbVertex
100
AcDb2dVertex
 10
3.15
 20
-7.95
 30
0.0
 70
     8
  0
VERTEX
  5
CC
330
B2
100
AcDbEntity
  8
ガラス
  6
Continuous
100
AcDbVertex
100
AcDb2dVertex
 10
3.175
 20
-7.9
 30
0.0
 70
     8
  0
VERTEX
  5
CD
330
B2
100
AcDbEntity
  8
ガラス
  6
Continuous
100
AcDbVertex
100
AcDb2dVertex
 10
3.225
 20
-7.875
 30
0.0
 70
     8
  0
VERTEX
  5
CE
330
B2
100
AcDbEntity
  8
ガラス
  6
Continuous
100
AcDbVertex
100
AcDb2dVertex
 10
3.275
 20
-7.85
 30
0.0
 70
     8
  0
VERTEX
  5
CF
330
B2
100
AcDbEntity
  8
ガラス
  6
Continuous
100
AcDbVertex
100
AcDb2dVertex
 10
3.35
 20
-7.825
 30
0.0
 70
     8
  0
VERTEX
  5
D0
330
B2
100
AcDbEntity
  8
ガラス
  6
Continuous
100
AcDbVertex
100
AcDb2dVertex
 10
3.4
 20
-7.8
 30
0.0
 70
     8
  0
VERTEX
  5
D1
330
B2
100
AcDbEntity
  8
ガラス
  6
Continuous
100
AcDbVertex
100
AcDb2dVertex
 10
3.45
 20
-7.75
 30
0.0
 70
     8
  0
VERTEX
  5
D2
330
B2
100
AcDbEntity
  8
ガラス
  6
Continuous
100
AcDbVertex
100
AcDb2dVertex
 10
3.5
 20
-7.725
 30
0.0
 70
     8
  0
VERTEX
  5
D3
330
B2
100
AcDbEntity
  8
ガラス
  6
Continuous
100
AcDbVertex
100
AcDb2dVertex
 10
3.575
 20
-7.7
 30
0.0
 70
     8
  0
VERTEX
  5
D4
330
B2
100
AcDbEntity
  8
ガラス
  6
Continuous
100
AcDbVertex
100
AcDb2dVertex
 10
3.625
 20
-7.675
 30
0.0
 70
     8
  0
VERTEX
  5
D5
330
B2
100
AcDbEntity
  8
ガラス
  6
Continuous
100
AcDbVertex
100
AcDb2dVertex
 10
3.675
 20
-7.675
 30
0.0
 70
     8
  0
VERTEX
  5
D6
330
B2
100
AcDbEntity
  8
ガラス
  6
Continuous
100
AcDbVertex
100
AcDb2dVertex
 10
3.75
 20
-7.65
 30
0.0
 70
     8
  0
VERTEX
  5
D7
330
B2
100
AcDbEntity
  8
ガラス
  6
Continuous
100
AcDbVertex
100
AcDb2dVertex
 10
3.8
 20
-7.625
 30
0.0
 70
     8
  0
VERTEX
  5
D8
330
B2
100
AcDbEntity
  8
ガラス
  6
Continuous
100
AcDbVertex
100
AcDb2dVertex
 10
3.85
 20
-7.6
 30
0.0
 70
     8
  0
VERTEX
  5
D9
330
B2
100
AcDbEntity
  8
ガラス
  6
Continuous
100
AcDbVertex
100
AcDb2dVertex
 10
3.925
 20
-7.575
 30
0.0
 70
     8
  0
VERTEX
  5
DA
330
B2
100
AcDbEntity
  8
ガラス
  6
Continuous
100
AcDbVertex
100
AcDb2dVertex
 10
3.975
 20
-7.55
 30
0.0
 70
     8
  0
VERTEX
  5
DB
330
B2
100
AcDbEntity
  8
ガラス
  6
Continuous
100
AcDbVertex
100
AcDb2dVertex
 10
4.05
 20
-7.525
 30
0.0
 70
     8
  0
SEQEND
  5
DC
330
B2
100
AcDbEntity
  8
0
  0
POLYLINE
  5
DD
330
B1
100
AcDbEntity
  8
ガラス
  6
Continuous
100
AcDb2dPolyline
 66
     1
 10
0.0
 20
0.0
 30
0.0
 70
     4
  0
VERTEX
  5
DE
330
DD
100
AcDbEntity
  8
ガラス
  6
Continuous
100
AcDbVertex
100
AcDb2dVertex
 10
4.05
 20
-7.525
 30
0.0
 70
     8
  0
VERTEX
  5
DF
330
DD
100
AcDbEntity
  8
ガラス
  6
Continuous
100
AcDbVertex
100
AcDb2dVertex
 10
4.025
 20
-7.575
 30
0.0
 70
     8
  0
VERTEX
  5
E0
330
DD
100
AcDbEntity
  8
ガラス
  6
Continuous
100
AcDbVertex
100
AcDb2dVertex
 10
4.025
 20
-7.625
 30
0.0
 70
     8
  0
VERTEX
  5
E1
330
DD
100
AcDbEntity
  8
ガラス
  6
Continuous
100
AcDbVertex
100
AcDb2dVertex
 10
4.0
 20
-7.65
 30
0.0
 70
     8
  0
VERTEX
  5
E2
330
DD
100
AcDbEntity
  8
ガラス
  6
Continuous
100
AcDbVertex
100
AcDb2dVertex
 10
4.0
 20
-7.7
 30
0.0
 70
     8
  0
VERTEX
  5
E3
330
DD
100
AcDbEntity
  8
ガラス
  6
Continuous
100
AcDbVertex
100
AcDb2dVertex
 10
3.975
 20
-7.75
 30
0.0
 70
     8
  0
VERTEX
  5
E4
330
DD
100
AcDbEntity
  8
ガラス
  6
Continuous
100
AcDbVertex
100
AcDb2dVertex
 10
3.975
 20
-7.775
 30
0.0
 70
     8
  0
VERTEX
  5
E5
330
DD
100
AcDbEntity
  8
ガラス
  6
Continuous
100
AcDbVertex
100
AcDb2dVertex
 10
3.975
 20
-7.825
 30
0.0
 70
     8
  0
VERTEX
  5
E6
330
DD
100
AcDbEntity
  8
ガラス
  6
Continuous
100
AcDbVertex
100
AcDb2dVertex
 10
3.95
 20
-7.875
 30
0.0
 70
     8
  0
VERTEX
  5
E7
330
DD
100
AcDbEntity
  8
ガラス
  6
Continuous
100
AcDbVertex
100
AcDb2dVertex
 10
3.95
 20
-7.9
 30
0.0
 70
     8
  0
VERTEX
  5
E8
330
DD
100
AcDbEntity
  8
ガラス
  6
Continuous
100
AcDbVertex
100
AcDb2dVertex
 10
3.925
 20
-7.95
 30
0.0
 70
     8
  0
VERTEX
  5
E9
330
DD
100
AcDbEntity
  8
ガラス
  6
Continuous
100
AcDbVertex
100
AcDb2dVertex
 10
3.925
 20
-8.0
 30
0.0
 70
     8
  0
VERTEX
  5
EA
330
DD
100
AcDbEntity
  8
ガラス
  6
Continuous
100
AcDbVertex
100
AcDb2dVertex
 10
3.9
 20
-8.025
 30
0.0
 70
     8
  0
VERTEX
  5
EB
330
DD
100
AcDbEntity
  8
ガラス
  6
Continuous
100
AcDbVertex
100
AcDb2dVertex
 10
3.9
 20
-8.074999999999999
 30
0.0
 70
     8
  0
VERTEX
  5
EC
330
DD
100
AcDbEntity
  8
ガラス
  6
Continuous
100
AcDbVertex
100
AcDb2dVertex
 10
3.9
 20
-8.125
 30
0.0
 70
     8
  0
VERTEX
  5
ED
330
DD
100
AcDbEntity
  8
ガラス
  6
Continuous
100
AcDbVertex
100
AcDb2dVertex
 10
3.875
 20
-8.15
 30
0.0
 70
     8
  0
VERTEX
  5
EE
330
DD
100
AcDbEntity
  8
ガラス
  6
Continuous
100
AcDbVertex
100
AcDb2dVertex
 10
3.875
 20
-8.199999999999999
 30
0.0
 70
     8
  0
VERTEX
  5
EF
330
DD
100
AcDbEntity
  8
ガラス
  6
Continuous
100
AcDbVertex
100
AcDb2dVertex
 10
3.875
 20
-8.25
 30
0.0
 70
     8
  0
VERTEX
  5
F0
330
DD
100
AcDbEntity
  8
ガラス
  6
Continuous
100
AcDbVertex
100
AcDb2dVertex
 10
3.85
 20
-8.275
 30
0.0
 70
     8
  0
VERTEX
  5
F1
330
DD
100
AcDbEntity
  8
ガラス
  6
Continuous
100
AcDbVertex
100
AcDb2dVertex
 10
3.85
 20
-8.324999999999999
 30
0.0
 70
     8
  0
VERTEX
  5
F2
330
DD
100
AcDbEntity
  8
ガラス
  6
Continuous
100
AcDbVertex
100
AcDb2dVertex
 10
3.85
 20
-8.375
 30
0.0
 70
     8
  0
VERTEX
  5
F3
330
DD
100
AcDbEntity
  8
ガラス
  6
Continuous
100
AcDbVertex
100
AcDb2dVertex
 10
3.85
 20
-8.4
 30
0.0
 70
     8
  0
VERTEX
  5
F4
330
DD
100
AcDbEntity
  8
ガラス
  6
Continuous
100
AcDbVertex
100
AcDb2dVertex
 10
3.825
 20
-8.449999999999999
 30
0.0
 70
     8
  0
VERTEX
  5
F5
330
DD
100
AcDbEntity
  8
ガラス
  6
Continuous
100
AcDbVertex
100
AcDb2dVertex
 10
3.825
 20
-8.5
 30
0.0
 70
     8
  0
VERTEX
  5
F6
330
DD
100
AcDbEntity
  8
ガラス
  6
Continuous
100
AcDbVertex
100
AcDb2dVertex
 10
3.825
 20
-8.550000000000001
 30
0.0
 70
     8
  0
VERTEX
  5
F7
330
DD
100
AcDbEntity
  8
ガラス
  6
Continuous
100
AcDbVertex
100
AcDb2dVertex
 10
3.825
 20
-8.574999999999999
 30
0.0
 70
     8
  0
VERTEX
  5
F8
330
DD
100
AcDbEntity
  8
ガラス
  6
Continuous
100
AcDbVertex
100
AcDb2dVertex
 10
3.825
 20
-8.625
 30
0.0
 70
     8
  0
VERTEX
  5
F9
330
DD
100
AcDbEntity
  8
ガラス
  6
Continuous
100
AcDbVertex
100
AcDb2dVertex
 10
3.825
 20
-8.675000000000001
 30
0.0
 70
     8
  0
VERTEX
  5
FA
330
DD
100
AcDbEntity
  8
ガラス
  6
Continuous
100
AcDbVertex
100
AcDb2dVertex
 10
3.825
 20
-8.699999999999999
 30
0.0
 70
     8
  0
VERTEX
  5
FB
330
DD
100
AcDbEntity
  8
ガラス
  6
Continuous
100
AcDbVertex
100
AcDb2dVertex
 10
3.8
 20
-8.75
 30
0.0
 70
     8
  0
VERTEX
  5
FC
330
DD
100
AcDbEntity
  8
ガラス
  6
Continuous
100
AcDbVertex
100
AcDb2dVertex
 10
3.8
 20
-8.800000000000001
 30
0.0
 70
     8
  0
VERTEX
  5
FD
330
DD
100
AcDbEntity
  8
ガラス
  6
Continuous
100
AcDbVertex
100
AcDb2dVertex
 10
3.8
 20
-8.824999999999999
 30
0.0
 70
     8
  0
VERTEX
  5
FE
330
DD
100
AcDbEntity
  8
ガラス
  6
Continuous
100
AcDbVertex
100
AcDb2dVertex
 10
3.8
 20
-8.875
 30
0.0
 70
     8
  0
VERTEX
  5
FF
330
DD
100
AcDbEntity
  8
ガラス
  6
Continuous
100
AcDbVertex
100
AcDb2dVertex
 10
3.8
 20
-8.925000000000001
 30
0.0
 70
     8
  0
VERTEX
  5
100
330
DD
100
AcDbEntity
  8
ガラス
  6
Continuous
100
AcDbVertex
100
AcDb2dVertex
 10
3.8
 20
-8.975
 30
0.0
 70
     8
  0
VERTEX
  5
101
330
DD
100
AcDbEntity
  8
ガラス
  6
Continuous
100
AcDbVertex
100
AcDb2dVertex
 10
3.8
 20
-9.0
 30
0.0
 70
     8
  0
VERTEX
  5
102
330
DD
100
AcDbEntity
  8
ガラス
  6
Continuous
100
AcDbVertex
100
AcDb2dVertex
 10
3.8
 20
-9.050000000000001
 30
0.0
 70
     8
  0
VERTEX
  5
103
330
DD
100
AcDbEntity
  8
ガラス
  6
Continuous
100
AcDbVertex
100
AcDb2dVertex
 10
3.8
 20
-9.1
 30
0.0
 70
     8
  0
VERTEX
  5
104
330
DD
100
AcDbEntity
  8
ガラス
  6
Continuous
100
AcDbVertex
100
AcDb2dVertex
 10
3.8
 20
-9.15
 30
0.0
 70
     8
  0
VERTEX
  5
105
330
DD
100
AcDbEntity
  8
ガラス
  6
Continuous
100
AcDbVertex
100
AcDb2dVertex
 10
3.8
 20
-9.175000000000001
 30
0.0
 70
     8
  0
VERTEX
  5
106
330
DD
100
AcDbEntity
  8
ガラス
  6
Continuous
100
AcDbVertex
100
AcDb2dVertex
 10
3.8
 20
-9.225
 30
0.0
 70
     8
  0
SEQEND
  5
107
330
DD
100
AcDbEntity
  8
0
  0
ARC
  5
108
330
B1
100
AcDbEntity
  8
ガラス
  6
Continuous
100
AcDbCircle
 10
3.150777
 20
-9.212536
 30
0.0
 40
0.668594
100
AcDbArc
 50
180.0
 51
0.0
  0
ENDBLK
  5
109
330
B1
100
AcDbEntity
  8
0
100
AcDbBlockEnd
  0
BLOCK
  5
10A
330
10B
100
AcDbEntity
  8
0
100
AcDbBlockBegin
  2
*U5
 70
     1
 71
     0
 10
0.0
 20
0.0
 30
0.0
  3
*U5
  1

  0
POLYLINE
  5
10C
330
10B
100
AcDbEntity
  8
ガラス
  6
Continuous
100
AcDb2dPolyline
 66
     1
 10
0.0
 20
0.0
 30
0.0
 70
     4
  0
VERTEX
  5
10D
330
10C
100
AcDbEntity
  8
ガラス
  6
Continuous
100
AcDbVertex
100
AcDb2dVertex
 10
2.475
 20
-24.925
 30
0.0
 70
     8
  0
VERTEX
  5
10E
330
10C
100
AcDbEntity
  8
ガラス
  6
Continuous
100
AcDbVertex
100
AcDb2dVertex
 10
2.475
 20
-24.85
 30
0.0
 70
     8
  0
VERTEX
  5
10F
330
10C
100
AcDbEntity
  8
ガラス
  6
Continuous
100
AcDbVertex
100
AcDb2dVertex
 10
2.5
 20
-24.8
 30
0.0
 70
     8
  0
VERTEX
  5
110
330
10C
100
AcDbEntity
  8
ガラス
  6
Continuous
100
AcDbVertex
100
AcDb2dVertex
 10
2.525
 20
-24.725
 30
0.0
 70
     8
  0
VERTEX
  5
111
330
10C
100
AcDbEntity
  8
ガラス
  6
Continuous
100
AcDbVertex
100
AcDb2dVertex
 10
2.55
 20
-24.675
 30
0.0
 70
     8
  0
VERTEX
  5
112
330
10C
100
AcDbEntity
  8
ガラス
  6
Continuous
100
AcDbVertex
100
AcDb2dVertex
 10
2.55
 20
-24.6
 30
0.0
 70
     8
  0
VERTEX
  5
113
330
10C
100
AcDbEntity
  8
ガラス
  6
Continuous
100
AcDbVertex
100
AcDb2dVertex
 10
2.575
 20
-24.55
 30
0.0
 70
     8
  0
VERTEX
  5
114
330
10C
100
AcDbEntity
  8
ガラス
  6
Continuous
100
AcDbVertex
100
AcDb2dVertex
 10
2.6
 20
-24.475
 30
0.0
 70
     8
  0
VERTEX
  5
115
330
10C
100
AcDbEntity
  8
ガラス
  6
Continuous
100
AcDbVertex
100
AcDb2dVertex
 10
2.625
 20
-24.425
 30
0.0
 70
     8
  0
VERTEX
  5
116
330
10C
100
AcDbEntity
  8
ガラス
  6
Continuous
100
AcDbVertex
100
AcDb2dVertex
 10
2.65
 20
-24.35
 30
0.0
 70
     8
  0
VERTEX
  5
117
330
10C
100
AcDbEntity
  8
ガラス
  6
Continuous
100
AcDbVertex
100
AcDb2dVertex
 10
2.675
 20
-24.3
 30
0.0
 70
     8
  0
VERTEX
  5
118
330
10C
100
AcDbEntity
  8
ガラス
  6
Continuous
100
AcDbVertex
100
AcDb2dVertex
 10
2.7
 20
-24.25
 30
0.0
 70
     8
  0
VERTEX
  5
119
330
10C
100
AcDbEntity
  8
ガラス
  6
Continuous
100
AcDbVertex
100
AcDb2dVertex
 10
2.725
 20
-24.2
 30
0.0
 70
     8
  0
VERTEX
  5
11A
330
10C
100
AcDbEntity
  8
ガラス
  6
Continuous
100
AcDbVertex
100
AcDb2dVertex
 10
2.75
 20
-24.125
 30
0.0
 70
     8
  0
VERTEX
  5
11B
330
10C
100
AcDbEntity
  8
ガラス
  6
Continuous
100
AcDbVertex
100
AcDb2dVertex
 10
2.775
 20
-24.075
 30
0.0
 70
     8
  0
VERTEX
  5
11C
330
10C
100
AcDbEntity
  8
ガラス
  6
Continuous
100
AcDbVertex
100
AcDb2dVertex
 10
2.8
 20
-24.025
 30
0.0
 70
     8
  0
VERTEX
  5
11D
330
10C
100
AcDbEntity
  8
ガラス
  6
Continuous
100
AcDbVertex
100
AcDb2dVertex
 10
2.825
 20
-23.975
 30
0.0
 70
     8
  0
VERTEX
  5
11E
330
10C
100
AcDbEntity
  8
ガラス
  6
Continuous
100
AcDbVertex
100
AcDb2dVertex
 10
2.85
 20
-23.925
 30
0.0
 70
     8
  0
VERTEX
  5
11F
330
10C
100
AcDbEntity
  8
ガラス
  6
Continuous
100
AcDbVertex
100
AcDb2dVertex
 10
2.9
 20
-23.875
 30
0.0
 70
     8
  0
VERTEX
  5
120
330
10C
100
AcDbEntity
  8
ガラス
  6
Continuous
100
AcDbVertex
100
AcDb2dVertex
 10
2.925
 20
-23.825
 30
0.0
 70
     8
  0
VERTEX
  5
121
330
10C
100
AcDbEntity
  8
ガラス
  6
Continuous
100
AcDbVertex
100
AcDb2dVertex
 10
2.975
 20
-23.8
 30
0.0
 70
     8
  0
VERTEX
  5
122
330
10C
100
AcDbEntity
  8
ガラス
  6
Continuous
100
AcDbVertex
100
AcDb2dVertex
 10
3.0
 20
-23.75
 30
0.0
 70
     8
  0
VERTEX
  5
123
330
10C
100
AcDbEntity
  8
ガラス
  6
Continuous
100
AcDbVertex
100
AcDb2dVertex
 10
3.05
 20
-23.7
 30
0.0
 70
     8
  0
VERTEX
  5
124
330
10C
100
AcDbEntity
  8
ガラス
  6
Continuous
100
AcDbVertex
100
AcDb2dVertex
 10
3.1
 20
-23.675
 30
0.0
 70
     8
  0
VERTEX
  5
125
330
10C
100
AcDbEntity
  8
ガラス
  6
Continuous
100
AcDbVertex
100
AcDb2dVertex
 10
3.15
 20
-23.625
 30
0.0
 70
     8
  0
VERTEX
  5
126
330
10C
100
AcDbEntity
  8
ガラス
  6
Continuous
100
AcDbVertex
100
AcDb2dVertex
 10
3.175
 20
-23.6
 30
0.0
 70
     8
  0
VERTEX
  5
127
330
10C
100
AcDbEntity
  8
ガラス
  6
Continuous
100
AcDbVertex
100
AcDb2dVertex
 10
3.225
 20
-23.575
 30
0.0
 70
     8
  0
VERTEX
  5
128
330
10C
100
AcDbEntity
  8
ガラス
  6
Continuous
100
AcDbVertex
100
AcDb2dVertex
 10
3.275
 20
-23.525
 30
0.0
 70
     8
  0
VERTEX
  5
129
330
10C
100
AcDbEntity
  8
ガラス
  6
Continuous
100
AcDbVertex
100
AcDb2dVertex
 10
3.35
 20
-23.5
 30
0.0
 70
     8
  0
VERTEX
  5
12A
330
10C
100
AcDbEntity
  8
ガラス
  6
Continuous
100
AcDbVertex
100
AcDb2dVertex
 10
3.4
 20
-23.475
 30
0.0
 70
     8
  0
VERTEX
  5
12B
330
10C
100
AcDbEntity
  8
ガラス
  6
Continuous
100
AcDbVertex
100
AcDb2dVertex
 10
3.45
 20
-23.45
 30
0.0
 70
     8
  0
VERTEX
  5
12C
330
10C
100
AcDbEntity
  8
ガラス
  6
Continuous
100
AcDbVertex
100
AcDb2dVertex
 10
3.5
 20
-23.425
 30
0.0
 70
     8
  0
VERTEX
  5
12D
330
10C
100
AcDbEntity
  8
ガラス
  6
Continuous
100
AcDbVertex
100
AcDb2dVertex
 10
3.575
 20
-23.4
 30
0.0
 70
     8
  0
VERTEX
  5
12E
330
10C
100
AcDbEntity
  8
ガラス
  6
Continuous
100
AcDbVertex
100
AcDb2dVertex
 10
3.625
 20
-23.375
 30
0.0
 70
     8
  0
VERTEX
  5
12F
330
10C
100
AcDbEntity
  8
ガラス
  6
Continuous
100
AcDbVertex
100
AcDb2dVertex
 10
3.675
 20
-23.35
 30
0.0
 70
     8
  0
VERTEX
  5
130
330
10C
100
AcDbEntity
  8
ガラス
  6
Continuous
100
AcDbVertex
100
AcDb2dVertex
 10
3.75
 20
-23.325
 30
0.0
 70
     8
  0
VERTEX
  5
131
330
10C
100
AcDbEntity
  8
ガラス
  6
Continuous
100
AcDbVertex
100
AcDb2dVertex
 10
3.8
 20
-23.3
 30
0.0
 70
     8
  0
VERTEX
  5
132
330
10C
100
AcDbEntity
  8
ガラス
  6
Continuous
100
AcDbVertex
100
AcDb2dVertex
 10
3.85
 20
-23.275
 30
0.0
 70
     8
  0
VERTEX
  5
133
330
10C
100
AcDbEntity
  8
ガラス
  6
Continuous
100
AcDbVertex
100
AcDb2dVertex
 10
3.925
 20
-23.275
 30
0.0
 70
     8
  0
VERTEX
  5
134
330
10C
100
AcDbEntity
  8
ガラス
  6
Continuous
100
AcDbVertex
100
AcDb2dVertex
 10
3.975
 20
-23.25
 30
0.0
 70
     8
  0
VERTEX
  5
135
330
10C
100
AcDbEntity
  8
ガラス
  6
Continuous
100
AcDbVertex
100
AcDb2dVertex
 10
4.05
 20
-23.225
 30
0.0
 70
     8
  0
SEQEND
  5
136
330
10C
100
AcDbEntity
  8
0
  0
POLYLINE
  5
137
330
10B
100
AcDbEntity
  8
ガラス
  6
Continuous
100
AcDb2dPolyline
 66
     1
 10
0.0
 20
0.0
 30
0.0
 70
     4
  0
VERTEX
  5
138
330
137
100
AcDbEntity
  8
ガラス
  6
Continuous
100
AcDbVertex
100
AcDb2dVertex
 10
4.05
 20
-23.225
 30
0.0
 70
     8
  0
VERTEX
  5
139
330
137
100
AcDbEntity
  8
ガラス
  6
Continuous
100
AcDbVertex
100
AcDb2dVertex
 10
4.025
 20
-23.275
 30
0.0
 70
     8
  0
VERTEX
  5
13A
330
137
100
AcDbEntity
  8
ガラス
  6
Continuous
100
AcDbVertex
100
AcDb2dVertex
 10
4.025
 20
-23.3
 30
0.0
 70
     8
  0
VERTEX
  5
13B
330
137
100
AcDbEntity
  8
ガラス
  6
Continuous
100
AcDbVertex
100
AcDb2dVertex
 10
4.0
 20
-23.35
 30
0.0
 70
     8
  0
VERTEX
  5
13C
330
137
100
AcDbEntity
  8
ガラス
  6
Continuous
100
AcDbVertex
100
AcDb2dVertex
 10
4.0
 20
-23.4
 30
0.0
 70
     8
  0
VERTEX
  5
13D
330
137
100
AcDbEntity
  8
ガラス
  6
Continuous
100
AcDbVertex
100
AcDb2dVertex
 10
3.975
 20
-23.425
 30
0.0
 70
     8
  0
VERTEX
  5
13E
330
137
100
AcDbEntity
  8
ガラス
  6
Continuous
100
AcDbVertex
100
AcDb2dVertex
 10
3.975
 20
-23.475
 30
0.0
 70
     8
  0
VERTEX
  5
13F
330
137
100
AcDbEntity
  8
ガラス
  6
Continuous
100
AcDbVertex
100
AcDb2dVertex
 10
3.975
 20
-23.525
 30
0.0
 70
     8
  0
VERTEX
  5
140
330
137
100
AcDbEntity
  8
ガラス
  6
Continuous
100
AcDbVertex
100
AcDb2dVertex
 10
3.95
 20
-23.55
 30
0.0
 70
     8
  0
VERTEX
  5
141
330
137
100
AcDbEntity
  8
ガラス
  6
Continuous
100
AcDbVertex
100
AcDb2dVertex
 10
3.95
 20
-23.6
 30
0.0
 70
     8
  0
VERTEX
  5
142
330
137
100
AcDbEntity
  8
ガラス
  6
Continuous
100
AcDbVertex
100
AcDb2dVertex
 10
3.925
 20
-23.65
 30
0.0
 70
     8
  0
VERTEX
  5
143
330
137
100
AcDbEntity
  8
ガラス
  6
Continuous
100
AcDbVertex
100
AcDb2dVertex
 10
3.925
 20
-23.675
 30
0.0
 70
     8
  0
VERTEX
  5
144
330
137
100
AcDbEntity
  8
ガラス
  6
Continuous
100
AcDbVertex
100
AcDb2dVertex
 10
3.9
 20
-23.725
 30
0.0
 70
     8
  0
VERTEX
  5
145
330
137
100
AcDbEntity
  8
ガラス
  6
Continuous
100
AcDbVertex
100
AcDb2dVertex
 10
3.9
 20
-23.775
 30
0.0
 70
     8
  0
VERTEX
  5
146
330
137
100
AcDbEntity
  8
ガラス
  6
Continuous
100
AcDbVertex
100
AcDb2dVertex
 10
3.9
 20
-23.8
 30
0.0
 70
     8
  0
VERTEX
  5
147
330
137
100
AcDbEntity
  8
ガラス
  6
Continuous
100
AcDbVertex
100
AcDb2dVertex
 10
3.875
 20
-23.85
 30
0.0
 70
     8
  0
VERTEX
  5
148
330
137
100
AcDbEntity
  8
ガラス
  6
Continuous
100
AcDbVertex
100
AcDb2dVertex
 10
3.875
 20
-23.9
 30
0.0
 70
     8
  0
VERTEX
  5
149
330
137
100
AcDbEntity
  8
ガラス
  6
Continuous
100
AcDbVertex
100
AcDb2dVertex
 10
3.875
 20
-23.925
 30
0.0
 70
     8
  0
VERTEX
  5
14A
330
137
100
AcDbEntity
  8
ガラス
  6
Continuous
100
AcDbVertex
100
AcDb2dVertex
 10
3.85
 20
-23.975
 30
0.0
 70
     8
  0
VERTEX
  5
14B
330
137
100
AcDbEntity
  8
ガラス
  6
Continuous
100
AcDbVertex
100
AcDb2dVertex
 10
3.85
 20
-24.025
 30
0.0
 70
     8
  0
VERTEX
  5
14C
330
137
100
AcDbEntity
  8
ガラス
  6
Continuous
100
AcDbVertex
100
AcDb2dVertex
 10
3.85
 20
-24.05
 30
0.0
 70
     8
  0
VERTEX
  5
14D
330
137
100
AcDbEntity
  8
ガラス
  6
Continuous
100
AcDbVertex
100
AcDb2dVertex
 10
3.85
 20
-24.1
 30
0.0
 70
     8
  0
VERTEX
  5
14E
330
137
100
AcDbEntity
  8
ガラス
  6
Continuous
100
AcDbVertex
100
AcDb2dVertex
 10
3.825
 20
-24.15
 30
0.0
 70
     8
  0
VERTEX
  5
14F
330
137
100
AcDbEntity
  8
ガラス
  6
Continuous
100
AcDbVertex
100
AcDb2dVertex
 10
3.825
 20
-24.175
 30
0.0
 70
     8
  0
VERTEX
  5
150
330
137
100
AcDbEntity
  8
ガラス
  6
Continuous
100
AcDbVertex
100
AcDb2dVertex
 10
3.825
 20
-24.225
 30
0.0
 70
     8
  0
VERTEX
  5
151
330
137
100
AcDbEntity
  8
ガラス
  6
Continuous
100
AcDbVertex
100
AcDb2dVertex
 10
3.825
 20
-24.275
 30
0.0
 70
     8
  0
VERTEX
  5
152
330
137
100
AcDbEntity
  8
ガラス
  6
Continuous
100
AcDbVertex
100
AcDb2dVertex
 10
3.825
 20
-24.325
 30
0.0
 70
     8
  0
VERTEX
  5
153
330
137
100
AcDbEntity
  8
ガラス
  6
Continuous
100
AcDbVertex
100
AcDb2dVertex
 10
3.825
 20
-24.35
 30
0.0
 70
     8
  0
VERTEX
  5
154
330
137
100
AcDbEntity
  8
ガラス
  6
Continuous
100
AcDbVertex
100
AcDb2dVertex
 10
3.825
 20
-24.4
 30
0.0
 70
     8
  0
VERTEX
  5
155
330
137
100
AcDbEntity
  8
ガラス
  6
Continuous
100
AcDbVertex
100
AcDb2dVertex
 10
3.8
 20
-24.45
 30
0.0
 70
     8
  0
VERTEX
  5
156
330
137
100
AcDbEntity
  8
ガラス
  6
Continuous
100
AcDbVertex
100
AcDb2dVertex
 10
3.8
 20
-24.475
 30
0.0
 70
     8
  0
VERTEX
  5
157
330
137
100
AcDbEntity
  8
ガラス
  6
Continuous
100
AcDbVertex
100
AcDb2dVertex
 10
3.8
 20
-24.525
 30
0.0
 70
     8
  0
VERTEX
  5
158
330
137
100
AcDbEntity
  8
ガラス
  6
Continuous
100
AcDbVertex
100
AcDb2dVertex
 10
3.8
 20
-24.575
 30
0.0
 70
     8
  0
VERTEX
  5
159
330
137
100
AcDbEntity
  8
ガラス
  6
Continuous
100
AcDbVertex
100
AcDb2dVertex
 10
3.8
 20
-24.625
 30
0.0
 70
     8
  0
VERTEX
  5
15A
330
137
100
AcDbEntity
  8
ガラス
  6
Continuous
100
AcDbVertex
100
AcDb2dVertex
 10
3.8
 20
-24.65
 30
0.0
 70
     8
  0
VERTEX
  5
15B
330
137
100
AcDbEntity
  8
ガラス
  6
Continuous
100
AcDbVertex
100
AcDb2dVertex
 10
3.8
 20
-24.7
 30
0.0
 70
     8
  0
VERTEX
  5
15C
330
137
100
AcDbEntity
  8
ガラス
  6
Continuous
100
AcDbVertex
100
AcDb2dVertex
 10
3.8
 20
-24.75
 30
0.0
 70
     8
  0
VERTEX
  5
15D
330
137
100
AcDbEntity
  8
ガラス
  6
Continuous
100
AcDbVertex
100
AcDb2dVertex
 10
3.8
 20
-24.775
 30
0.0
 70
     8
  0
VERTEX
  5
15E
330
137
100
AcDbEntity
  8
ガラス
  6
Continuous
100
AcDbVertex
100
AcDb2dVertex
 10
3.8
 20
-24.825
 30
0.0
 70
     8
  0
VERTEX
  5
15F
330
137
100
AcDbEntity
  8
ガラス
  6
Continuous
100
AcDbVertex
100
AcDb2dVertex
 10
3.8
 20
-24.875
 30
0.0
 70
     8
  0
VERTEX
  5
160
330
137
100
AcDbEntity
  8
ガラス
  6
Continuous
100
AcDbVertex
100
AcDb2dVertex
 10
3.8
 20
-24.925
 30
0.0
 70
     8
  0
SEQEND
  5
161
330
137
100
AcDbEntity
  8
0
  0
ARC
  5
162
330
10B
100
AcDbEntity
  8
ガラス
  6
Continuous
100
AcDbCircle
 10
3.150777
 20
-24.903184
 30
0.0
 40
0.668594
100
AcDbArc
 50
180.0
 51
0.0
  0
ENDBLK
  5
163
330
10B
100
AcDbEntity
  8
0
100
AcDbBlockEnd
  0
BLOCK
  5
164
330
165
100
AcDbEntity
  8
0
100
AcDbBlockBegin
  2
*U6
 70
     1
 71
     0
 10
0.0
 20
0.0
 30
0.0
  3
*U6
  1

  0
POLYLINE
  5
166
330
165
100
AcDbEntity
  8
ガラス
  6
Continuous
100
AcDb2dPolyline
 66
     1
 10
0.0
 20
0.0
 30
0.0
 70
     4
  0
VERTEX
  5
167
330
166
100
AcDbEntity
  8
ガラス
  6
Continuous
100
AcDbVertex
100
AcDb2dVertex
 10
-4.5
 20
-32.35
 30
0.0
 70
     8
  0
VERTEX
  5
168
330
166
100
AcDbEntity
  8
ガラス
  6
Continuous
100
AcDbVertex
100
AcDb2dVertex
 10
-4.425
 20
-32.35
 30
0.0
 70
     8
  0
VERTEX
  5
169
330
166
100
AcDbEntity
  8
ガラス
  6
Continuous
100
AcDbVertex
100
AcDb2dVertex
 10
-4.375
 20
-32.35
 30
0.0
 70
     8
  0
VERTEX
  5
16A
330
166
100
AcDbEntity
  8
ガラス
  6
Continuous
100
AcDbVertex
100
AcDb2dVertex
 10
-4.3
 20
-32.325
 30
0.0
 70
     8
  0
VERTEX
  5
16B
330
166
100
AcDbEntity
  8
ガラス
  6
Continuous
100
AcDbVertex
100
AcDb2dVertex
 10
-4.25
 20
-32.325
 30
0.0
 70
     8
  0
VERTEX
  5
16C
330
166
100
AcDbEntity
  8
ガラス
  6
Continuous
100
AcDbVertex
100
AcDb2dVertex
 10
-4.175
 20
-32.325
 30
0.0
 70
     8
  0
VERTEX
  5
16D
330
166
100
AcDbEntity
  8
ガラス
  6
Continuous
100
AcDbVertex
100
AcDb2dVertex
 10
-4.1
 20
-32.325
 30
0.0
 70
     8
  0
VERTEX
  5
16E
330
166
100
AcDbEntity
  8
ガラス
  6
Continuous
100
AcDbVertex
100
AcDb2dVertex
 10
-4.05
 20
-32.325
 30
0.0
 70
     8
  0
VERTEX
  5
16F
330
166
100
AcDbEntity
  8
ガラス
  6
Continuous
100
AcDbVertex
100
AcDb2dVertex
 10
-3.975
 20
-32.325
 30
0.0
 70
     8
  0
VERTEX
  5
170
330
166
100
AcDbEntity
  8
ガラス
  6
Continuous
100
AcDbVertex
100
AcDb2dVertex
 10
-3.925
 20
-32.325
 30
0.0
 70
     8
  0
VERTEX
  5
171
330
166
100
AcDbEntity
  8
ガラス
  6
Continuous
100
AcDbVertex
100
AcDb2dVertex
 10
-3.85
 20
-32.325
 30
0.0
 70
     8
  0
VERTEX
  5
172
330
166
100
AcDbEntity
  8
ガラス
  6
Continuous
100
AcDbVertex
100
AcDb2dVertex
 10
-3.8
 20
-32.325
 30
0.0
 70
     8
  0
VERTEX
  5
173
330
166
100
AcDbEntity
  8
ガラス
  6
Continuous
100
AcDbVertex
100
AcDb2dVertex
 10
-3.725
 20
-32.325
 30
0.0
 70
     8
  0
VERTEX
  5
174
330
166
100
AcDbEntity
  8
ガラス
  6
Continuous
100
AcDbVertex
100
AcDb2dVertex
 10
-3.675
 20
-32.325
 30
0.0
 70
     8
  0
VERTEX
  5
175
330
166
100
AcDbEntity
  8
ガラス
  6
Continuous
100
AcDbVertex
100
AcDb2dVertex
 10
-3.6
 20
-32.325
 30
0.0
 70
     8
  0
VERTEX
  5
176
330
166
100
AcDbEntity
  8
ガラス
  6
Continuous
100
AcDbVertex
100
AcDb2dVertex
 10
-3.55
 20
-32.325
 30
0.0
 70
     8
  0
VERTEX
  5
177
330
166
100
AcDbEntity
  8
ガラス
  6
Continuous
100
AcDbVertex
100
AcDb2dVertex
 10
-3.5
 20
-32.35
 30
0.0
 70
     8
  0
VERTEX
  5
178
330
166
100
AcDbEntity
  8
ガラス
  6
Continuous
100
AcDbVertex
100
AcDb2dVertex
 10
-3.425
 20
-32.35
 30
0.0
 70
     8
  0
VERTEX
  5
179
330
166
100
AcDbEntity
  8
ガラス
  6
Continuous
100
AcDbVertex
100
AcDb2dVertex
 10
-3.375
 20
-32.375
 30
0.0
 70
     8
  0
VERTEX
  5
17A
330
166
100
AcDbEntity
  8
ガラス
  6
Continuous
100
AcDbVertex
100
AcDb2dVertex
 10
-3.325
 20
-32.4
 30
0.0
 70
     8
  0
VERTEX
  5
17B
330
166
100
AcDbEntity
  8
ガラス
  6
Continuous
100
AcDbVertex
100
AcDb2dVertex
 10
-3.275
 20
-32.4
 30
0.0
 70
     8
  0
VERTEX
  5
17C
330
166
100
AcDbEntity
  8
ガラス
  6
Continuous
100
AcDbVertex
100
AcDb2dVertex
 10
-3.225
 20
-32.425
 30
0.0
 70
     8
  0
VERTEX
  5
17D
330
166
100
AcDbEntity
  8
ガラス
  6
Continuous
100
AcDbVertex
100
AcDb2dVertex
 10
-3.175
 20
-32.45
 30
0.0
 70
     8
  0
VERTEX
  5
17E
330
166
100
AcDbEntity
  8
ガラス
  6
Continuous
100
AcDbVertex
100
AcDb2dVertex
 10
-3.1
 20
-32.475
 30
0.0
 70
     8
  0
VERTEX
  5
17F
330
166
100
AcDbEntity
  8
ガラス
  6
Continuous
100
AcDbVertex
100
AcDb2dVertex
 10
-3.05
 20
-32.525
 30
0.0
 70
     8
  0
VERTEX
  5
180
330
166
100
AcDbEntity
  8
ガラス
  6
Continuous
100
AcDbVertex
100
AcDb2dVertex
 10
-3.025
 20
-32.55
 30
0.0
 70
     8
  0
VERTEX
  5
181
330
166
100
AcDbEntity
  8
ガラス
  6
Continuous
100
AcDbVertex
100
AcDb2dVertex
 10
-2.975
 20
-32.575
 30
0.0
 70
     8
  0
VERTEX
  5
182
330
166
100
AcDbEntity
  8
ガラス
  6
Continuous
100
AcDbVertex
100
AcDb2dVertex
 10
-2.925
 20
-32.625
 30
0.0
 70
     8
  0
VERTEX
  5
183
330
166
100
AcDbEntity
  8
ガラス
  6
Continuous
100
AcDbVertex
100
AcDb2dVertex
 10
-2.875
 20
-32.65
 30
0.0
 70
     8
  0
VERTEX
  5
184
330
166
100
AcDbEntity
  8
ガラス
  6
Continuous
100
AcDbVertex
100
AcDb2dVertex
 10
-2.825
 20
-32.7
 30
0.0
 70
     8
  0
VERTEX
  5
185
330
166
100
AcDbEntity
  8
ガラス
  6
Continuous
100
AcDbVertex
100
AcDb2dVertex
 10
-2.775
 20
-32.75
 30
0.0
 70
     8
  0
VERTEX
  5
186
330
166
100
AcDbEntity
  8
ガラス
  6
Continuous
100
AcDbVertex
100
AcDb2dVertex
 10
-2.725
 20
-32.775
 30
0.0
 70
     8
  0
VERTEX
  5
187
330
166
100
AcDbEntity
  8
ガラス
  6
Continuous
100
AcDbVertex
100
AcDb2dVertex
 10
-2.7
 20
-32.825
 30
0.0
 70
     8
  0
VERTEX
  5
188
330
166
100
AcDbEntity
  8
ガラス
  6
Continuous
100
AcDbVertex
100
AcDb2dVertex
 10
-2.65
 20
-32.875
 30
0.0
 70
     8
  0
VERTEX
  5
189
330
166
100
AcDbEntity
  8
ガラス
  6
Continuous
100
AcDbVertex
100
AcDb2dVertex
 10
-2.6
 20
-32.925
 30
0.0
 70
     8
  0
VERTEX
  5
18A
330
166
100
AcDbEntity
  8
ガラス
  6
Continuous
100
AcDbVertex
100
AcDb2dVertex
 10
-2.55
 20
-32.975
 30
0.0
 70
     8
  0
VERTEX
  5
18B
330
166
100
AcDbEntity
  8
ガラス
  6
Continuous
100
AcDbVertex
100
AcDb2dVertex
 10
-2.525
 20
-33.025
 30
0.0
 70
     8
  0
VERTEX
  5
18C
330
166
100
AcDbEntity
  8
ガラス
  6
Continuous
100
AcDbVertex
100
AcDb2dVertex
 10
-2.475
 20
-33.075
 30
0.0
 70
     8
  0
VERTEX
  5
18D
330
166
100
AcDbEntity
  8
ガラス
  6
Continuous
100
AcDbVertex
100
AcDb2dVertex
 10
-2.425
 20
-33.125
 30
0.0
 70
     8
  0
VERTEX
  5
18E
330
166
100
AcDbEntity
  8
ガラス
  6
Continuous
100
AcDbVertex
100
AcDb2dVertex
 10
-2.4
 20
-33.175
 30
0.0
 70
     8
  0
VERTEX
  5
18F
330
166
100
AcDbEntity
  8
ガラス
  6
Continuous
100
AcDbVertex
100
AcDb2dVertex
 10
-2.35
 20
-33.225
 30
0.0
 70
     8
  0
SEQEND
  5
190
330
166
100
AcDbEntity
  8
0
  0
POLYLINE
  5
191
330
165
100
AcDbEntity
  8
ガラス
  6
Continuous
100
AcDb2dPolyline
 66
     1
 10
0.0
 20
0.0
 30
0.0
 70
     4
  0
VERTEX
  5
192
330
191
100
AcDbEntity
  8
ガラス
  6
Continuous
100
AcDbVertex
100
AcDb2dVertex
 10
-2.35
 20
-33.225
 30
0.0
 70
     8
  0
VERTEX
  5
193
330
191
100
AcDbEntity
  8
ガラス
  6
Continuous
100
AcDbVertex
100
AcDb2dVertex
 10
-2.4
 20
-33.225
 30
0.0
 70
     8
  0
VERTEX
  5
194
330
191
100
AcDbEntity
  8
ガラス
  6
Continuous
100
AcDbVertex
100
AcDb2dVertex
 10
-2.425
 20
-33.225
 30
0.0
 70
     8
  0
VERTEX
  5
195
330
191
100
AcDbEntity
  8
ガラス
  6
Continuous
100
AcDbVertex
100
AcDb2dVertex
 10
-2.475
 20
-33.225
 30
0.0
 70
     8
  0
VERTEX
  5
196
330
191
100
AcDbEntity
  8
ガラス
  6
Continuous
100
AcDbVertex
100
AcDb2dVertex
 10
-2.525
 20
-33.225
 30
0.0
 70
     8
  0
VERTEX
  5
197
330
191
100
AcDbEntity
  8
ガラス
  6
Continuous
100
AcDbVertex
100
AcDb2dVertex
 10
-2.575
 20
-33.225
 30
0.0
 70
     8
  0
VERTEX
  5
198
330
191
100
AcDbEntity
  8
ガラス
  6
Continuous
100
AcDbVertex
100
AcDb2dVertex
 10
-2.6
 20
-33.225
 30
0.0
 70
     8
  0
VERTEX
  5
199
330
191
100
AcDbEntity
  8
ガラス
  6
Continuous
100
AcDbVertex
100
AcDb2dVertex
 10
-2.65
 20
-33.25
 30
0.0
 70
     8
  0
VERTEX
  5
19A
330
191
100
AcDbEntity
  8
ガラス
  6
Continuous
100
AcDbVertex
100
AcDb2dVertex
 10
-2.7
 20
-33.25
 30
0.0
 70
     8
  0
VERTEX
  5
19B
330
191
100
AcDbEntity
  8
ガラス
  6
Continuous
100
AcDbVertex
100
AcDb2dVertex
 10
-2.725
 20
-33.25
 30
0.0
 70
     8
  0
VERTEX
  5
19C
330
191
100
AcDbEntity
  8
ガラス
  6
Continuous
100
AcDbVertex
100
AcDb2dVertex
 10
-2.775
 20
-33.25
 30
0.0
 70
     8
  0
VERTEX
  5
19D
330
191
100
AcDbEntity
  8
ガラス
  6
Continuous
100
AcDbVertex
100
AcDb2dVertex
 10
-2.825
 20
-33.25
 30
0.0
 70
     8
  0
VERTEX
  5
19E
330
191
100
AcDbEntity
  8
ガラス
  6
Continuous
100
AcDbVertex
100
AcDb2dVertex
 10
-2.875
 20
-33.275
 30
0.0
 70
     8
  0
VERTEX
  5
19F
330
191
100
AcDbEntity
  8
ガラス
  6
Continuous
100
AcDbVertex
100
AcDb2dVertex
 10
-2.9
 20
-33.275
 30
0.0
 70
     8
  0
VERTEX
  5
1A0
330
191
100
AcDbEntity
  8
ガラス
  6
Continuous
100
AcDbVertex
100
AcDb2dVertex
 10
-2.95
 20
-33.275
 30
0.0
 70
     8
  0
VERTEX
  5
1A1
330
191
100
AcDbEntity
  8
ガラス
  6
Continuous
100
AcDbVertex
100
AcDb2dVertex
 10
-3.0
 20
-33.275
 30
0.0
 70
     8
  0
VERTEX
  5
1A2
330
191
100
AcDbEntity
  8
ガラス
  6
Continuous
100
AcDbVertex
100
AcDb2dVertex
 10
-3.025
 20
-33.3
 30
0.0
 70
     8
  0
VERTEX
  5
1A3
330
191
100
AcDbEntity
  8
ガラス
  6
Continuous
100
AcDbVertex
100
AcDb2dVertex
 10
-3.075
 20
-33.3
 30
0.0
 70
     8
  0
VERTEX
  5
1A4
330
191
100
AcDbEntity
  8
ガラス
  6
Continuous
100
AcDbVertex
100
AcDb2dVertex
 10
-3.125
 20
-33.3
 30
0.0
 70
     8
  0
VERTEX
  5
1A5
330
191
100
AcDbEntity
  8
ガラス
  6
Continuous
100
AcDbVertex
100
AcDb2dVertex
 10
-3.15
 20
-33.325
 30
0.0
 70
     8
  0
VERTEX
  5
1A6
330
191
100
AcDbEntity
  8
ガラス
  6
Continuous
100
AcDbVertex
100
AcDb2dVertex
 10
-3.2
 20
-33.325
 30
0.0
 70
     8
  0
VERTEX
  5
1A7
330
191
100
AcDbEntity
  8
ガラス
  6
Continuous
100
AcDbVertex
100
AcDb2dVertex
 10
-3.25
 20
-33.325
 30
0.0
 70
     8
  0
VERTEX
  5
1A8
330
191
100
AcDbEntity
  8
ガラス
  6
Continuous
100
AcDbVertex
100
AcDb2dVertex
 10
-3.275
 20
-33.35
 30
0.0
 70
     8
  0
VERTEX
  5
1A9
330
191
100
AcDbEntity
  8
ガラス
  6
Continuous
100
AcDbVertex
100
AcDb2dVertex
 10
-3.325
 20
-33.35
 30
0.0
 70
     8
  0
VERTEX
  5
1AA
330
191
100
AcDbEntity
  8
ガラス
  6
Continuous
100
AcDbVertex
100
AcDb2dVertex
 10
-3.375
 20
-33.375
 30
0.0
 70
     8
  0
VERTEX
  5
1AB
330
191
100
AcDbEntity
  8
ガラス
  6
Continuous
100
AcDbVertex
100
AcDb2dVertex
 10
-3.4
 20
-33.375
 30
0.0
 70
     8
  0
VERTEX
  5
1AC
330
191
100
AcDbEntity
  8
ガラス
  6
Continuous
100
AcDbVertex
100
AcDb2dVertex
 10
-3.45
 20
-33.4
 30
0.0
 70
     8
  0
VERTEX
  5
1AD
330
191
100
AcDbEntity
  8
ガラス
  6
Continuous
100
AcDbVertex
100
AcDb2dVertex
 10
-3.5
 20
-33.4
 30
0.0
 70
     8
  0
VERTEX
  5
1AE
330
191
100
AcDbEntity
  8
ガラス
  6
Continuous
100
AcDbVertex
100
AcDb2dVertex
 10
-3.525
 20
-33.425
 30
0.0
 70
     8
  0
VERTEX
  5
1AF
330
191
100
AcDbEntity
  8
ガラス
  6
Continuous
100
AcDbVertex
100
AcDb2dVertex
 10
-3.575
 20
-33.425
 30
0.0
 70
     8
  0
VERTEX
  5
1B0
330
191
100
AcDbEntity
  8
ガラス
  6
Continuous
100
AcDbVertex
100
AcDb2dVertex
 10
-3.6
 20
-33.45
 30
0.0
 70
     8
  0
VERTEX
  5
1B1
330
191
100
AcDbEntity
  8
ガラス
  6
Continuous
100
AcDbVertex
100
AcDb2dVertex
 10
-3.65
 20
-33.45
 30
0.0
 70
     8
  0
VERTEX
  5
1B2
330
191
100
AcDbEntity
  8
ガラス
  6
Continuous
100
AcDbVertex
100
AcDb2dVertex
 10
-3.7
 20
-33.475
 30
0.0
 70
     8
  0
VERTEX
  5
1B3
330
191
100
AcDbEntity
  8
ガラス
  6
Continuous
100
AcDbVertex
100
AcDb2dVertex
 10
-3.725
 20
-33.5
 30
0.0
 70
     8
  0
VERTEX
  5
1B4
330
191
100
AcDbEntity
  8
ガラス
  6
Continuous
100
AcDbVertex
100
AcDb2dVertex
 10
-3.775
 20
-33.5
 30
0.0
 70
     8
  0
VERTEX
  5
1B5
330
191
100
AcDbEntity
  8
ガラス
  6
Continuous
100
AcDbVertex
100
AcDb2dVertex
 10
-3.825
 20
-33.525
 30
0.0
 70
     8
  0
VERTEX
  5
1B6
330
191
100
AcDbEntity
  8
ガラス
  6
Continuous
100
AcDbVertex
100
AcDb2dVertex
 10
-3.85
 20
-33.55
 30
0.0
 70
     8
  0
VERTEX
  5
1B7
330
191
100
AcDbEntity
  8
ガラス
  6
Continuous
100
AcDbVertex
100
AcDb2dVertex
 10
-3.9
 20
-33.55
 30
0.0
 70
     8
  0
VERTEX
  5
1B8
330
191
100
AcDbEntity
  8
ガラス
  6
Continuous
100
AcDbVertex
100
AcDb2dVertex
 10
-3.925
 20
-33.575
 30
0.0
 70
     8
  0
VERTEX
  5
1B9
330
191
100
AcDbEntity
  8
ガラス
  6
Continuous
100
AcDbVertex
100
AcDb2dVertex
 10
-3.975
 20
-33.575
 30
0.0
 70
     8
  0
VERTEX
  5
1BA
330
191
100
AcDbEntity
  8
ガラス
  6
Continuous
100
AcDbVertex
100
AcDb2dVertex
 10
-4.025
 20
-33.6
 30
0.0
 70
     8
  0
SEQEND
  5
1BB
330
191
100
AcDbEntity
  8
0
  0
ARC
  5
1BC
330
165
100
AcDbEntity
  8
ガラス
  6
Continuous
100
AcDbCircle
 10
-4.244028
 20
-32.965483
 30
0.0
 40
0.668594
100
AcDbArc
 50
111.203091
 51
291.203091
  0
ENDBLK
  5
1BD
330
165
100
AcDbEntity
  8
0
100
AcDbBlockEnd
  0
BLOCK
  5
1BE
330
1BF
100
AcDbEntity
  8
0
100
AcDbBlockBegin
  2
*U7
 70
     1
 71
     0
 10
0.0
 20
0.0
 30
0.0
  3
*U7
  1

  0
POLYLINE
  5
1C0
330
1BF
100
AcDbEntity
  8
ガラス
  6
Continuous
100
AcDb2dPolyline
 66
     1
 10
0.0
 20
0.0
 30
0.0
 70
     4
  0
VERTEX
  5
1C1
330
1C0
100
AcDbEntity
  8
ガラス
  6
Continuous
100
AcDbVertex
100
AcDb2dVertex
 10
-18.725
 20
-32.35
 30
0.0
 70
     8
  0
VERTEX
  5
1C2
330
1C0
100
AcDbEntity
  8
ガラス
  6
Continuous
100
AcDbVertex
100
AcDb2dVertex
 10
-18.675
 20
-32.35
 30
0.0
 70
     8
  0
VERTEX
  5
1C3
330
1C0
100
AcDbEntity
  8
ガラス
  6
Continuous
100
AcDbVertex
100
AcDb2dVertex
 10
-18.6
 20
-32.35
 30
0.0
 70
     8
  0
VERTEX
  5
1C4
330
1C0
100
AcDbEntity
  8
ガラス
  6
Continuous
100
AcDbVertex
100
AcDb2dVertex
 10
-18.525
 20
-32.325
 30
0.0
 70
     8
  0
VERTEX
  5
1C5
330
1C0
100
AcDbEntity
  8
ガラス
  6
Continuous
100
AcDbVertex
100
AcDb2dVertex
 10
-18.475
 20
-32.325
 30
0.0
 70
     8
  0
VERTEX
  5
1C6
330
1C0
100
AcDbEntity
  8
ガラス
  6
Continuous
100
AcDbVertex
100
AcDb2dVertex
 10
-18.4
 20
-32.325
 30
0.0
 70
     8
  0
VERTEX
  5
1C7
330
1C0
100
AcDbEntity
  8
ガラス
  6
Continuous
100
AcDbVertex
100
AcDb2dVertex
 10
-18.35
 20
-32.325
 30
0.0
 70
     8
  0
VERTEX
  5
1C8
330
1C0
100
AcDbEntity
  8
ガラス
  6
Continuous
100
AcDbVertex
100
AcDb2dVertex
 10
-18.275
 20
-32.325
 30
0.0
 70
     8
  0
VERTEX
  5
1C9
330
1C0
100
AcDbEntity
  8
ガラス
  6
Continuous
100
AcDbVertex
100
AcDb2dVertex
 10
-18.225
 20
-32.325
 30
0.0
 70
     8
  0
VERTEX
  5
1CA
330
1C0
100
AcDbEntity
  8
ガラス
  6
Continuous
100
AcDbVertex
100
AcDb2dVertex
 10
-18.15
 20
-32.325
 30
0.0
 70
     8
  0
VERTEX
  5
1CB
330
1C0
100
AcDbEntity
  8
ガラス
  6
Continuous
100
AcDbVertex
100
AcDb2dVertex
 10
-18.1
 20
-32.325
 30
0.0
 70
     8
  0
VERTEX
  5
1CC
330
1C0
100
AcDbEntity
  8
ガラス
  6
Continuous
100
AcDbVertex
100
AcDb2dVertex
 10
-18.025
 20
-32.325
 30
0.0
 70
     8
  0
VERTEX
  5
1CD
330
1C0
100
AcDbEntity
  8
ガラス
  6
Continuous
100
AcDbVertex
100
AcDb2dVertex
 10
-17.975
 20
-32.325
 30
0.0
 70
     8
  0
VERTEX
  5
1CE
330
1C0
100
AcDbEntity
  8
ガラス
  6
Continuous
100
AcDbVertex
100
AcDb2dVertex
 10
-17.9
 20
-32.325
 30
0.0
 70
     8
  0
VERTEX
  5
1CF
330
1C0
100
AcDbEntity
  8
ガラス
  6
Continuous
100
AcDbVertex
100
AcDb2dVertex
 10
-17.85
 20
-32.325
 30
0.0
 70
     8
  0
VERTEX
  5
1D0
330
1C0
100
AcDbEntity
  8
ガラス
  6
Continuous
100
AcDbVertex
100
AcDb2dVertex
 10
-17.775
 20
-32.325
 30
0.0
 70
     8
  0
VERTEX
  5
1D1
330
1C0
100
AcDbEntity
  8
ガラス
  6
Continuous
100
AcDbVertex
100
AcDb2dVertex
 10
-17.725
 20
-32.35
 30
0.0
 70
     8
  0
VERTEX
  5
1D2
330
1C0
100
AcDbEntity
  8
ガラス
  6
Continuous
100
AcDbVertex
100
AcDb2dVertex
 10
-17.675
 20
-32.35
 30
0.0
 70
     8
  0
VERTEX
  5
1D3
330
1C0
100
AcDbEntity
  8
ガラス
  6
Continuous
100
AcDbVertex
100
AcDb2dVertex
 10
-17.6
 20
-32.375
 30
0.0
 70
     8
  0
VERTEX
  5
1D4
330
1C0
100
AcDbEntity
  8
ガラス
  6
Continuous
100
AcDbVertex
100
AcDb2dVertex
 10
-17.55
 20
-32.4
 30
0.0
 70
     8
  0
VERTEX
  5
1D5
330
1C0
100
AcDbEntity
  8
ガラス
  6
Continuous
100
AcDbVertex
100
AcDb2dVertex
 10
-17.5
 20
-32.4
 30
0.0
 70
     8
  0
VERTEX
  5
1D6
330
1C0
100
AcDbEntity
  8
ガラス
  6
Continuous
100
AcDbVertex
100
AcDb2dVertex
 10
-17.45
 20
-32.425
 30
0.0
 70
     8
  0
VERTEX
  5
1D7
330
1C0
100
AcDbEntity
  8
ガラス
  6
Continuous
100
AcDbVertex
100
AcDb2dVertex
 10
-17.4
 20
-32.45
 30
0.0
 70
     8
  0
VERTEX
  5
1D8
330
1C0
100
AcDbEntity
  8
ガラス
  6
Continuous
100
AcDbVertex
100
AcDb2dVertex
 10
-17.35
 20
-32.475
 30
0.0
 70
     8
  0
VERTEX
  5
1D9
330
1C0
100
AcDbEntity
  8
ガラス
  6
Continuous
100
AcDbVertex
100
AcDb2dVertex
 10
-17.3
 20
-32.525
 30
0.0
 70
     8
  0
VERTEX
  5
1DA
330
1C0
100
AcDbEntity
  8
ガラス
  6
Continuous
100
AcDbVertex
100
AcDb2dVertex
 10
-17.25
 20
-32.55
 30
0.0
 70
     8
  0
VERTEX
  5
1DB
330
1C0
100
AcDbEntity
  8
ガラス
  6
Continuous
100
AcDbVertex
100
AcDb2dVertex
 10
-17.2
 20
-32.575
 30
0.0
 70
     8
  0
VERTEX
  5
1DC
330
1C0
100
AcDbEntity
  8
ガラス
  6
Continuous
100
AcDbVertex
100
AcDb2dVertex
 10
-17.15
 20
-32.625
 30
0.0
 70
     8
  0
VERTEX
  5
1DD
330
1C0
100
AcDbEntity
  8
ガラス
  6
Continuous
100
AcDbVertex
100
AcDb2dVertex
 10
-17.1
 20
-32.65
 30
0.0
 70
     8
  0
VERTEX
  5
1DE
330
1C0
100
AcDbEntity
  8
ガラス
  6
Continuous
100
AcDbVertex
100
AcDb2dVertex
 10
-17.05
 20
-32.7
 30
0.0
 70
     8
  0
VERTEX
  5
1DF
330
1C0
100
AcDbEntity
  8
ガラス
  6
Continuous
100
AcDbVertex
100
AcDb2dVertex
 10
-17.0
 20
-32.75
 30
0.0
 70
     8
  0
VERTEX
  5
1E0
330
1C0
100
AcDbEntity
  8
ガラス
  6
Continuous
100
AcDbVertex
100
AcDb2dVertex
 10
-16.975
 20
-32.775
 30
0.0
 70
     8
  0
VERTEX
  5
1E1
330
1C0
100
AcDbEntity
  8
ガラス
  6
Continuous
100
AcDbVertex
100
AcDb2dVertex
 10
-16.925
 20
-32.825
 30
0.0
 70
     8
  0
VERTEX
  5
1E2
330
1C0
100
AcDbEntity
  8
ガラス
  6
Continuous
100
AcDbVertex
100
AcDb2dVertex
 10
-16.875
 20
-32.875
 30
0.0
 70
     8
  0
VERTEX
  5
1E3
330
1C0
100
AcDbEntity
  8
ガラス
  6
Continuous
100
AcDbVertex
100
AcDb2dVertex
 10
-16.825
 20
-32.925
 30
0.0
 70
     8
  0
VERTEX
  5
1E4
330
1C0
100
AcDbEntity
  8
ガラス
  6
Continuous
100
AcDbVertex
100
AcDb2dVertex
 10
-16.8
 20
-32.975
 30
0.0
 70
     8
  0
VERTEX
  5
1E5
330
1C0
100
AcDbEntity
  8
ガラス
  6
Continuous
100
AcDbVertex
100
AcDb2dVertex
 10
-16.75
 20
-33.025
 30
0.0
 70
     8
  0
VERTEX
  5
1E6
330
1C0
100
AcDbEntity
  8
ガラス
  6
Continuous
100
AcDbVertex
100
AcDb2dVertex
 10
-16.7
 20
-33.075
 30
0.0
 70
     8
  0
VERTEX
  5
1E7
330
1C0
100
AcDbEntity
  8
ガラス
  6
Continuous
100
AcDbVertex
100
AcDb2dVertex
 10
-16.675
 20
-33.125
 30
0.0
 70
     8
  0
VERTEX
  5
1E8
330
1C0
100
AcDbEntity
  8
ガラス
  6
Continuous
100
AcDbVertex
100
AcDb2dVertex
 10
-16.625
 20
-33.175
 30
0.0
 70
     8
  0
VERTEX
  5
1E9
330
1C0
100
AcDbEntity
  8
ガラス
  6
Continuous
100
AcDbVertex
100
AcDb2dVertex
 10
-16.575
 20
-33.225
 30
0.0
 70
     8
  0
SEQEND
  5
1EA
330
1C0
100
AcDbEntity
  8
0
  0
POLYLINE
  5
1EB
330
1BF
100
AcDbEntity
  8
ガラス
  6
Continuous
100
AcDb2dPolyline
 66
     1
 10
0.0
 20
0.0
 30
0.0
 70
     4
  0
VERTEX
  5
1EC
330
1EB
100
AcDbEntity
  8
ガラス
  6
Continuous
100
AcDbVertex
100
AcDb2dVertex
 10
-16.575
 20
-33.225
 30
0.0
 70
     8
  0
VERTEX
  5
1ED
330
1EB
100
AcDbEntity
  8
ガラス
  6
Continuous
100
AcDbVertex
100
AcDb2dVertex
 10
-16.625
 20
-33.225
 30
0.0
 70
     8
  0
VERTEX
  5
1EE
330
1EB
100
AcDbEntity
  8
ガラス
  6
Continuous
100
AcDbVertex
100
AcDb2dVertex
 10
-16.675
 20
-33.225
 30
0.0
 70
     8
  0
VERTEX
  5
1EF
330
1EB
100
AcDbEntity
  8
ガラス
  6
Continuous
100
AcDbVertex
100
AcDb2dVertex
 10
-16.7
 20
-33.225
 30
0.0
 70
     8
  0
VERTEX
  5
1F0
330
1EB
100
AcDbEntity
  8
ガラス
  6
Continuous
100
AcDbVertex
100
AcDb2dVertex
 10
-16.75
 20
-33.225
 30
0.0
 70
     8
  0
VERTEX
  5
1F1
330
1EB
100
AcDbEntity
  8
ガラス
  6
Continuous
100
AcDbVertex
100
AcDb2dVertex
 10
-16.8
 20
-33.225
 30
0.0
 70
     8
  0
VERTEX
  5
1F2
330
1EB
100
AcDbEntity
  8
ガラス
  6
Continuous
100
AcDbVertex
100
AcDb2dVertex
 10
-16.85
 20
-33.225
 30
0.0
 70
     8
  0
VERTEX
  5
1F3
330
1EB
100
AcDbEntity
  8
ガラス
  6
Continuous
100
AcDbVertex
100
AcDb2dVertex
 10
-16.875
 20
-33.25
 30
0.0
 70
     8
  0
VERTEX
  5
1F4
330
1EB
100
AcDbEntity
  8
ガラス
  6
Continuous
100
AcDbVertex
100
AcDb2dVertex
 10
-16.925
 20
-33.25
 30
0.0
 70
     8
  0
VERTEX
  5
1F5
330
1EB
100
AcDbEntity
  8
ガラス
  6
Continuous
100
AcDbVertex
100
AcDb2dVertex
 10
-16.975
 20
-33.25
 30
0.0
 70
     8
  0
VERTEX
  5
1F6
330
1EB
100
AcDbEntity
  8
ガラス
  6
Continuous
100
AcDbVertex
100
AcDb2dVertex
 10
-17.0
 20
-33.25
 30
0.0
 70
     8
  0
VERTEX
  5
1F7
330
1EB
100
AcDbEntity
  8
ガラス
  6
Continuous
100
AcDbVertex
100
AcDb2dVertex
 10
-17.05
 20
-33.25
 30
0.0
 70
     8
  0
VERTEX
  5
1F8
330
1EB
100
AcDbEntity
  8
ガラス
  6
Continuous
100
AcDbVertex
100
AcDb2dVertex
 10
-17.1
 20
-33.275
 30
0.0
 70
     8
  0
VERTEX
  5
1F9
330
1EB
100
AcDbEntity
  8
ガラス
  6
Continuous
100
AcDbVertex
100
AcDb2dVertex
 10
-17.15
 20
-33.275
 30
0.0
 70
     8
  0
VERTEX
  5
1FA
330
1EB
100
AcDbEntity
  8
ガラス
  6
Continuous
100
AcDbVertex
100
AcDb2dVertex
 10
-17.175
 20
-33.275
 30
0.0
 70
     8
  0
VERTEX
  5
1FB
330
1EB
100
AcDbEntity
  8
ガラス
  6
Continuous
100
AcDbVertex
100
AcDb2dVertex
 10
-17.225
 20
-33.275
 30
0.0
 70
     8
  0
VERTEX
  5
1FC
330
1EB
100
AcDbEntity
  8
ガラス
  6
Continuous
100
AcDbVertex
100
AcDb2dVertex
 10
-17.275
 20
-33.3
 30
0.0
 70
     8
  0
VERTEX
  5
1FD
330
1EB
100
AcDbEntity
  8
ガラス
  6
Continuous
100
AcDbVertex
100
AcDb2dVertex
 10
-17.3
 20
-33.3
 30
0.0
 70
     8
  0
VERTEX
  5
1FE
330
1EB
100
AcDbEntity
  8
ガラス
  6
Continuous
100
AcDbVertex
100
AcDb2dVertex
 10
-17.35
 20
-33.3
 30
0.0
 70
     8
  0
VERTEX
  5
1FF
330
1EB
100
AcDbEntity
  8
ガラス
  6
Continuous
100
AcDbVertex
100
AcDb2dVertex
 10
-17.4
 20
-33.325
 30
0.0
 70
     8
  0
VERTEX
  5
200
330
1EB
100
AcDbEntity
  8
ガラス
  6
Continuous
100
AcDbVertex
100
AcDb2dVertex
 10
-17.425
 20
-33.325
 30
0.0
 70
     8
  0
VERTEX
  5
201
330
1EB
100
AcDbEntity
  8
ガラス
  6
Continuous
100
AcDbVertex
100
AcDb2dVertex
 10
-17.475
 20
-33.325
 30
0.0
 70
     8
  0
VERTEX
  5
202
330
1EB
100
AcDbEntity
  8
ガラス
  6
Continuous
100
AcDbVertex
100
AcDb2dVertex
 10
-17.525
 20
-33.35
 30
0.0
 70
     8
  0
VERTEX
  5
203
330
1EB
100
AcDbEntity
  8
ガラス
  6
Continuous
100
AcDbVertex
100
AcDb2dVertex
 10
-17.55
 20
-33.35
 30
0.0
 70
     8
  0
VERTEX
  5
204
330
1EB
100
AcDbEntity
  8
ガラス
  6
Continuous
100
AcDbVertex
100
AcDb2dVertex
 10
-17.6
 20
-33.375
 30
0.0
 70
     8
  0
VERTEX
  5
205
330
1EB
100
AcDbEntity
  8
ガラス
  6
Continuous
100
AcDbVertex
100
AcDb2dVertex
 10
-17.65
 20
-33.375
 30
0.0
 70
     8
  0
VERTEX
  5
206
330
1EB
100
AcDbEntity
  8
ガラス
  6
Continuous
100
AcDbVertex
100
AcDb2dVertex
 10
-17.675
 20
-33.4
 30
0.0
 70
     8
  0
VERTEX
  5
207
330
1EB
100
AcDbEntity
  8
ガラス
  6
Continuous
100
AcDbVertex
100
AcDb2dVertex
 10
-17.725
 20
-33.4
 30
0.0
 70
     8
  0
VERTEX
  5
208
330
1EB
100
AcDbEntity
  8
ガラス
  6
Continuous
100
AcDbVertex
100
AcDb2dVertex
 10
-17.775
 20
-33.425
 30
0.0
 70
     8
  0
VERTEX
  5
209
330
1EB
100
AcDbEntity
  8
ガラス
  6
Continuous
100
AcDbVertex
100
AcDb2dVertex
 10
-17.8
 20
-33.425
 30
0.0
 70
     8
  0
VERTEX
  5
20A
330
1EB
100
AcDbEntity
  8
ガラス
  6
Continuous
100
AcDbVertex
100
AcDb2dVertex
 10
-17.85
 20
-33.45
 30
0.0
 70
     8
  0
VERTEX
  5
20B
330
1EB
100
AcDbEntity
  8
ガラス
  6
Continuous
100
AcDbVertex
100
AcDb2dVertex
 10
-17.875
 20
-33.45
 30
0.0
 70
     8
  0
VERTEX
  5
20C
330
1EB
100
AcDbEntity
  8
ガラス
  6
Continuous
100
AcDbVertex
100
AcDb2dVertex
 10
-17.925
 20
-33.475
 30
0.0
 70
     8
  0
VERTEX
  5
20D
330
1EB
100
AcDbEntity
  8
ガラス
  6
Continuous
100
AcDbVertex
100
AcDb2dVertex
 10
-17.975
 20
-33.5
 30
0.0
 70
     8
  0
VERTEX
  5
20E
330
1EB
100
AcDbEntity
  8
ガラス
  6
Continuous
100
AcDbVertex
100
AcDb2dVertex
 10
-18.0
 20
-33.5
 30
0.0
 70
     8
  0
VERTEX
  5
20F
330
1EB
100
AcDbEntity
  8
ガラス
  6
Continuous
100
AcDbVertex
100
AcDb2dVertex
 10
-18.05
 20
-33.525
 30
0.0
 70
     8
  0
VERTEX
  5
210
330
1EB
100
AcDbEntity
  8
ガラス
  6
Continuous
100
AcDbVertex
100
AcDb2dVertex
 10
-18.075
 20
-33.55
 30
0.0
 70
     8
  0
VERTEX
  5
211
330
1EB
100
AcDbEntity
  8
ガラス
  6
Continuous
100
AcDbVertex
100
AcDb2dVertex
 10
-18.125
 20
-33.55
 30
0.0
 70
     8
  0
VERTEX
  5
212
330
1EB
100
AcDbEntity
  8
ガラス
  6
Continuous
100
AcDbVertex
100
AcDb2dVertex
 10
-18.175
 20
-33.575
 30
0.0
 70
     8
  0
VERTEX
  5
213
330
1EB
100
AcDbEntity
  8
ガラス
  6
Continuous
100
AcDbVertex
100
AcDb2dVertex
 10
-18.2
 20
-33.575
 30
0.0
 70
     8
  0
VERTEX
  5
214
330
1EB
100
AcDbEntity
  8
ガラス
  6
Continuous
100
AcDbVertex
100
AcDb2dVertex
 10
-18.25
 20
-33.6
 30
0.0
 70
     8
  0
SEQEND
  5
215
330
1EB
100
AcDbEntity
  8
0
  0
ARC
  5
216
330
1BF
100
AcDbEntity
  8
ガラス
  6
Continuous
100
AcDbCircle
 10
-18.476107
 20
-32.965483
 30
0.0
 40
0.668594
100
AcDbArc
 50
111.203091
 51
291.203091
  0
ENDBLK
  5
217
330
1BF
100
AcDbEntity
  8
0
100
AcDbBlockEnd
  0
BLOCK
  5
218
330
219
100
AcDbEntity
  8
0
100
AcDbBlockBegin
  2
*U8
 70
     1
 71
     0
 10
0.0
 20
0.0
 30
0.0
  3
*U8
  1

  0
POLYLINE
  5
21A
330
219
100
AcDbEntity
  8
ガラス
  6
Continuous
100
AcDb2dPolyline
 66
     1
 10
0.0
 20
0.0
 30
0.0
 70
     4
  0
VERTEX
  5
21B
330
21A
100
AcDbEntity
  8
ガラス
  6
Continuous
100
AcDbVertex
100
AcDb2dVertex
 10
-31.55
 20
-32.35
 30
0.0
 70
     8
  0
VERTEX
  5
21C
330
21A
100
AcDbEntity
  8
ガラス
  6
Continuous
100
AcDbVertex
100
AcDb2dVertex
 10
-31.475
 20
-32.35
 30
0.0
 70
     8
  0
VERTEX
  5
21D
330
21A
100
AcDbEntity
  8
ガラス
  6
Continuous
100
AcDbVertex
100
AcDb2dVertex
 10
-31.425
 20
-32.35
 30
0.0
 70
     8
  0
VERTEX
  5
21E
330
21A
100
AcDbEntity
  8
ガラス
  6
Continuous
100
AcDbVertex
100
AcDb2dVertex
 10
-31.35
 20
-32.325
 30
0.0
 70
     8
  0
VERTEX
  5
21F
330
21A
100
AcDbEntity
  8
ガラス
  6
Continuous
100
AcDbVertex
100
AcDb2dVertex
 10
-31.3
 20
-32.325
 30
0.0
 70
     8
  0
VERTEX
  5
220
330
21A
100
AcDbEntity
  8
ガラス
  6
Continuous
100
AcDbVertex
100
AcDb2dVertex
 10
-31.225
 20
-32.325
 30
0.0
 70
     8
  0
VERTEX
  5
221
330
21A
100
AcDbEntity
  8
ガラス
  6
Continuous
100
AcDbVertex
100
AcDb2dVertex
 10
-31.15
 20
-32.325
 30
0.0
 70
     8
  0
VERTEX
  5
222
330
21A
100
AcDbEntity
  8
ガラス
  6
Continuous
100
AcDbVertex
100
AcDb2dVertex
 10
-31.1
 20
-32.325
 30
0.0
 70
     8
  0
VERTEX
  5
223
330
21A
100
AcDbEntity
  8
ガラス
  6
Continuous
100
AcDbVertex
100
AcDb2dVertex
 10
-31.025
 20
-32.325
 30
0.0
 70
     8
  0
VERTEX
  5
224
330
21A
100
AcDbEntity
  8
ガラス
  6
Continuous
100
AcDbVertex
100
AcDb2dVertex
 10
-30.975
 20
-32.325
 30
0.0
 70
     8
  0
VERTEX
  5
225
330
21A
100
AcDbEntity
  8
ガラス
  6
Continuous
100
AcDbVertex
100
AcDb2dVertex
 10
-30.9
 20
-32.325
 30
0.0
 70
     8
  0
VERTEX
  5
226
330
21A
100
AcDbEntity
  8
ガラス
  6
Continuous
100
AcDbVertex
100
AcDb2dVertex
 10
-30.85
 20
-32.325
 30
0.0
 70
     8
  0
VERTEX
  5
227
330
21A
100
AcDbEntity
  8
ガラス
  6
Continuous
100
AcDbVertex
100
AcDb2dVertex
 10
-30.775
 20
-32.325
 30
0.0
 70
     8
  0
VERTEX
  5
228
330
21A
100
AcDbEntity
  8
ガラス
  6
Continuous
100
AcDbVertex
100
AcDb2dVertex
 10
-30.725
 20
-32.325
 30
0.0
 70
     8
  0
VERTEX
  5
229
330
21A
100
AcDbEntity
  8
ガラス
  6
Continuous
100
AcDbVertex
100
AcDb2dVertex
 10
-30.65
 20
-32.325
 30
0.0
 70
     8
  0
VERTEX
  5
22A
330
21A
100
AcDbEntity
  8
ガラス
  6
Continuous
100
AcDbVertex
100
AcDb2dVertex
 10
-30.6
 20
-32.325
 30
0.0
 70
     8
  0
VERTEX
  5
22B
330
21A
100
AcDbEntity
  8
ガラス
  6
Continuous
100
AcDbVertex
100
AcDb2dVertex
 10
-30.55
 20
-32.35
 30
0.0
 70
     8
  0
VERTEX
  5
22C
330
21A
100
AcDbEntity
  8
ガラス
  6
Continuous
100
AcDbVertex
100
AcDb2dVertex
 10
-30.475
 20
-32.35
 30
0.0
 70
     8
  0
VERTEX
  5
22D
330
21A
100
AcDbEntity
  8
ガラス
  6
Continuous
100
AcDbVertex
100
AcDb2dVertex
 10
-30.425
 20
-32.375
 30
0.0
 70
     8
  0
VERTEX
  5
22E
330
21A
100
AcDbEntity
  8
ガラス
  6
Continuous
100
AcDbVertex
100
AcDb2dVertex
 10
-30.375
 20
-32.4
 30
0.0
 70
     8
  0
VERTEX
  5
22F
330
21A
100
AcDbEntity
  8
ガラス
  6
Continuous
100
AcDbVertex
100
AcDb2dVertex
 10
-30.325
 20
-32.4
 30
0.0
 70
     8
  0
VERTEX
  5
230
330
21A
100
AcDbEntity
  8
ガラス
  6
Continuous
100
AcDbVertex
100
AcDb2dVertex
 10
-30.275
 20
-32.425
 30
0.0
 70
     8
  0
VERTEX
  5
231
330
21A
100
AcDbEntity
  8
ガラス
  6
Continuous
100
AcDbVertex
100
AcDb2dVertex
 10
-30.225
 20
-32.45
 30
0.0
 70
     8
  0
VERTEX
  5
232
330
21A
100
AcDbEntity
  8
ガラス
  6
Continuous
100
AcDbVertex
100
AcDb2dVertex
 10
-30.15
 20
-32.475
 30
0.0
 70
     8
  0
VERTEX
  5
233
330
21A
100
AcDbEntity
  8
ガラス
  6
Continuous
100
AcDbVertex
100
AcDb2dVertex
 10
-30.1
 20
-32.525
 30
0.0
 70
     8
  0
VERTEX
  5
234
330
21A
100
AcDbEntity
  8
ガラス
  6
Continuous
100
AcDbVertex
100
AcDb2dVertex
 10
-30.075
 20
-32.55
 30
0.0
 70
     8
  0
VERTEX
  5
235
330
21A
100
AcDbEntity
  8
ガラス
  6
Continuous
100
AcDbVertex
100
AcDb2dVertex
 10
-30.025
 20
-32.575
 30
0.0
 70
     8
  0
VERTEX
  5
236
330
21A
100
AcDbEntity
  8
ガラス
  6
Continuous
100
AcDbVertex
100
AcDb2dVertex
 10
-29.975
 20
-32.625
 30
0.0
 70
     8
  0
VERTEX
  5
237
330
21A
100
AcDbEntity
  8
ガラス
  6
Continuous
100
AcDbVertex
100
AcDb2dVertex
 10
-29.925
 20
-32.65
 30
0.0
 70
     8
  0
VERTEX
  5
238
330
21A
100
AcDbEntity
  8
ガラス
  6
Continuous
100
AcDbVertex
100
AcDb2dVertex
 10
-29.875
 20
-32.7
 30
0.0
 70
     8
  0
VERTEX
  5
239
330
21A
100
AcDbEntity
  8
ガラス
  6
Continuous
100
AcDbVertex
100
AcDb2dVertex
 10
-29.825
 20
-32.75
 30
0.0
 70
     8
  0
VERTEX
  5
23A
330
21A
100
AcDbEntity
  8
ガラス
  6
Continuous
100
AcDbVertex
100
AcDb2dVertex
 10
-29.775
 20
-32.775
 30
0.0
 70
     8
  0
VERTEX
  5
23B
330
21A
100
AcDbEntity
  8
ガラス
  6
Continuous
100
AcDbVertex
100
AcDb2dVertex
 10
-29.75
 20
-32.825
 30
0.0
 70
     8
  0
VERTEX
  5
23C
330
21A
100
AcDbEntity
  8
ガラス
  6
Continuous
100
AcDbVertex
100
AcDb2dVertex
 10
-29.7
 20
-32.875
 30
0.0
 70
     8
  0
VERTEX
  5
23D
330
21A
100
AcDbEntity
  8
ガラス
  6
Continuous
100
AcDbVertex
100
AcDb2dVertex
 10
-29.65
 20
-32.925
 30
0.0
 70
     8
  0
VERTEX
  5
23E
330
21A
100
AcDbEntity
  8
ガラス
  6
Continuous
100
AcDbVertex
100
AcDb2dVertex
 10
-29.6
 20
-32.975
 30
0.0
 70
     8
  0
VERTEX
  5
23F
330
21A
100
AcDbEntity
  8
ガラス
  6
Continuous
100
AcDbVertex
100
AcDb2dVertex
 10
-29.575
 20
-33.025
 30
0.0
 70
     8
  0
VERTEX
  5
240
330
21A
100
AcDbEntity
  8
ガラス
  6
Continuous
100
AcDbVertex
100
AcDb2dVertex
 10
-29.525
 20
-33.075
 30
0.0
 70
     8
  0
VERTEX
  5
241
330
21A
100
AcDbEntity
  8
ガラス
  6
Continuous
100
AcDbVertex
100
AcDb2dVertex
 10
-29.475
 20
-33.125
 30
0.0
 70
     8
  0
VERTEX
  5
242
330
21A
100
AcDbEntity
  8
ガラス
  6
Continuous
100
AcDbVertex
100
AcDb2dVertex
 10
-29.45
 20
-33.175
 30
0.0
 70
     8
  0
VERTEX
  5
243
330
21A
100
AcDbEntity
  8
ガラス
  6
Continuous
100
AcDbVertex
100
AcDb2dVertex
 10
-29.4
 20
-33.225
 30
0.0
 70
     8
  0
SEQEND
  5
244
330
21A
100
AcDbEntity
  8
0
  0
POLYLINE
  5
245
330
219
100
AcDbEntity
  8
ガラス
  6
Continuous
100
AcDb2dPolyline
 66
     1
 10
0.0
 20
0.0
 30
0.0
 70
     4
  0
VERTEX
  5
246
330
245
100
AcDbEntity
  8
ガラス
  6
Continuous
100
AcDbVertex
100
AcDb2dVertex
 10
-29.4
 20
-33.225
 30
0.0
 70
     8
  0
VERTEX
  5
247
330
245
100
AcDbEntity
  8
ガラス
  6
Continuous
100
AcDbVertex
100
AcDb2dVertex
 10
-29.45
 20
-33.225
 30
0.0
 70
     8
  0
VERTEX
  5
248
330
245
100
AcDbEntity
  8
ガラス
  6
Continuous
100
AcDbVertex
100
AcDb2dVertex
 10
-29.475
 20
-33.225
 30
0.0
 70
     8
  0
VERTEX
  5
249
330
245
100
AcDbEntity
  8
ガラス
  6
Continuous
100
AcDbVertex
100
AcDb2dVertex
 10
-29.525
 20
-33.225
 30
0.0
 70
     8
  0
VERTEX
  5
24A
330
245
100
AcDbEntity
  8
ガラス
  6
Continuous
100
AcDbVertex
100
AcDb2dVertex
 10
-29.575
 20
-33.225
 30
0.0
 70
     8
  0
VERTEX
  5
24B
330
245
100
AcDbEntity
  8
ガラス
  6
Continuous
100
AcDbVertex
100
AcDb2dVertex
 10
-29.625
 20
-33.225
 30
0.0
 70
     8
  0
VERTEX
  5
24C
330
245
100
AcDbEntity
  8
ガラス
  6
Continuous
100
AcDbVertex
100
AcDb2dVertex
 10
-29.65
 20
-33.225
 30
0.0
 70
     8
  0
VERTEX
  5
24D
330
245
100
AcDbEntity
  8
ガラス
  6
Continuous
100
AcDbVertex
100
AcDb2dVertex
 10
-29.7
 20
-33.25
 30
0.0
 70
     8
  0
VERTEX
  5
24E
330
245
100
AcDbEntity
  8
ガラス
  6
Continuous
100
AcDbVertex
100
AcDb2dVertex
 10
-29.75
 20
-33.25
 30
0.0
 70
     8
  0
VERTEX
  5
24F
330
245
100
AcDbEntity
  8
ガラス
  6
Continuous
100
AcDbVertex
100
AcDb2dVertex
 10
-29.775
 20
-33.25
 30
0.0
 70
     8
  0
VERTEX
  5
250
330
245
100
AcDbEntity
  8
ガラス
  6
Continuous
100
AcDbVertex
100
AcDb2dVertex
 10
-29.825
 20
-33.25
 30
0.0
 70
     8
  0
VERTEX
  5
251
330
245
100
AcDbEntity
  8
ガラス
  6
Continuous
100
AcDbVertex
100
AcDb2dVertex
 10
-29.875
 20
-33.25
 30
0.0
 70
     8
  0
VERTEX
  5
252
330
245
100
AcDbEntity
  8
ガラス
  6
Continuous
100
AcDbVertex
100
AcDb2dVertex
 10
-29.925
 20
-33.275
 30
0.0
 70
     8
  0
VERTEX
  5
253
330
245
100
AcDbEntity
  8
ガラス
  6
Continuous
100
AcDbVertex
100
AcDb2dVertex
 10
-29.95
 20
-33.275
 30
0.0
 70
     8
  0
VERTEX
  5
254
330
245
100
AcDbEntity
  8
ガラス
  6
Continuous
100
AcDbVertex
100
AcDb2dVertex
 10
-30.0
 20
-33.275
 30
0.0
 70
     8
  0
VERTEX
  5
255
330
245
100
AcDbEntity
  8
ガラス
  6
Continuous
100
AcDbVertex
100
AcDb2dVertex
 10
-30.05
 20
-33.275
 30
0.0
 70
     8
  0
VERTEX
  5
256
330
245
100
AcDbEntity
  8
ガラス
  6
Continuous
100
AcDbVertex
100
AcDb2dVertex
 10
-30.075
 20
-33.3
 30
0.0
 70
     8
  0
VERTEX
  5
257
330
245
100
AcDbEntity
  8
ガラス
  6
Continuous
100
AcDbVertex
100
AcDb2dVertex
 10
-30.125
 20
-33.3
 30
0.0
 70
     8
  0
VERTEX
  5
258
330
245
100
AcDbEntity
  8
ガラス
  6
Continuous
100
AcDbVertex
100
AcDb2dVertex
 10
-30.175
 20
-33.3
 30
0.0
 70
     8
  0
VERTEX
  5
259
330
245
100
AcDbEntity
  8
ガラス
  6
Continuous
100
AcDbVertex
100
AcDb2dVertex
 10
-30.2
 20
-33.325
 30
0.0
 70
     8
  0
VERTEX
  5
25A
330
245
100
AcDbEntity
  8
ガラス
  6
Continuous
100
AcDbVertex
100
AcDb2dVertex
 10
-30.25
 20
-33.325
 30
0.0
 70
     8
  0
VERTEX
  5
25B
330
245
100
AcDbEntity
  8
ガラス
  6
Continuous
100
AcDbVertex
100
AcDb2dVertex
 10
-30.3
 20
-33.325
 30
0.0
 70
     8
  0
VERTEX
  5
25C
330
245
100
AcDbEntity
  8
ガラス
  6
Continuous
100
AcDbVertex
100
AcDb2dVertex
 10
-30.325
 20
-33.35
 30
0.0
 70
     8
  0
VERTEX
  5
25D
330
245
100
AcDbEntity
  8
ガラス
  6
Continuous
100
AcDbVertex
100
AcDb2dVertex
 10
-30.375
 20
-33.35
 30
0.0
 70
     8
  0
VERTEX
  5
25E
330
245
100
AcDbEntity
  8
ガラス
  6
Continuous
100
AcDbVertex
100
AcDb2dVertex
 10
-30.425
 20
-33.375
 30
0.0
 70
     8
  0
VERTEX
  5
25F
330
245
100
AcDbEntity
  8
ガラス
  6
Continuous
100
AcDbVertex
100
AcDb2dVertex
 10
-30.45
 20
-33.375
 30
0.0
 70
     8
  0
VERTEX
  5
260
330
245
100
AcDbEntity
  8
ガラス
  6
Continuous
100
AcDbVertex
100
AcDb2dVertex
 10
-30.5
 20
-33.4
 30
0.0
 70
     8
  0
VERTEX
  5
261
330
245
100
AcDbEntity
  8
ガラス
  6
Continuous
100
AcDbVertex
100
AcDb2dVertex
 10
-30.55
 20
-33.4
 30
0.0
 70
     8
  0
VERTEX
  5
262
330
245
100
AcDbEntity
  8
ガラス
  6
Continuous
100
AcDbVertex
100
AcDb2dVertex
 10
-30.575
 20
-33.425
 30
0.0
 70
     8
  0
VERTEX
  5
263
330
245
100
AcDbEntity
  8
ガラス
  6
Continuous
100
AcDbVertex
100
AcDb2dVertex
 10
-30.625
 20
-33.425
 30
0.0
 70
     8
  0
VERTEX
  5
264
330
245
100
AcDbEntity
  8
ガラス
  6
Continuous
100
AcDbVertex
100
AcDb2dVertex
 10
-30.65
 20
-33.45
 30
0.0
 70
     8
  0
VERTEX
  5
265
330
245
100
AcDbEntity
  8
ガラス
  6
Continuous
100
AcDbVertex
100
AcDb2dVertex
 10
-30.7
 20
-33.45
 30
0.0
 70
     8
  0
VERTEX
  5
266
330
245
100
AcDbEntity
  8
ガラス
  6
Continuous
100
AcDbVertex
100
AcDb2dVertex
 10
-30.75
 20
-33.475
 30
0.0
 70
     8
  0
VERTEX
  5
267
330
245
100
AcDbEntity
  8
ガラス
  6
Continuous
100
AcDbVertex
100
AcDb2dVertex
 10
-30.775
 20
-33.5
 30
0.0
 70
     8
  0
VERTEX
  5
268
330
245
100
AcDbEntity
  8
ガラス
  6
Continuous
100
AcDbVertex
100
AcDb2dVertex
 10
-30.825
 20
-33.5
 30
0.0
 70
     8
  0
VERTEX
  5
269
330
245
100
AcDbEntity
  8
ガラス
  6
Continuous
100
AcDbVertex
100
AcDb2dVertex
 10
-30.875
 20
-33.525
 30
0.0
 70
     8
  0
VERTEX
  5
26A
330
245
100
AcDbEntity
  8
ガラス
  6
Continuous
100
AcDbVertex
100
AcDb2dVertex
 10
-30.9
 20
-33.55
 30
0.0
 70
     8
  0
VERTEX
  5
26B
330
245
100
AcDbEntity
  8
ガラス
  6
Continuous
100
AcDbVertex
100
AcDb2dVertex
 10
-30.95
 20
-33.55
 30
0.0
 70
     8
  0
VERTEX
  5
26C
330
245
100
AcDbEntity
  8
ガラス
  6
Continuous
100
AcDbVertex
100
AcDb2dVertex
 10
-30.975
 20
-33.575
 30
0.0
 70
     8
  0
VERTEX
  5
26D
330
245
100
AcDbEntity
  8
ガラス
  6
Continuous
100
AcDbVertex
100
AcDb2dVertex
 10
-31.025
 20
-33.575
 30
0.0
 70
     8
  0
VERTEX
  5
26E
330
245
100
AcDbEntity
  8
ガラス
  6
Continuous
100
AcDbVertex
100
AcDb2dVertex
 10
-31.075
 20
-33.6
 30
0.0
 70
     8
  0
SEQEND
  5
26F
330
245
100
AcDbEntity
  8
0
  0
ARC
  5
270
330
219
100
AcDbEntity
  8
ガラス
  6
Continuous
100
AcDbCircle
 10
-31.294162
 20
-32.965483
 30
0.0
 40
0.668594
100
AcDbArc
 50
111.203091
 51
291.203091
  0
ENDBLK
  5
271
330
219
100
AcDbEntity
  8
0
100
AcDbBlockEnd
  0
BLOCK
  5
272
330
273
100
AcDbEntity
  8
0
100
AcDbBlockBegin
  2
*U9
 70
     1
 71
     0
 10
0.0
 20
0.0
 30
0.0
  3
*U9
  1

  0
POLYLINE
  5
274
330
273
100
AcDbEntity
  8
ガラス
  6
Continuous
100
AcDb2dPolyline
 66
     1
 10
0.0
 20
0.0
 30
0.0
 70
     4
  0
VERTEX
  5
275
330
274
100
AcDbEntity
  8
ガラス
  6
Continuous
100
AcDbVertex
100
AcDb2dVertex
 10
-47.075
 20
-32.35
 30
0.0
 70
     8
  0
VERTEX
  5
276
330
274
100
AcDbEntity
  8
ガラス
  6
Continuous
100
AcDbVertex
100
AcDb2dVertex
 10
-47.0
 20
-32.35
 30
0.0
 70
     8
  0
VERTEX
  5
277
330
274
100
AcDbEntity
  8
ガラス
  6
Continuous
100
AcDbVertex
100
AcDb2dVertex
 10
-46.95
 20
-32.35
 30
0.0
 70
     8
  0
VERTEX
  5
278
330
274
100
AcDbEntity
  8
ガラス
  6
Continuous
100
AcDbVertex
100
AcDb2dVertex
 10
-46.875
 20
-32.325
 30
0.0
 70
     8
  0
VERTEX
  5
279
330
274
100
AcDbEntity
  8
ガラス
  6
Continuous
100
AcDbVertex
100
AcDb2dVertex
 10
-46.825
 20
-32.325
 30
0.0
 70
     8
  0
VERTEX
  5
27A
330
274
100
AcDbEntity
  8
ガラス
  6
Continuous
100
AcDbVertex
100
AcDb2dVertex
 10
-46.75
 20
-32.325
 30
0.0
 70
     8
  0
VERTEX
  5
27B
330
274
100
AcDbEntity
  8
ガラス
  6
Continuous
100
AcDbVertex
100
AcDb2dVertex
 10
-46.675
 20
-32.325
 30
0.0
 70
     8
  0
VERTEX
  5
27C
330
274
100
AcDbEntity
  8
ガラス
  6
Continuous
100
AcDbVertex
100
AcDb2dVertex
 10
-46.625
 20
-32.325
 30
0.0
 70
     8
  0
VERTEX
  5
27D
330
274
100
AcDbEntity
  8
ガラス
  6
Continuous
100
AcDbVertex
100
AcDb2dVertex
 10
-46.55
 20
-32.325
 30
0.0
 70
     8
  0
VERTEX
  5
27E
330
274
100
AcDbEntity
  8
ガラス
  6
Continuous
100
AcDbVertex
100
AcDb2dVertex
 10
-46.5
 20
-32.325
 30
0.0
 70
     8
  0
VERTEX
  5
27F
330
274
100
AcDbEntity
  8
ガラス
  6
Continuous
100
AcDbVertex
100
AcDb2dVertex
 10
-46.425
 20
-32.325
 30
0.0
 70
     8
  0
VERTEX
  5
280
330
274
100
AcDbEntity
  8
ガラス
  6
Continuous
100
AcDbVertex
100
AcDb2dVertex
 10
-46.375
 20
-32.325
 30
0.0
 70
     8
  0
VERTEX
  5
281
330
274
100
AcDbEntity
  8
ガラス
  6
Continuous
100
AcDbVertex
100
AcDb2dVertex
 10
-46.3
 20
-32.325
 30
0.0
 70
     8
  0
VERTEX
  5
282
330
274
100
AcDbEntity
  8
ガラス
  6
Continuous
100
AcDbVertex
100
AcDb2dVertex
 10
-46.25
 20
-32.325
 30
0.0
 70
     8
  0
VERTEX
  5
283
330
274
100
AcDbEntity
  8
ガラス
  6
Continuous
100
AcDbVertex
100
AcDb2dVertex
 10
-46.2
 20
-32.325
 30
0.0
 70
     8
  0
VERTEX
  5
284
330
274
100
AcDbEntity
  8
ガラス
  6
Continuous
100
AcDbVertex
100
AcDb2dVertex
 10
-46.125
 20
-32.325
 30
0.0
 70
     8
  0
VERTEX
  5
285
330
274
100
AcDbEntity
  8
ガラス
  6
Continuous
100
AcDbVertex
100
AcDb2dVertex
 10
-46.075
 20
-32.35
 30
0.0
 70
     8
  0
VERTEX
  5
286
330
274
100
AcDbEntity
  8
ガラス
  6
Continuous
100
AcDbVertex
100
AcDb2dVertex
 10
-46.025
 20
-32.35
 30
0.0
 70
     8
  0
VERTEX
  5
287
330
274
100
AcDbEntity
  8
ガラス
  6
Continuous
100
AcDbVertex
100
AcDb2dVertex
 10
-45.95
 20
-32.375
 30
0.0
 70
     8
  0
VERTEX
  5
288
330
274
100
AcDbEntity
  8
ガラス
  6
Continuous
100
AcDbVertex
100
AcDb2dVertex
 10
-45.9
 20
-32.4
 30
0.0
 70
     8
  0
VERTEX
  5
289
330
274
100
AcDbEntity
  8
ガラス
  6
Continuous
100
AcDbVertex
100
AcDb2dVertex
 10
-45.85
 20
-32.4
 30
0.0
 70
     8
  0
VERTEX
  5
28A
330
274
100
AcDbEntity
  8
ガラス
  6
Continuous
100
AcDbVertex
100
AcDb2dVertex
 10
-45.8
 20
-32.425
 30
0.0
 70
     8
  0
VERTEX
  5
28B
330
274
100
AcDbEntity
  8
ガラス
  6
Continuous
100
AcDbVertex
100
AcDb2dVertex
 10
-45.75
 20
-32.45
 30
0.0
 70
     8
  0
VERTEX
  5
28C
330
274
100
AcDbEntity
  8
ガラス
  6
Continuous
100
AcDbVertex
100
AcDb2dVertex
 10
-45.7
 20
-32.475
 30
0.0
 70
     8
  0
VERTEX
  5
28D
330
274
100
AcDbEntity
  8
ガラス
  6
Continuous
100
AcDbVertex
100
AcDb2dVertex
 10
-45.65
 20
-32.525
 30
0.0
 70
     8
  0
VERTEX
  5
28E
330
274
100
AcDbEntity
  8
ガラス
  6
Continuous
100
AcDbVertex
100
AcDb2dVertex
 10
-45.6
 20
-32.55
 30
0.0
 70
     8
  0
VERTEX
  5
28F
330
274
100
AcDbEntity
  8
ガラス
  6
Continuous
100
AcDbVertex
100
AcDb2dVertex
 10
-45.55
 20
-32.575
 30
0.0
 70
     8
  0
VERTEX
  5
290
330
274
100
AcDbEntity
  8
ガラス
  6
Continuous
100
AcDbVertex
100
AcDb2dVertex
 10
-45.5
 20
-32.625
 30
0.0
 70
     8
  0
VERTEX
  5
291
330
274
100
AcDbEntity
  8
ガラス
  6
Continuous
100
AcDbVertex
100
AcDb2dVertex
 10
-45.45
 20
-32.65
 30
0.0
 70
     8
  0
VERTEX
  5
292
330
274
100
AcDbEntity
  8
ガラス
  6
Continuous
100
AcDbVertex
100
AcDb2dVertex
 10
-45.4
 20
-32.7
 30
0.0
 70
     8
  0
VERTEX
  5
293
330
274
100
AcDbEntity
  8
ガラス
  6
Continuous
100
AcDbVertex
100
AcDb2dVertex
 10
-45.35
 20
-32.75
 30
0.0
 70
     8
  0
VERTEX
  5
294
330
274
100
AcDbEntity
  8
ガラス
  6
Continuous
100
AcDbVertex
100
AcDb2dVertex
 10
-45.325
 20
-32.775
 30
0.0
 70
     8
  0
VERTEX
  5
295
330
274
100
AcDbEntity
  8
ガラス
  6
Continuous
100
AcDbVertex
100
AcDb2dVertex
 10
-45.275
 20
-32.825
 30
0.0
 70
     8
  0
VERTEX
  5
296
330
274
100
AcDbEntity
  8
ガラス
  6
Continuous
100
AcDbVertex
100
AcDb2dVertex
 10
-45.225
 20
-32.875
 30
0.0
 70
     8
  0
VERTEX
  5
297
330
274
100
AcDbEntity
  8
ガラス
  6
Continuous
100
AcDbVertex
100
AcDb2dVertex
 10
-45.175
 20
-32.925
 30
0.0
 70
     8
  0
VERTEX
  5
298
330
274
100
AcDbEntity
  8
ガラス
  6
Continuous
100
AcDbVertex
100
AcDb2dVertex
 10
-45.15
 20
-32.975
 30
0.0
 70
     8
  0
VERTEX
  5
299
330
274
100
AcDbEntity
  8
ガラス
  6
Continuous
100
AcDbVertex
100
AcDb2dVertex
 10
-45.1
 20
-33.025
 30
0.0
 70
     8
  0
VERTEX
  5
29A
330
274
100
AcDbEntity
  8
ガラス
  6
Continuous
100
AcDbVertex
100
AcDb2dVertex
 10
-45.05
 20
-33.075
 30
0.0
 70
     8
  0
VERTEX
  5
29B
330
274
100
AcDbEntity
  8
ガラス
  6
Continuous
100
AcDbVertex
100
AcDb2dVertex
 10
-45.025
 20
-33.125
 30
0.0
 70
     8
  0
VERTEX
  5
29C
330
274
100
AcDbEntity
  8
ガラス
  6
Continuous
100
AcDbVertex
100
AcDb2dVertex
 10
-44.975
 20
-33.175
 30
0.0
 70
     8
  0
VERTEX
  5
29D
330
274
100
AcDbEntity
  8
ガラス
  6
Continuous
100
AcDbVertex
100
AcDb2dVertex
 10
-44.925
 20
-33.225
 30
0.0
 70
     8
  0
SEQEND
  5
29E
330
274
100
AcDbEntity
  8
0
  0
POLYLINE
  5
29F
330
273
100
AcDbEntity
  8
ガラス
  6
Continuous
100
AcDb2dPolyline
 66
     1
 10
0.0
 20
0.0
 30
0.0
 70
     4
  0
VERTEX
  5
2A0
330
29F
100
AcDbEntity
  8
ガラス
  6
Continuous
100
AcDbVertex
100
AcDb2dVertex
 10
-44.925
 20
-33.225
 30
0.0
 70
     8
  0
VERTEX
  5
2A1
330
29F
100
AcDbEntity
  8
ガラス
  6
Continuous
100
AcDbVertex
100
AcDb2dVertex
 10
-44.975
 20
-33.225
 30
0.0
 70
     8
  0
VERTEX
  5
2A2
330
29F
100
AcDbEntity
  8
ガラス
  6
Continuous
100
AcDbVertex
100
AcDb2dVertex
 10
-45.025
 20
-33.225
 30
0.0
 70
     8
  0
VERTEX
  5
2A3
330
29F
100
AcDbEntity
  8
ガラス
  6
Continuous
100
AcDbVertex
100
AcDb2dVertex
 10
-45.05
 20
-33.225
 30
0.0
 70
     8
  0
VERTEX
  5
2A4
330
29F
100
AcDbEntity
  8
ガラス
  6
Continuous
100
AcDbVertex
100
AcDb2dVertex
 10
-45.1
 20
-33.225
 30
0.0
 70
     8
  0
VERTEX
  5
2A5
330
29F
100
AcDbEntity
  8
ガラス
  6
Continuous
100
AcDbVertex
100
AcDb2dVertex
 10
-45.15
 20
-33.225
 30
0.0
 70
     8
  0
VERTEX
  5
2A6
330
29F
100
AcDbEntity
  8
ガラス
  6
Continuous
100
AcDbVertex
100
AcDb2dVertex
 10
-45.175
 20
-33.225
 30
0.0
 70
     8
  0
VERTEX
  5
2A7
330
29F
100
AcDbEntity
  8
ガラス
  6
Continuous
100
AcDbVertex
100
AcDb2dVertex
 10
-45.225
 20
-33.25
 30
0.0
 70
     8
  0
VERTEX
  5
2A8
330
29F
100
AcDbEntity
  8
ガラス
  6
Continuous
100
AcDbVertex
100
AcDb2dVertex
 10
-45.275
 20
-33.25
 30
0.0
 70
     8
  0
VERTEX
  5
2A9
330
29F
100
AcDbEntity
  8
ガラス
  6
Continuous
100
AcDbVertex
100
AcDb2dVertex
 10
-45.325
 20
-33.25
 30
0.0
 70
     8
  0
VERTEX
  5
2AA
330
29F
100
AcDbEntity
  8
ガラス
  6
Continuous
100
AcDbVertex
100
AcDb2dVertex
 10
-45.35
 20
-33.25
 30
0.0
 70
     8
  0
VERTEX
  5
2AB
330
29F
100
AcDbEntity
  8
ガラス
  6
Continuous
100
AcDbVertex
100
AcDb2dVertex
 10
-45.4
 20
-33.25
 30
0.0
 70
     8
  0
VERTEX
  5
2AC
330
29F
100
AcDbEntity
  8
ガラス
  6
Continuous
100
AcDbVertex
100
AcDb2dVertex
 10
-45.45
 20
-33.275
 30
0.0
 70
     8
  0
VERTEX
  5
2AD
330
29F
100
AcDbEntity
  8
ガラス
  6
Continuous
100
AcDbVertex
100
AcDb2dVertex
 10
-45.475
 20
-33.275
 30
0.0
 70
     8
  0
VERTEX
  5
2AE
330
29F
100
AcDbEntity
  8
ガラス
  6
Continuous
100
AcDbVertex
100
AcDb2dVertex
 10
-45.525
 20
-33.275
 30
0.0
 70
     8
  0
VERTEX
  5
2AF
330
29F
100
AcDbEntity
  8
ガラス
  6
Continuous
100
AcDbVertex
100
AcDb2dVertex
 10
-45.575
 20
-33.275
 30
0.0
 70
     8
  0
VERTEX
  5
2B0
330
29F
100
AcDbEntity
  8
ガラス
  6
Continuous
100
AcDbVertex
100
AcDb2dVertex
 10
-45.6
 20
-33.3
 30
0.0
 70
     8
  0
VERTEX
  5
2B1
330
29F
100
AcDbEntity
  8
ガラス
  6
Continuous
100
AcDbVertex
100
AcDb2dVertex
 10
-45.65
 20
-33.3
 30
0.0
 70
     8
  0
VERTEX
  5
2B2
330
29F
100
AcDbEntity
  8
ガラス
  6
Continuous
100
AcDbVertex
100
AcDb2dVertex
 10
-45.7
 20
-33.3
 30
0.0
 70
     8
  0
VERTEX
  5
2B3
330
29F
100
AcDbEntity
  8
ガラス
  6
Continuous
100
AcDbVertex
100
AcDb2dVertex
 10
-45.75
 20
-33.325
 30
0.0
 70
     8
  0
VERTEX
  5
2B4
330
29F
100
AcDbEntity
  8
ガラス
  6
Continuous
100
AcDbVertex
100
AcDb2dVertex
 10
-45.775
 20
-33.325
 30
0.0
 70
     8
  0
VERTEX
  5
2B5
330
29F
100
AcDbEntity
  8
ガラス
  6
Continuous
100
AcDbVertex
100
AcDb2dVertex
 10
-45.825
 20
-33.325
 30
0.0
 70
     8
  0
VERTEX
  5
2B6
330
29F
100
AcDbEntity
  8
ガラス
  6
Continuous
100
AcDbVertex
100
AcDb2dVertex
 10
-45.875
 20
-33.35
 30
0.0
 70
     8
  0
VERTEX
  5
2B7
330
29F
100
AcDbEntity
  8
ガラス
  6
Continuous
100
AcDbVertex
100
AcDb2dVertex
 10
-45.9
 20
-33.35
 30
0.0
 70
     8
  0
VERTEX
  5
2B8
330
29F
100
AcDbEntity
  8
ガラス
  6
Continuous
100
AcDbVertex
100
AcDb2dVertex
 10
-45.95
 20
-33.375
 30
0.0
 70
     8
  0
VERTEX
  5
2B9
330
29F
100
AcDbEntity
  8
ガラス
  6
Continuous
100
AcDbVertex
100
AcDb2dVertex
 10
-45.975
 20
-33.375
 30
0.0
 70
     8
  0
VERTEX
  5
2BA
330
29F
100
AcDbEntity
  8
ガラス
  6
Continuous
100
AcDbVertex
100
AcDb2dVertex
 10
-46.025
 20
-33.4
 30
0.0
 70
     8
  0
VERTEX
  5
2BB
330
29F
100
AcDbEntity
  8
ガラス
  6
Continuous
100
AcDbVertex
100
AcDb2dVertex
 10
-46.075
 20
-33.4
 30
0.0
 70
     8
  0
VERTEX
  5
2BC
330
29F
100
AcDbEntity
  8
ガラス
  6
Continuous
100
AcDbVertex
100
AcDb2dVertex
 10
-46.1
 20
-33.425
 30
0.0
 70
     8
  0
VERTEX
  5
2BD
330
29F
100
AcDbEntity
  8
ガラス
  6
Continuous
100
AcDbVertex
100
AcDb2dVertex
 10
-46.15
 20
-33.425
 30
0.0
 70
     8
  0
VERTEX
  5
2BE
330
29F
100
AcDbEntity
  8
ガラス
  6
Continuous
100
AcDbVertex
100
AcDb2dVertex
 10
-46.2
 20
-33.45
 30
0.0
 70
     8
  0
VERTEX
  5
2BF
330
29F
100
AcDbEntity
  8
ガラス
  6
Continuous
100
AcDbVertex
100
AcDb2dVertex
 10
-46.225
 20
-33.45
 30
0.0
 70
     8
  0
VERTEX
  5
2C0
330
29F
100
AcDbEntity
  8
ガラス
  6
Continuous
100
AcDbVertex
100
AcDb2dVertex
 10
-46.275
 20
-33.475
 30
0.0
 70
     8
  0
VERTEX
  5
2C1
330
29F
100
AcDbEntity
  8
ガラス
  6
Continuous
100
AcDbVertex
100
AcDb2dVertex
 10
-46.3
 20
-33.5
 30
0.0
 70
     8
  0
VERTEX
  5
2C2
330
29F
100
AcDbEntity
  8
ガラス
  6
Continuous
100
AcDbVertex
100
AcDb2dVertex
 10
-46.35
 20
-33.5
 30
0.0
 70
     8
  0
VERTEX
  5
2C3
330
29F
100
AcDbEntity
  8
ガラス
  6
Continuous
100
AcDbVertex
100
AcDb2dVertex
 10
-46.4
 20
-33.525
 30
0.0
 70
     8
  0
VERTEX
  5
2C4
330
29F
100
AcDbEntity
  8
ガラス
  6
Continuous
100
AcDbVertex
100
AcDb2dVertex
 10
-46.425
 20
-33.55
 30
0.0
 70
     8
  0
VERTEX
  5
2C5
330
29F
100
AcDbEntity
  8
ガラス
  6
Continuous
100
AcDbVertex
100
AcDb2dVertex
 10
-46.475
 20
-33.55
 30
0.0
 70
     8
  0
VERTEX
  5
2C6
330
29F
100
AcDbEntity
  8
ガラス
  6
Continuous
100
AcDbVertex
100
AcDb2dVertex
 10
-46.5
 20
-33.575
 30
0.0
 70
     8
  0
VERTEX
  5
2C7
330
29F
100
AcDbEntity
  8
ガラス
  6
Continuous
100
AcDbVertex
100
AcDb2dVertex
 10
-46.55
 20
-33.575
 30
0.0
 70
     8
  0
VERTEX
  5
2C8
330
29F
100
AcDbEntity
  8
ガラス
  6
Continuous
100
AcDbVertex
100
AcDb2dVertex
 10
-46.6
 20
-33.6
 30
0.0
 70
     8
  0
SEQEND
  5
2C9
330
29F
100
AcDbEntity
  8
0
  0
ARC
  5
2CA
330
273
100
AcDbEntity
  8
ガラス
  6
Continuous
100
AcDbCircle
 10
-46.821966
 20
-32.965483
 30
0.0
 40
0.668594
100
AcDbArc
 50
111.203091
 51
291.203091
  0
ENDBLK
  5
2CB
330
273
100
AcDbEntity
  8
0
100
AcDbBlockEnd
  0
BLOCK
  5
2CC
330
2CD
100
AcDbEntity
  8
0
100
AcDbBlockBegin
  2
*U10
 70
     1
 71
     0
 10
0.0
 20
0.0
 30
0.0
  3
*U10
  1

  0
POLYLINE
  5
2CE
330
2CD
100
AcDbEntity
  8
ガラス
  6
Continuous
100
AcDb2dPolyline
 66
     1
 10
0.0
 20
0.0
 30
0.0
 70
     4
  0
VERTEX
  5
2CF
330
2CE
100
AcDbEntity
  8
ガラス
  6
Continuous
100
AcDbVertex
100
AcDb2dVertex
 10
-52.025
 20
-40.475
 30
0.0
 70
     8
  0
VERTEX
  5
2D0
330
2CE
100
AcDbEntity
  8
ガラス
  6
Continuous
100
AcDbVertex
100
AcDb2dVertex
 10
-52.0
 20
-40.4
 30
0.0
 70
     8
  0
VERTEX
  5
2D1
330
2CE
100
AcDbEntity
  8
ガラス
  6
Continuous
100
AcDbVertex
100
AcDb2dVertex
 10
-52.0
 20
-40.325
 30
0.0
 70
     8
  0
VERTEX
  5
2D2
330
2CE
100
AcDbEntity
  8
ガラス
  6
Continuous
100
AcDbVertex
100
AcDb2dVertex
 10
-51.975
 20
-40.275
 30
0.0
 70
     8
  0
VERTEX
  5
2D3
330
2CE
100
AcDbEntity
  8
ガラス
  6
Continuous
100
AcDbVertex
100
AcDb2dVertex
 10
-51.95
 20
-40.2
 30
0.0
 70
     8
  0
VERTEX
  5
2D4
330
2CE
100
AcDbEntity
  8
ガラス
  6
Continuous
100
AcDbVertex
100
AcDb2dVertex
 10
-51.925
 20
-40.15
 30
0.0
 70
     8
  0
VERTEX
  5
2D5
330
2CE
100
AcDbEntity
  8
ガラス
  6
Continuous
100
AcDbVertex
100
AcDb2dVertex
 10
-51.925
 20
-40.1
 30
0.0
 70
     8
  0
VERTEX
  5
2D6
330
2CE
100
AcDbEntity
  8
ガラス
  6
Continuous
100
AcDbVertex
100
AcDb2dVertex
 10
-51.9
 20
-40.025
 30
0.0
 70
     8
  0
VERTEX
  5
2D7
330
2CE
100
AcDbEntity
  8
ガラス
  6
Continuous
100
AcDbVertex
100
AcDb2dVertex
 10
-51.875
 20
-39.975
 30
0.0
 70
     8
  0
VERTEX
  5
2D8
330
2CE
100
AcDbEntity
  8
ガラス
  6
Continuous
100
AcDbVertex
100
AcDb2dVertex
 10
-51.85
 20
-39.9
 30
0.0
 70
     8
  0
VERTEX
  5
2D9
330
2CE
100
AcDbEntity
  8
ガラス
  6
Continuous
100
AcDbVertex
100
AcDb2dVertex
 10
-51.825
 20
-39.85
 30
0.0
 70
     8
  0
VERTEX
  5
2DA
330
2CE
100
AcDbEntity
  8
ガラス
  6
Continuous
100
AcDbVertex
100
AcDb2dVertex
 10
-51.8
 20
-39.8
 30
0.0
 70
     8
  0
VERTEX
  5
2DB
330
2CE
100
AcDbEntity
  8
ガラス
  6
Continuous
100
AcDbVertex
100
AcDb2dVertex
 10
-51.775
 20
-39.725
 30
0.0
 70
     8
  0
VERTEX
  5
2DC
330
2CE
100
AcDbEntity
  8
ガラス
  6
Continuous
100
AcDbVertex
100
AcDb2dVertex
 10
-51.75
 20
-39.675
 30
0.0
 70
     8
  0
VERTEX
  5
2DD
330
2CE
100
AcDbEntity
  8
ガラス
  6
Continuous
100
AcDbVertex
100
AcDb2dVertex
 10
-51.725
 20
-39.625
 30
0.0
 70
     8
  0
VERTEX
  5
2DE
330
2CE
100
AcDbEntity
  8
ガラス
  6
Continuous
100
AcDbVertex
100
AcDb2dVertex
 10
-51.7
 20
-39.575
 30
0.0
 70
     8
  0
VERTEX
  5
2DF
330
2CE
100
AcDbEntity
  8
ガラス
  6
Continuous
100
AcDbVertex
100
AcDb2dVertex
 10
-51.675
 20
-39.525
 30
0.0
 70
     8
  0
VERTEX
  5
2E0
330
2CE
100
AcDbEntity
  8
ガラス
  6
Continuous
100
AcDbVertex
100
AcDb2dVertex
 10
-51.625
 20
-39.475
 30
0.0
 70
     8
  0
VERTEX
  5
2E1
330
2CE
100
AcDbEntity
  8
ガラス
  6
Continuous
100
AcDbVertex
100
AcDb2dVertex
 10
-51.6
 20
-39.425
 30
0.0
 70
     8
  0
VERTEX
  5
2E2
330
2CE
100
AcDbEntity
  8
ガラス
  6
Continuous
100
AcDbVertex
100
AcDb2dVertex
 10
-51.575
 20
-39.375
 30
0.0
 70
     8
  0
VERTEX
  5
2E3
330
2CE
100
AcDbEntity
  8
ガラス
  6
Continuous
100
AcDbVertex
100
AcDb2dVertex
 10
-51.525
 20
-39.325
 30
0.0
 70
     8
  0
VERTEX
  5
2E4
330
2CE
100
AcDbEntity
  8
ガラス
  6
Continuous
100
AcDbVertex
100
AcDb2dVertex
 10
-51.5
 20
-39.3
 30
0.0
 70
     8
  0
VERTEX
  5
2E5
330
2CE
100
AcDbEntity
  8
ガラス
  6
Continuous
100
AcDbVertex
100
AcDb2dVertex
 10
-51.45
 20
-39.25
 30
0.0
 70
     8
  0
VERTEX
  5
2E6
330
2CE
100
AcDbEntity
  8
ガラス
  6
Continuous
100
AcDbVertex
100
AcDb2dVertex
 10
-51.4
 20
-39.225
 30
0.0
 70
     8
  0
VERTEX
  5
2E7
330
2CE
100
AcDbEntity
  8
ガラス
  6
Continuous
100
AcDbVertex
100
AcDb2dVertex
 10
-51.35
 20
-39.175
 30
0.0
 70
     8
  0
VERTEX
  5
2E8
330
2CE
100
AcDbEntity
  8
ガラス
  6
Continuous
100
AcDbVertex
100
AcDb2dVertex
 10
-51.3
 20
-39.15
 30
0.0
 70
     8
  0
VERTEX
  5
2E9
330
2CE
100
AcDbEntity
  8
ガラス
  6
Continuous
100
AcDbVertex
100
AcDb2dVertex
 10
-51.25
 20
-39.125
 30
0.0
 70
     8
  0
VERTEX
  5
2EA
330
2CE
100
AcDbEntity
  8
ガラス
  6
Continuous
100
AcDbVertex
100
AcDb2dVertex
 10
-51.2
 20
-39.075
 30
0.0
 70
     8
  0
VERTEX
  5
2EB
330
2CE
100
AcDbEntity
  8
ガラス
  6
Continuous
100
AcDbVertex
100
AcDb2dVertex
 10
-51.15
 20
-39.05
 30
0.0
 70
     8
  0
VERTEX
  5
2EC
330
2CE
100
AcDbEntity
  8
ガラス
  6
Continuous
100
AcDbVertex
100
AcDb2dVertex
 10
-51.1
 20
-39.025
 30
0.0
 70
     8
  0
VERTEX
  5
2ED
330
2CE
100
AcDbEntity
  8
ガラス
  6
Continuous
100
AcDbVertex
100
AcDb2dVertex
 10
-51.05
 20
-39.0
 30
0.0
 70
     8
  0
VERTEX
  5
2EE
330
2CE
100
AcDbEntity
  8
ガラス
  6
Continuous
100
AcDbVertex
100
AcDb2dVertex
 10
-51.0
 20
-38.975
 30
0.0
 70
     8
  0
VERTEX
  5
2EF
330
2CE
100
AcDbEntity
  8
ガラス
  6
Continuous
100
AcDbVertex
100
AcDb2dVertex
 10
-50.925
 20
-38.95
 30
0.0
 70
     8
  0
VERTEX
  5
2F0
330
2CE
100
AcDbEntity
  8
ガラス
  6
Continuous
100
AcDbVertex
100
AcDb2dVertex
 10
-50.875
 20
-38.925
 30
0.0
 70
     8
  0
VERTEX
  5
2F1
330
2CE
100
AcDbEntity
  8
ガラス
  6
Continuous
100
AcDbVertex
100
AcDb2dVertex
 10
-50.825
 20
-38.9
 30
0.0
 70
     8
  0
VERTEX
  5
2F2
330
2CE
100
AcDbEntity
  8
ガラス
  6
Continuous
100
AcDbVertex
100
AcDb2dVertex
 10
-50.75
 20
-38.875
 30
0.0
 70
     8
  0
VERTEX
  5
2F3
330
2CE
100
AcDbEntity
  8
ガラス
  6
Continuous
100
AcDbVertex
100
AcDb2dVertex
 10
-50.7
 20
-38.85
 30
0.0
 70
     8
  0
VERTEX
  5
2F4
330
2CE
100
AcDbEntity
  8
ガラス
  6
Continuous
100
AcDbVertex
100
AcDb2dVertex
 10
-50.625
 20
-38.825
 30
0.0
 70
     8
  0
VERTEX
  5
2F5
330
2CE
100
AcDbEntity
  8
ガラス
  6
Continuous
100
AcDbVertex
100
AcDb2dVertex
 10
-50.575
 20
-38.825
 30
0.0
 70
     8
  0
VERTEX
  5
2F6
330
2CE
100
AcDbEntity
  8
ガラス
  6
Continuous
100
AcDbVertex
100
AcDb2dVertex
 10
-50.5
 20
-38.8
 30
0.0
 70
     8
  0
VERTEX
  5
2F7
330
2CE
100
AcDbEntity
  8
ガラス
  6
Continuous
100
AcDbVertex
100
AcDb2dVertex
 10
-50.45
 20
-38.775
 30
0.0
 70
     8
  0
SEQEND
  5
2F8
330
2CE
100
AcDbEntity
  8
0
  0
POLYLINE
  5
2F9
330
2CD
100
AcDbEntity
  8
ガラス
  6
Continuous
100
AcDb2dPolyline
 66
     1
 10
0.0
 20
0.0
 30
0.0
 70
     4
  0
VERTEX
  5
2FA
330
2F9
100
AcDbEntity
  8
ガラス
  6
Continuous
100
AcDbVertex
100
AcDb2dVertex
 10
-50.45
 20
-38.775
 30
0.0
 70
     8
  0
VERTEX
  5
2FB
330
2F9
100
AcDbEntity
  8
ガラス
  6
Continuous
100
AcDbVertex
100
AcDb2dVertex
 10
-50.45
 20
-38.825
 30
0.0
 70
     8
  0
VERTEX
  5
2FC
330
2F9
100
AcDbEntity
  8
ガラス
  6
Continuous
100
AcDbVertex
100
AcDb2dVertex
 10
-50.475
 20
-38.85
 30
0.0
 70
     8
  0
VERTEX
  5
2FD
330
2F9
100
AcDbEntity
  8
ガラス
  6
Continuous
100
AcDbVertex
100
AcDb2dVertex
 10
-50.475
 20
-38.9
 30
0.0
 70
     8
  0
VERTEX
  5
2FE
330
2F9
100
AcDbEntity
  8
ガラス
  6
Continuous
100
AcDbVertex
100
AcDb2dVertex
 10
-50.5
 20
-38.95
 30
0.0
 70
     8
  0
VERTEX
  5
2FF
330
2F9
100
AcDbEntity
  8
ガラス
  6
Continuous
100
AcDbVertex
100
AcDb2dVertex
 10
-50.5
 20
-38.975
 30
0.0
 70
     8
  0
VERTEX
  5
300
330
2F9
100
AcDbEntity
  8
ガラス
  6
Continuous
100
AcDbVertex
100
AcDb2dVertex
 10
-50.525
 20
-39.025
 30
0.0
 70
     8
  0
VERTEX
  5
301
330
2F9
100
AcDbEntity
  8
ガラス
  6
Continuous
100
AcDbVertex
100
AcDb2dVertex
 10
-50.525
 20
-39.05
 30
0.0
 70
     8
  0
VERTEX
  5
302
330
2F9
100
AcDbEntity
  8
ガラス
  6
Continuous
100
AcDbVertex
100
AcDb2dVertex
 10
-50.55
 20
-39.1
 30
0.0
 70
     8
  0
VERTEX
  5
303
330
2F9
100
AcDbEntity
  8
ガラス
  6
Continuous
100
AcDbVertex
100
AcDb2dVertex
 10
-50.55
 20
-39.15
 30
0.0
 70
     8
  0
VERTEX
  5
304
330
2F9
100
AcDbEntity
  8
ガラス
  6
Continuous
100
AcDbVertex
100
AcDb2dVertex
 10
-50.575
 20
-39.175
 30
0.0
 70
     8
  0
VERTEX
  5
305
330
2F9
100
AcDbEntity
  8
ガラス
  6
Continuous
100
AcDbVertex
100
AcDb2dVertex
 10
-50.575
 20
-39.225
 30
0.0
 70
     8
  0
VERTEX
  5
306
330
2F9
100
AcDbEntity
  8
ガラス
  6
Continuous
100
AcDbVertex
100
AcDb2dVertex
 10
-50.575
 20
-39.275
 30
0.0
 70
     8
  0
VERTEX
  5
307
330
2F9
100
AcDbEntity
  8
ガラス
  6
Continuous
100
AcDbVertex
100
AcDb2dVertex
 10
-50.6
 20
-39.3
 30
0.0
 70
     8
  0
VERTEX
  5
308
330
2F9
100
AcDbEntity
  8
ガラス
  6
Continuous
100
AcDbVertex
100
AcDb2dVertex
 10
-50.6
 20
-39.35
 30
0.0
 70
     8
  0
VERTEX
  5
309
330
2F9
100
AcDbEntity
  8
ガラス
  6
Continuous
100
AcDbVertex
100
AcDb2dVertex
 10
-50.6
 20
-39.4
 30
0.0
 70
     8
  0
VERTEX
  5
30A
330
2F9
100
AcDbEntity
  8
ガラス
  6
Continuous
100
AcDbVertex
100
AcDb2dVertex
 10
-50.625
 20
-39.45
 30
0.0
 70
     8
  0
VERTEX
  5
30B
330
2F9
100
AcDbEntity
  8
ガラス
  6
Continuous
100
AcDbVertex
100
AcDb2dVertex
 10
-50.625
 20
-39.475
 30
0.0
 70
     8
  0
VERTEX
  5
30C
330
2F9
100
AcDbEntity
  8
ガラス
  6
Continuous
100
AcDbVertex
100
AcDb2dVertex
 10
-50.625
 20
-39.525
 30
0.0
 70
     8
  0
VERTEX
  5
30D
330
2F9
100
AcDbEntity
  8
ガラス
  6
Continuous
100
AcDbVertex
100
AcDb2dVertex
 10
-50.65
 20
-39.575
 30
0.0
 70
     8
  0
VERTEX
  5
30E
330
2F9
100
AcDbEntity
  8
ガラス
  6
Continuous
100
AcDbVertex
100
AcDb2dVertex
 10
-50.65
 20
-39.6
 30
0.0
 70
     8
  0
VERTEX
  5
30F
330
2F9
100
AcDbEntity
  8
ガラス
  6
Continuous
100
AcDbVertex
100
AcDb2dVertex
 10
-50.65
 20
-39.65
 30
0.0
 70
     8
  0
VERTEX
  5
310
330
2F9
100
AcDbEntity
  8
ガラス
  6
Continuous
100
AcDbVertex
100
AcDb2dVertex
 10
-50.65
 20
-39.7
 30
0.0
 70
     8
  0
VERTEX
  5
311
330
2F9
100
AcDbEntity
  8
ガラス
  6
Continuous
100
AcDbVertex
100
AcDb2dVertex
 10
-50.675
 20
-39.725
 30
0.0
 70
     8
  0
VERTEX
  5
312
330
2F9
100
AcDbEntity
  8
ガラス
  6
Continuous
100
AcDbVertex
100
AcDb2dVertex
 10
-50.675
 20
-39.775
 30
0.0
 70
     8
  0
VERTEX
  5
313
330
2F9
100
AcDbEntity
  8
ガラス
  6
Continuous
100
AcDbVertex
100
AcDb2dVertex
 10
-50.675
 20
-39.825
 30
0.0
 70
     8
  0
VERTEX
  5
314
330
2F9
100
AcDbEntity
  8
ガラス
  6
Continuous
100
AcDbVertex
100
AcDb2dVertex
 10
-50.675
 20
-39.85
 30
0.0
 70
     8
  0
VERTEX
  5
315
330
2F9
100
AcDbEntity
  8
ガラス
  6
Continuous
100
AcDbVertex
100
AcDb2dVertex
 10
-50.675
 20
-39.9
 30
0.0
 70
     8
  0
VERTEX
  5
316
330
2F9
100
AcDbEntity
  8
ガラス
  6
Continuous
100
AcDbVertex
100
AcDb2dVertex
 10
-50.675
 20
-39.95
 30
0.0
 70
     8
  0
VERTEX
  5
317
330
2F9
100
AcDbEntity
  8
ガラス
  6
Continuous
100
AcDbVertex
100
AcDb2dVertex
 10
-50.675
 20
-40.0
 30
0.0
 70
     8
  0
VERTEX
  5
318
330
2F9
100
AcDbEntity
  8
ガラス
  6
Continuous
100
AcDbVertex
100
AcDb2dVertex
 10
-50.675
 20
-40.025
 30
0.0
 70
     8
  0
VERTEX
  5
319
330
2F9
100
AcDbEntity
  8
ガラス
  6
Continuous
100
AcDbVertex
100
AcDb2dVertex
 10
-50.675
 20
-40.075
 30
0.0
 70
     8
  0
VERTEX
  5
31A
330
2F9
100
AcDbEntity
  8
ガラス
  6
Continuous
100
AcDbVertex
100
AcDb2dVertex
 10
-50.675
 20
-40.125
 30
0.0
 70
     8
  0
VERTEX
  5
31B
330
2F9
100
AcDbEntity
  8
ガラス
  6
Continuous
100
AcDbVertex
100
AcDb2dVertex
 10
-50.7
 20
-40.15
 30
0.0
 70
     8
  0
VERTEX
  5
31C
330
2F9
100
AcDbEntity
  8
ガラス
  6
Continuous
100
AcDbVertex
100
AcDb2dVertex
 10
-50.7
 20
-40.2
 30
0.0
 70
     8
  0
VERTEX
  5
31D
330
2F9
100
AcDbEntity
  8
ガラス
  6
Continuous
100
AcDbVertex
100
AcDb2dVertex
 10
-50.7
 20
-40.25
 30
0.0
 70
     8
  0
VERTEX
  5
31E
330
2F9
100
AcDbEntity
  8
ガラス
  6
Continuous
100
AcDbVertex
100
AcDb2dVertex
 10
-50.7
 20
-40.3
 30
0.0
 70
     8
  0
VERTEX
  5
31F
330
2F9
100
AcDbEntity
  8
ガラス
  6
Continuous
100
AcDbVertex
100
AcDb2dVertex
 10
-50.7
 20
-40.325
 30
0.0
 70
     8
  0
VERTEX
  5
320
330
2F9
100
AcDbEntity
  8
ガラス
  6
Continuous
100
AcDbVertex
100
AcDb2dVertex
 10
-50.7
 20
-40.375
 30
0.0
 70
     8
  0
VERTEX
  5
321
330
2F9
100
AcDbEntity
  8
ガラス
  6
Continuous
100
AcDbVertex
100
AcDb2dVertex
 10
-50.7
 20
-40.425
 30
0.0
 70
     8
  0
VERTEX
  5
322
330
2F9
100
AcDbEntity
  8
ガラス
  6
Continuous
100
AcDbVertex
100
AcDb2dVertex
 10
-50.7
 20
-40.475
 30
0.0
 70
     8
  0
SEQEND
  5
323
330
2F9
100
AcDbEntity
  8
0
  0
ARC
  5
324
330
2CD
100
AcDbEntity
  8
ガラス
  6
Continuous
100
AcDbCircle
 10
-51.344046
 20
-40.450845
 30
0.0
 40
0.668594
100
AcDbArc
 50
180.0
 51
0.0
  0
ENDBLK
  5
325
330
2CD
100
AcDbEntity
  8
0
100
AcDbBlockEnd
  0
BLOCK
  5
326
330
327
100
AcDbEntity
  8
0
100
AcDbBlockBegin
  2
*U11
 70
     1
 71
     0
 10
0.0
 20
0.0
 30
0.0
  3
*U11
  1

  0
POLYLINE
  5
328
330
327
100
AcDbEntity
  8
ガラス
  6
Continuous
100
AcDb2dPolyline
 66
     1
 10
0.0
 20
0.0
 30
0.0
 70
     4
  0
VERTEX
  5
329
330
328
100
AcDbEntity
  8
ガラス
  6
Continuous
100
AcDbVertex
100
AcDb2dVertex
 10
-52.025
 20
-54.675
 30
0.0
 70
     8
  0
VERTEX
  5
32A
330
328
100
AcDbEntity
  8
ガラス
  6
Continuous
100
AcDbVertex
100
AcDb2dVertex
 10
-52.0
 20
-54.625
 30
0.0
 70
     8
  0
VERTEX
  5
32B
330
328
100
AcDbEntity
  8
ガラス
  6
Continuous
100
AcDbVertex
100
AcDb2dVertex
 10
-52.0
 20
-54.55
 30
0.0
 70
     8
  0
VERTEX
  5
32C
330
328
100
AcDbEntity
  8
ガラス
  6
Continuous
100
AcDbVertex
100
AcDb2dVertex
 10
-51.975
 20
-54.5
 30
0.0
 70
     8
  0
VERTEX
  5
32D
330
328
100
AcDbEntity
  8
ガラス
  6
Continuous
100
AcDbVertex
100
AcDb2dVertex
 10
-51.95
 20
-54.425
 30
0.0
 70
     8
  0
VERTEX
  5
32E
330
328
100
AcDbEntity
  8
ガラス
  6
Continuous
100
AcDbVertex
100
AcDb2dVertex
 10
-51.925
 20
-54.375
 30
0.0
 70
     8
  0
VERTEX
  5
32F
330
328
100
AcDbEntity
  8
ガラス
  6
Continuous
100
AcDbVertex
100
AcDb2dVertex
 10
-51.925
 20
-54.3
 30
0.0
 70
     8
  0
VERTEX
  5
330
330
328
100
AcDbEntity
  8
ガラス
  6
Continuous
100
AcDbVertex
100
AcDb2dVertex
 10
-51.9
 20
-54.25
 30
0.0
 70
     8
  0
VERTEX
  5
331
330
328
100
AcDbEntity
  8
ガラス
  6
Continuous
100
AcDbVertex
100
AcDb2dVertex
 10
-51.875
 20
-54.175
 30
0.0
 70
     8
  0
VERTEX
  5
332
330
328
100
AcDbEntity
  8
ガラス
  6
Continuous
100
AcDbVertex
100
AcDb2dVertex
 10
-51.85
 20
-54.125
 30
0.0
 70
     8
  0
VERTEX
  5
333
330
328
100
AcDbEntity
  8
ガラス
  6
Continuous
100
AcDbVertex
100
AcDb2dVertex
 10
-51.825
 20
-54.075
 30
0.0
 70
     8
  0
VERTEX
  5
334
330
328
100
AcDbEntity
  8
ガラス
  6
Continuous
100
AcDbVertex
100
AcDb2dVertex
 10
-51.8
 20
-54.0
 30
0.0
 70
     8
  0
VERTEX
  5
335
330
328
100
AcDbEntity
  8
ガラス
  6
Continuous
100
AcDbVertex
100
AcDb2dVertex
 10
-51.775
 20
-53.95
 30
0.0
 70
     8
  0
VERTEX
  5
336
330
328
100
AcDbEntity
  8
ガラス
  6
Continuous
100
AcDbVertex
100
AcDb2dVertex
 10
-51.75
 20
-53.9
 30
0.0
 70
     8
  0
VERTEX
  5
337
330
328
100
AcDbEntity
  8
ガラス
  6
Continuous
100
AcDbVertex
100
AcDb2dVertex
 10
-51.725
 20
-53.85
 30
0.0
 70
     8
  0
VERTEX
  5
338
330
328
100
AcDbEntity
  8
ガラス
  6
Continuous
100
AcDbVertex
100
AcDb2dVertex
 10
-51.7
 20
-53.8
 30
0.0
 70
     8
  0
VERTEX
  5
339
330
328
100
AcDbEntity
  8
ガラス
  6
Continuous
100
AcDbVertex
100
AcDb2dVertex
 10
-51.675
 20
-53.75
 30
0.0
 70
     8
  0
VERTEX
  5
33A
330
328
100
AcDbEntity
  8
ガラス
  6
Continuous
100
AcDbVertex
100
AcDb2dVertex
 10
-51.625
 20
-53.7
 30
0.0
 70
     8
  0
VERTEX
  5
33B
330
328
100
AcDbEntity
  8
ガラス
  6
Continuous
100
AcDbVertex
100
AcDb2dVertex
 10
-51.6
 20
-53.65
 30
0.0
 70
     8
  0
VERTEX
  5
33C
330
328
100
AcDbEntity
  8
ガラス
  6
Continuous
100
AcDbVertex
100
AcDb2dVertex
 10
-51.575
 20
-53.6
 30
0.0
 70
     8
  0
VERTEX
  5
33D
330
328
100
AcDbEntity
  8
ガラス
  6
Continuous
100
AcDbVertex
100
AcDb2dVertex
 10
-51.525
 20
-53.55
 30
0.0
 70
     8
  0
VERTEX
  5
33E
330
328
100
AcDbEntity
  8
ガラス
  6
Continuous
100
AcDbVertex
100
AcDb2dVertex
 10
-51.5
 20
-53.5
 30
0.0
 70
     8
  0
VERTEX
  5
33F
330
328
100
AcDbEntity
  8
ガラス
  6
Continuous
100
AcDbVertex
100
AcDb2dVertex
 10
-51.45
 20
-53.475
 30
0.0
 70
     8
  0
VERTEX
  5
340
330
328
100
AcDbEntity
  8
ガラス
  6
Continuous
100
AcDbVertex
100
AcDb2dVertex
 10
-51.4
 20
-53.425
 30
0.0
 70
     8
  0
VERTEX
  5
341
330
328
100
AcDbEntity
  8
ガラス
  6
Continuous
100
AcDbVertex
100
AcDb2dVertex
 10
-51.35
 20
-53.4
 30
0.0
 70
     8
  0
VERTEX
  5
342
330
328
100
AcDbEntity
  8
ガラス
  6
Continuous
100
AcDbVertex
100
AcDb2dVertex
 10
-51.3
 20
-53.375
 30
0.0
 70
     8
  0
VERTEX
  5
343
330
328
100
AcDbEntity
  8
ガラス
  6
Continuous
100
AcDbVertex
100
AcDb2dVertex
 10
-51.25
 20
-53.325
 30
0.0
 70
     8
  0
VERTEX
  5
344
330
328
100
AcDbEntity
  8
ガラス
  6
Continuous
100
AcDbVertex
100
AcDb2dVertex
 10
-51.2
 20
-53.3
 30
0.0
 70
     8
  0
VERTEX
  5
345
330
328
100
AcDbEntity
  8
ガラス
  6
Continuous
100
AcDbVertex
100
AcDb2dVertex
 10
-51.15
 20
-53.275
 30
0.0
 70
     8
  0
VERTEX
  5
346
330
328
100
AcDbEntity
  8
ガラス
  6
Continuous
100
AcDbVertex
100
AcDb2dVertex
 10
-51.1
 20
-53.25
 30
0.0
 70
     8
  0
VERTEX
  5
347
330
328
100
AcDbEntity
  8
ガラス
  6
Continuous
100
AcDbVertex
100
AcDb2dVertex
 10
-51.05
 20
-53.225
 30
0.0
 70
     8
  0
VERTEX
  5
348
330
328
100
AcDbEntity
  8
ガラス
  6
Continuous
100
AcDbVertex
100
AcDb2dVertex
 10
-51.0
 20
-53.2
 30
0.0
 70
     8
  0
VERTEX
  5
349
330
328
100
AcDbEntity
  8
ガラス
  6
Continuous
100
AcDbVertex
100
AcDb2dVertex
 10
-50.925
 20
-53.175
 30
0.0
 70
     8
  0
VERTEX
  5
34A
330
328
100
AcDbEntity
  8
ガラス
  6
Continuous
100
AcDbVertex
100
AcDb2dVertex
 10
-50.875
 20
-53.15
 30
0.0
 70
     8
  0
VERTEX
  5
34B
330
328
100
AcDbEntity
  8
ガラス
  6
Continuous
100
AcDbVertex
100
AcDb2dVertex
 10
-50.825
 20
-53.125
 30
0.0
 70
     8
  0
VERTEX
  5
34C
330
328
100
AcDbEntity
  8
ガラス
  6
Continuous
100
AcDbVertex
100
AcDb2dVertex
 10
-50.75
 20
-53.1
 30
0.0
 70
     8
  0
VERTEX
  5
34D
330
328
100
AcDbEntity
  8
ガラス
  6
Continuous
100
AcDbVertex
100
AcDb2dVertex
 10
-50.7
 20
-53.075
 30
0.0
 70
     8
  0
VERTEX
  5
34E
330
328
100
AcDbEntity
  8
ガラス
  6
Continuous
100
AcDbVertex
100
AcDb2dVertex
 10
-50.625
 20
-53.05
 30
0.0
 70
     8
  0
VERTEX
  5
34F
330
328
100
AcDbEntity
  8
ガラス
  6
Continuous
100
AcDbVertex
100
AcDb2dVertex
 10
-50.575
 20
-53.025
 30
0.0
 70
     8
  0
VERTEX
  5
350
330
328
100
AcDbEntity
  8
ガラス
  6
Continuous
100
AcDbVertex
100
AcDb2dVertex
 10
-50.5
 20
-53.0
 30
0.0
 70
     8
  0
VERTEX
  5
351
330
328
100
AcDbEntity
  8
ガラス
  6
Continuous
100
AcDbVertex
100
AcDb2dVertex
 10
-50.45
 20
-52.975
 30
0.0
 70
     8
  0
SEQEND
  5
352
330
328
100
AcDbEntity
  8
0
  0
POLYLINE
  5
353
330
327
100
AcDbEntity
  8
ガラス
  6
Continuous
100
AcDb2dPolyline
 66
     1
 10
0.0
 20
0.0
 30
0.0
 70
     4
  0
VERTEX
  5
354
330
353
100
AcDbEntity
  8
ガラス
  6
Continuous
100
AcDbVertex
100
AcDb2dVertex
 10
-50.45
 20
-52.975
 30
0.0
 70
     8
  0
VERTEX
  5
355
330
353
100
AcDbEntity
  8
ガラス
  6
Continuous
100
AcDbVertex
100
AcDb2dVertex
 10
-50.45
 20
-53.025
 30
0.0
 70
     8
  0
VERTEX
  5
356
330
353
100
AcDbEntity
  8
ガラス
  6
Continuous
100
AcDbVertex
100
AcDb2dVertex
 10
-50.475
 20
-53.075
 30
0.0
 70
     8
  0
VERTEX
  5
357
330
353
100
AcDbEntity
  8
ガラス
  6
Continuous
100
AcDbVertex
100
AcDb2dVertex
 10
-50.475
 20
-53.1
 30
0.0
 70
     8
  0
VERTEX
  5
358
330
353
100
AcDbEntity
  8
ガラス
  6
Continuous
100
AcDbVertex
100
AcDb2dVertex
 10
-50.5
 20
-53.15
 30
0.0
 70
     8
  0
VERTEX
  5
359
330
353
100
AcDbEntity
  8
ガラス
  6
Continuous
100
AcDbVertex
100
AcDb2dVertex
 10
-50.5
 20
-53.2
 30
0.0
 70
     8
  0
VERTEX
  5
35A
330
353
100
AcDbEntity
  8
ガラス
  6
Continuous
100
AcDbVertex
100
AcDb2dVertex
 10
-50.525
 20
-53.225
 30
0.0
 70
     8
  0
VERTEX
  5
35B
330
353
100
AcDbEntity
  8
ガラス
  6
Continuous
100
AcDbVertex
100
AcDb2dVertex
 10
-50.525
 20
-53.275
 30
0.0
 70
     8
  0
VERTEX
  5
35C
330
353
100
AcDbEntity
  8
ガラス
  6
Continuous
100
AcDbVertex
100
AcDb2dVertex
 10
-50.55
 20
-53.325
 30
0.0
 70
     8
  0
VERTEX
  5
35D
330
353
100
AcDbEntity
  8
ガラス
  6
Continuous
100
AcDbVertex
100
AcDb2dVertex
 10
-50.55
 20
-53.35
 30
0.0
 70
     8
  0
VERTEX
  5
35E
330
353
100
AcDbEntity
  8
ガラス
  6
Continuous
100
AcDbVertex
100
AcDb2dVertex
 10
-50.575
 20
-53.4
 30
0.0
 70
     8
  0
VERTEX
  5
35F
330
353
100
AcDbEntity
  8
ガラス
  6
Continuous
100
AcDbVertex
100
AcDb2dVertex
 10
-50.575
 20
-53.45
 30
0.0
 70
     8
  0
VERTEX
  5
360
330
353
100
AcDbEntity
  8
ガラス
  6
Continuous
100
AcDbVertex
100
AcDb2dVertex
 10
-50.575
 20
-53.475
 30
0.0
 70
     8
  0
VERTEX
  5
361
330
353
100
AcDbEntity
  8
ガラス
  6
Continuous
100
AcDbVertex
100
AcDb2dVertex
 10
-50.6
 20
-53.525
 30
0.0
 70
     8
  0
VERTEX
  5
362
330
353
100
AcDbEntity
  8
ガラス
  6
Continuous
100
AcDbVertex
100
AcDb2dVertex
 10
-50.6
 20
-53.575
 30
0.0
 70
     8
  0
VERTEX
  5
363
330
353
100
AcDbEntity
  8
ガラス
  6
Continuous
100
AcDbVertex
100
AcDb2dVertex
 10
-50.6
 20
-53.6
 30
0.0
 70
     8
  0
VERTEX
  5
364
330
353
100
AcDbEntity
  8
ガラス
  6
Continuous
100
AcDbVertex
100
AcDb2dVertex
 10
-50.625
 20
-53.65
 30
0.0
 70
     8
  0
VERTEX
  5
365
330
353
100
AcDbEntity
  8
ガラス
  6
Continuous
100
AcDbVertex
100
AcDb2dVertex
 10
-50.625
 20
-53.7
 30
0.0
 70
     8
  0
VERTEX
  5
366
330
353
100
AcDbEntity
  8
ガラス
  6
Continuous
100
AcDbVertex
100
AcDb2dVertex
 10
-50.625
 20
-53.725
 30
0.0
 70
     8
  0
VERTEX
  5
367
330
353
100
AcDbEntity
  8
ガラス
  6
Continuous
100
AcDbVertex
100
AcDb2dVertex
 10
-50.65
 20
-53.775
 30
0.0
 70
     8
  0
VERTEX
  5
368
330
353
100
AcDbEntity
  8
ガラス
  6
Continuous
100
AcDbVertex
100
AcDb2dVertex
 10
-50.65
 20
-53.825
 30
0.0
 70
     8
  0
VERTEX
  5
369
330
353
100
AcDbEntity
  8
ガラス
  6
Continuous
100
AcDbVertex
100
AcDb2dVertex
 10
-50.65
 20
-53.875
 30
0.0
 70
     8
  0
VERTEX
  5
36A
330
353
100
AcDbEntity
  8
ガラス
  6
Continuous
100
AcDbVertex
100
AcDb2dVertex
 10
-50.65
 20
-53.9
 30
0.0
 70
     8
  0
VERTEX
  5
36B
330
353
100
AcDbEntity
  8
ガラス
  6
Continuous
100
AcDbVertex
100
AcDb2dVertex
 10
-50.675
 20
-53.95
 30
0.0
 70
     8
  0
VERTEX
  5
36C
330
353
100
AcDbEntity
  8
ガラス
  6
Continuous
100
AcDbVertex
100
AcDb2dVertex
 10
-50.675
 20
-54.0
 30
0.0
 70
     8
  0
VERTEX
  5
36D
330
353
100
AcDbEntity
  8
ガラス
  6
Continuous
100
AcDbVertex
100
AcDb2dVertex
 10
-50.675
 20
-54.025
 30
0.0
 70
     8
  0
VERTEX
  5
36E
330
353
100
AcDbEntity
  8
ガラス
  6
Continuous
100
AcDbVertex
100
AcDb2dVertex
 10
-50.675
 20
-54.075
 30
0.0
 70
     8
  0
VERTEX
  5
36F
330
353
100
AcDbEntity
  8
ガラス
  6
Continuous
100
AcDbVertex
100
AcDb2dVertex
 10
-50.675
 20
-54.125
 30
0.0
 70
     8
  0
VERTEX
  5
370
330
353
100
AcDbEntity
  8
ガラス
  6
Continuous
100
AcDbVertex
100
AcDb2dVertex
 10
-50.675
 20
-54.15
 30
0.0
 70
     8
  0
VERTEX
  5
371
330
353
100
AcDbEntity
  8
ガラス
  6
Continuous
100
AcDbVertex
100
AcDb2dVertex
 10
-50.675
 20
-54.2
 30
0.0
 70
     8
  0
VERTEX
  5
372
330
353
100
AcDbEntity
  8
ガラス
  6
Continuous
100
AcDbVertex
100
AcDb2dVertex
 10
-50.675
 20
-54.25
 30
0.0
 70
     8
  0
VERTEX
  5
373
330
353
100
AcDbEntity
  8
ガラス
  6
Continuous
100
AcDbVertex
100
AcDb2dVertex
 10
-50.675
 20
-54.3
 30
0.0
 70
     8
  0
VERTEX
  5
374
330
353
100
AcDbEntity
  8
ガラス
  6
Continuous
100
AcDbVertex
100
AcDb2dVertex
 10
-50.675
 20
-54.325
 30
0.0
 70
     8
  0
VERTEX
  5
375
330
353
100
AcDbEntity
  8
ガラス
  6
Continuous
100
AcDbVertex
100
AcDb2dVertex
 10
-50.7
 20
-54.375
 30
0.0
 70
     8
  0
VERTEX
  5
376
330
353
100
AcDbEntity
  8
ガラス
  6
Continuous
100
AcDbVertex
100
AcDb2dVertex
 10
-50.7
 20
-54.425
 30
0.0
 70
     8
  0
VERTEX
  5
377
330
353
100
AcDbEntity
  8
ガラス
  6
Continuous
100
AcDbVertex
100
AcDb2dVertex
 10
-50.7
 20
-54.475
 30
0.0
 70
     8
  0
VERTEX
  5
378
330
353
100
AcDbEntity
  8
ガラス
  6
Continuous
100
AcDbVertex
100
AcDb2dVertex
 10
-50.7
 20
-54.5
 30
0.0
 70
     8
  0
VERTEX
  5
379
330
353
100
AcDbEntity
  8
ガラス
  6
Continuous
100
AcDbVertex
100
AcDb2dVertex
 10
-50.7
 20
-54.55
 30
0.0
 70
     8
  0
VERTEX
  5
37A
330
353
100
AcDbEntity
  8
ガラス
  6
Continuous
100
AcDbVertex
100
AcDb2dVertex
 10
-50.7
 20
-54.6
 30
0.0
 70
     8
  0
VERTEX
  5
37B
330
353
100
AcDbEntity
  8
ガラス
  6
Continuous
100
AcDbVertex
100
AcDb2dVertex
 10
-50.7
 20
-54.625
 30
0.0
 70
     8
  0
VERTEX
  5
37C
330
353
100
AcDbEntity
  8
ガラス
  6
Continuous
100
AcDbVertex
100
AcDb2dVertex
 10
-50.7
 20
-54.675
 30
0.0
 70
     8
  0
SEQEND
  5
37D
330
353
100
AcDbEntity
  8
0
  0
ARC
  5
37E
330
327
100
AcDbEntity
  8
ガラス
  6
Continuous
100
AcDbCircle
 10
-51.344046
 20
-54.66561
 30
0.0
 40
0.668594
100
AcDbArc
 50
180.0
 51
0.0
  0
ENDBLK
  5
37F
330
327
100
AcDbEntity
  8
0
100
AcDbBlockEnd
  0
BLOCK
  5
380
330
381
100
AcDbEntity
  8
0
100
AcDbBlockBegin
  2
*U12
 70
     1
 71
     0
 10
0.0
 20
0.0
 30
0.0
  3
*U12
  1

  0
POLYLINE
  5
382
330
381
100
AcDbEntity
  8
ガラス
  6
Continuous
100
AcDb2dPolyline
 66
     1
 10
0.0
 20
0.0
 30
0.0
 70
     4
  0
VERTEX
  5
383
330
382
100
AcDbEntity
  8
ガラス
  6
Continuous
100
AcDbVertex
100
AcDb2dVertex
 10
-70.05
 20
-58.2
 30
0.0
 70
     8
  0
VERTEX
  5
384
330
382
100
AcDbEntity
  8
ガラス
  6
Continuous
100
AcDbVertex
100
AcDb2dVertex
 10
-70.0
 20
-58.175
 30
0.0
 70
     8
  0
VERTEX
  5
385
330
382
100
AcDbEntity
  8
ガラス
  6
Continuous
100
AcDbVertex
100
AcDb2dVertex
 10
-69.925
 20
-58.175
 30
0.0
 70
     8
  0
VERTEX
  5
386
330
382
100
AcDbEntity
  8
ガラス
  6
Continuous
100
AcDbVertex
100
AcDb2dVertex
 10
-69.875
 20
-58.175
 30
0.0
 70
     8
  0
VERTEX
  5
387
330
382
100
AcDbEntity
  8
ガラス
  6
Continuous
100
AcDbVertex
100
AcDb2dVertex
 10
-69.8
 20
-58.175
 30
0.0
 70
     8
  0
VERTEX
  5
388
330
382
100
AcDbEntity
  8
ガラス
  6
Continuous
100
AcDbVertex
100
AcDb2dVertex
 10
-69.72499999999999
 20
-58.15
 30
0.0
 70
     8
  0
VERTEX
  5
389
330
382
100
AcDbEntity
  8
ガラス
  6
Continuous
100
AcDbVertex
100
AcDb2dVertex
 10
-69.675
 20
-58.15
 30
0.0
 70
     8
  0
VERTEX
  5
38A
330
382
100
AcDbEntity
  8
ガラス
  6
Continuous
100
AcDbVertex
100
AcDb2dVertex
 10
-69.59999999999999
 20
-58.15
 30
0.0
 70
     8
  0
VERTEX
  5
38B
330
382
100
AcDbEntity
  8
ガラス
  6
Continuous
100
AcDbVertex
100
AcDb2dVertex
 10
-69.55
 20
-58.15
 30
0.0
 70
     8
  0
VERTEX
  5
38C
330
382
100
AcDbEntity
  8
ガラス
  6
Continuous
100
AcDbVertex
100
AcDb2dVertex
 10
-69.47499999999999
 20
-58.15
 30
0.0
 70
     8
  0
VERTEX
  5
38D
330
382
100
AcDbEntity
  8
ガラス
  6
Continuous
100
AcDbVertex
100
AcDb2dVertex
 10
-69.425
 20
-58.15
 30
0.0
 70
     8
  0
VERTEX
  5
38E
330
382
100
AcDbEntity
  8
ガラス
  6
Continuous
100
AcDbVertex
100
AcDb2dVertex
 10
-69.34999999999999
 20
-58.15
 30
0.0
 70
     8
  0
VERTEX
  5
38F
330
382
100
AcDbEntity
  8
ガラス
  6
Continuous
100
AcDbVertex
100
AcDb2dVertex
 10
-69.3
 20
-58.15
 30
0.0
 70
     8
  0
VERTEX
  5
390
330
382
100
AcDbEntity
  8
ガラス
  6
Continuous
100
AcDbVertex
100
AcDb2dVertex
 10
-69.22499999999999
 20
-58.15
 30
0.0
 70
     8
  0
VERTEX
  5
391
330
382
100
AcDbEntity
  8
ガラス
  6
Continuous
100
AcDbVertex
100
AcDb2dVertex
 10
-69.175
 20
-58.175
 30
0.0
 70
     8
  0
VERTEX
  5
392
330
382
100
AcDbEntity
  8
ガラス
  6
Continuous
100
AcDbVertex
100
AcDb2dVertex
 10
-69.09999999999999
 20
-58.175
 30
0.0
 70
     8
  0
VERTEX
  5
393
330
382
100
AcDbEntity
  8
ガラス
  6
Continuous
100
AcDbVertex
100
AcDb2dVertex
 10
-69.05
 20
-58.175
 30
0.0
 70
     8
  0
VERTEX
  5
394
330
382
100
AcDbEntity
  8
ガラス
  6
Continuous
100
AcDbVertex
100
AcDb2dVertex
 10
-69.0
 20
-58.2
 30
0.0
 70
     8
  0
VERTEX
  5
395
330
382
100
AcDbEntity
  8
ガラス
  6
Continuous
100
AcDbVertex
100
AcDb2dVertex
 10
-68.95
 20
-58.2
 30
0.0
 70
     8
  0
VERTEX
  5
396
330
382
100
AcDbEntity
  8
ガラス
  6
Continuous
100
AcDbVertex
100
AcDb2dVertex
 10
-68.875
 20
-58.225
 30
0.0
 70
     8
  0
VERTEX
  5
397
330
382
100
AcDbEntity
  8
ガラス
  6
Continuous
100
AcDbVertex
100
AcDb2dVertex
 10
-68.825
 20
-58.25
 30
0.0
 70
     8
  0
VERTEX
  5
398
330
382
100
AcDbEntity
  8
ガラス
  6
Continuous
100
AcDbVertex
100
AcDb2dVertex
 10
-68.77500000000001
 20
-58.275
 30
0.0
 70
     8
  0
VERTEX
  5
399
330
382
100
AcDbEntity
  8
ガラス
  6
Continuous
100
AcDbVertex
100
AcDb2dVertex
 10
-68.72499999999999
 20
-58.3
 30
0.0
 70
     8
  0
VERTEX
  5
39A
330
382
100
AcDbEntity
  8
ガラス
  6
Continuous
100
AcDbVertex
100
AcDb2dVertex
 10
-68.675
 20
-58.325
 30
0.0
 70
     8
  0
VERTEX
  5
39B
330
382
100
AcDbEntity
  8
ガラス
  6
Continuous
100
AcDbVertex
100
AcDb2dVertex
 10
-68.625
 20
-58.35
 30
0.0
 70
     8
  0
VERTEX
  5
39C
330
382
100
AcDbEntity
  8
ガラス
  6
Continuous
100
AcDbVertex
100
AcDb2dVertex
 10
-68.575
 20
-58.375
 30
0.0
 70
     8
  0
VERTEX
  5
39D
330
382
100
AcDbEntity
  8
ガラス
  6
Continuous
100
AcDbVertex
100
AcDb2dVertex
 10
-68.52500000000001
 20
-58.425
 30
0.0
 70
     8
  0
VERTEX
  5
39E
330
382
100
AcDbEntity
  8
ガラス
  6
Continuous
100
AcDbVertex
100
AcDb2dVertex
 10
-68.47499999999999
 20
-58.45
 30
0.0
 70
     8
  0
VERTEX
  5
39F
330
382
100
AcDbEntity
  8
ガラス
  6
Continuous
100
AcDbVertex
100
AcDb2dVertex
 10
-68.425
 20
-58.5
 30
0.0
 70
     8
  0
VERTEX
  5
3A0
330
382
100
AcDbEntity
  8
ガラス
  6
Continuous
100
AcDbVertex
100
AcDb2dVertex
 10
-68.375
 20
-58.525
 30
0.0
 70
     8
  0
VERTEX
  5
3A1
330
382
100
AcDbEntity
  8
ガラス
  6
Continuous
100
AcDbVertex
100
AcDb2dVertex
 10
-68.34999999999999
 20
-58.575
 30
0.0
 70
     8
  0
VERTEX
  5
3A2
330
382
100
AcDbEntity
  8
ガラス
  6
Continuous
100
AcDbVertex
100
AcDb2dVertex
 10
-68.3
 20
-58.625
 30
0.0
 70
     8
  0
VERTEX
  5
3A3
330
382
100
AcDbEntity
  8
ガラス
  6
Continuous
100
AcDbVertex
100
AcDb2dVertex
 10
-68.25
 20
-58.65
 30
0.0
 70
     8
  0
VERTEX
  5
3A4
330
382
100
AcDbEntity
  8
ガラス
  6
Continuous
100
AcDbVertex
100
AcDb2dVertex
 10
-68.2
 20
-58.7
 30
0.0
 70
     8
  0
VERTEX
  5
3A5
330
382
100
AcDbEntity
  8
ガラス
  6
Continuous
100
AcDbVertex
100
AcDb2dVertex
 10
-68.175
 20
-58.75
 30
0.0
 70
     8
  0
VERTEX
  5
3A6
330
382
100
AcDbEntity
  8
ガラス
  6
Continuous
100
AcDbVertex
100
AcDb2dVertex
 10
-68.125
 20
-58.8
 30
0.0
 70
     8
  0
VERTEX
  5
3A7
330
382
100
AcDbEntity
  8
ガラス
  6
Continuous
100
AcDbVertex
100
AcDb2dVertex
 10
-68.075
 20
-58.85
 30
0.0
 70
     8
  0
VERTEX
  5
3A8
330
382
100
AcDbEntity
  8
ガラス
  6
Continuous
100
AcDbVertex
100
AcDb2dVertex
 10
-68.02500000000001
 20
-58.9
 30
0.0
 70
     8
  0
VERTEX
  5
3A9
330
382
100
AcDbEntity
  8
ガラス
  6
Continuous
100
AcDbVertex
100
AcDb2dVertex
 10
-68.0
 20
-58.95
 30
0.0
 70
     8
  0
VERTEX
  5
3AA
330
382
100
AcDbEntity
  8
ガラス
  6
Continuous
100
AcDbVertex
100
AcDb2dVertex
 10
-67.95
 20
-59.0
 30
0.0
 70
     8
  0
VERTEX
  5
3AB
330
382
100
AcDbEntity
  8
ガラス
  6
Continuous
100
AcDbVertex
100
AcDb2dVertex
 10
-67.90000000000001
 20
-59.05
 30
0.0
 70
     8
  0
SEQEND
  5
3AC
330
382
100
AcDbEntity
  8
0
  0
POLYLINE
  5
3AD
330
381
100
AcDbEntity
  8
ガラス
  6
Continuous
100
AcDb2dPolyline
 66
     1
 10
0.0
 20
0.0
 30
0.0
 70
     4
  0
VERTEX
  5
3AE
330
3AD
100
AcDbEntity
  8
ガラス
  6
Continuous
100
AcDbVertex
100
AcDb2dVertex
 10
-67.90000000000001
 20
-59.05
 30
0.0
 70
     8
  0
VERTEX
  5
3AF
330
3AD
100
AcDbEntity
  8
ガラス
  6
Continuous
100
AcDbVertex
100
AcDb2dVertex
 10
-67.95
 20
-59.05
 30
0.0
 70
     8
  0
VERTEX
  5
3B0
330
3AD
100
AcDbEntity
  8
ガラス
  6
Continuous
100
AcDbVertex
100
AcDb2dVertex
 10
-68.0
 20
-59.05
 30
0.0
 70
     8
  0
VERTEX
  5
3B1
330
3AD
100
AcDbEntity
  8
ガラス
  6
Continuous
100
AcDbVertex
100
AcDb2dVertex
 10
-68.05
 20
-59.05
 30
0.0
 70
     8
  0
VERTEX
  5
3B2
330
3AD
100
AcDbEntity
  8
ガラス
  6
Continuous
100
AcDbVertex
100
AcDb2dVertex
 10
-68.075
 20
-59.075
 30
0.0
 70
     8
  0
VERTEX
  5
3B3
330
3AD
100
AcDbEntity
  8
ガラス
  6
Continuous
100
AcDbVertex
100
AcDb2dVertex
 10
-68.125
 20
-59.075
 30
0.0
 70
     8
  0
VERTEX
  5
3B4
330
3AD
100
AcDbEntity
  8
ガラス
  6
Continuous
100
AcDbVertex
100
AcDb2dVertex
 10
-68.175
 20
-59.075
 30
0.0
 70
     8
  0
VERTEX
  5
3B5
330
3AD
100
AcDbEntity
  8
ガラス
  6
Continuous
100
AcDbVertex
100
AcDb2dVertex
 10
-68.2
 20
-59.075
 30
0.0
 70
     8
  0
VERTEX
  5
3B6
330
3AD
100
AcDbEntity
  8
ガラス
  6
Continuous
100
AcDbVertex
100
AcDb2dVertex
 10
-68.25
 20
-59.075
 30
0.0
 70
     8
  0
VERTEX
  5
3B7
330
3AD
100
AcDbEntity
  8
ガラス
  6
Continuous
100
AcDbVertex
100
AcDb2dVertex
 10
-68.3
 20
-59.075
 30
0.0
 70
     8
  0
VERTEX
  5
3B8
330
3AD
100
AcDbEntity
  8
ガラス
  6
Continuous
100
AcDbVertex
100
AcDb2dVertex
 10
-68.34999999999999
 20
-59.1
 30
0.0
 70
     8
  0
VERTEX
  5
3B9
330
3AD
100
AcDbEntity
  8
ガラス
  6
Continuous
100
AcDbVertex
100
AcDb2dVertex
 10
-68.375
 20
-59.1
 30
0.0
 70
     8
  0
VERTEX
  5
3BA
330
3AD
100
AcDbEntity
  8
ガラス
  6
Continuous
100
AcDbVertex
100
AcDb2dVertex
 10
-68.425
 20
-59.1
 30
0.0
 70
     8
  0
VERTEX
  5
3BB
330
3AD
100
AcDbEntity
  8
ガラス
  6
Continuous
100
AcDbVertex
100
AcDb2dVertex
 10
-68.47499999999999
 20
-59.1
 30
0.0
 70
     8
  0
VERTEX
  5
3BC
330
3AD
100
AcDbEntity
  8
ガラス
  6
Continuous
100
AcDbVertex
100
AcDb2dVertex
 10
-68.5
 20
-59.125
 30
0.0
 70
     8
  0
VERTEX
  5
3BD
330
3AD
100
AcDbEntity
  8
ガラス
  6
Continuous
100
AcDbVertex
100
AcDb2dVertex
 10
-68.55
 20
-59.125
 30
0.0
 70
     8
  0
VERTEX
  5
3BE
330
3AD
100
AcDbEntity
  8
ガラス
  6
Continuous
100
AcDbVertex
100
AcDb2dVertex
 10
-68.59999999999999
 20
-59.125
 30
0.0
 70
     8
  0
VERTEX
  5
3BF
330
3AD
100
AcDbEntity
  8
ガラス
  6
Continuous
100
AcDbVertex
100
AcDb2dVertex
 10
-68.625
 20
-59.125
 30
0.0
 70
     8
  0
VERTEX
  5
3C0
330
3AD
100
AcDbEntity
  8
ガラス
  6
Continuous
100
AcDbVertex
100
AcDb2dVertex
 10
-68.675
 20
-59.15
 30
0.0
 70
     8
  0
VERTEX
  5
3C1
330
3AD
100
AcDbEntity
  8
ガラス
  6
Continuous
100
AcDbVertex
100
AcDb2dVertex
 10
-68.72499999999999
 20
-59.15
 30
0.0
 70
     8
  0
VERTEX
  5
3C2
330
3AD
100
AcDbEntity
  8
ガラス
  6
Continuous
100
AcDbVertex
100
AcDb2dVertex
 10
-68.75
 20
-59.15
 30
0.0
 70
     8
  0
VERTEX
  5
3C3
330
3AD
100
AcDbEntity
  8
ガラス
  6
Continuous
100
AcDbVertex
100
AcDb2dVertex
 10
-68.8
 20
-59.175
 30
0.0
 70
     8
  0
VERTEX
  5
3C4
330
3AD
100
AcDbEntity
  8
ガラス
  6
Continuous
100
AcDbVertex
100
AcDb2dVertex
 10
-68.84999999999999
 20
-59.175
 30
0.0
 70
     8
  0
VERTEX
  5
3C5
330
3AD
100
AcDbEntity
  8
ガラス
  6
Continuous
100
AcDbVertex
100
AcDb2dVertex
 10
-68.875
 20
-59.2
 30
0.0
 70
     8
  0
VERTEX
  5
3C6
330
3AD
100
AcDbEntity
  8
ガラス
  6
Continuous
100
AcDbVertex
100
AcDb2dVertex
 10
-68.925
 20
-59.2
 30
0.0
 70
     8
  0
VERTEX
  5
3C7
330
3AD
100
AcDbEntity
  8
ガラス
  6
Continuous
100
AcDbVertex
100
AcDb2dVertex
 10
-68.97499999999999
 20
-59.225
 30
0.0
 70
     8
  0
VERTEX
  5
3C8
330
3AD
100
AcDbEntity
  8
ガラス
  6
Continuous
100
AcDbVertex
100
AcDb2dVertex
 10
-69.0
 20
-59.225
 30
0.0
 70
     8
  0
VERTEX
  5
3C9
330
3AD
100
AcDbEntity
  8
ガラス
  6
Continuous
100
AcDbVertex
100
AcDb2dVertex
 10
-69.05
 20
-59.25
 30
0.0
 70
     8
  0
VERTEX
  5
3CA
330
3AD
100
AcDbEntity
  8
ガラス
  6
Continuous
100
AcDbVertex
100
AcDb2dVertex
 10
-69.09999999999999
 20
-59.25
 30
0.0
 70
     8
  0
VERTEX
  5
3CB
330
3AD
100
AcDbEntity
  8
ガラス
  6
Continuous
100
AcDbVertex
100
AcDb2dVertex
 10
-69.125
 20
-59.275
 30
0.0
 70
     8
  0
VERTEX
  5
3CC
330
3AD
100
AcDbEntity
  8
ガラス
  6
Continuous
100
AcDbVertex
100
AcDb2dVertex
 10
-69.175
 20
-59.275
 30
0.0
 70
     8
  0
VERTEX
  5
3CD
330
3AD
100
AcDbEntity
  8
ガラス
  6
Continuous
100
AcDbVertex
100
AcDb2dVertex
 10
-69.22499999999999
 20
-59.3
 30
0.0
 70
     8
  0
VERTEX
  5
3CE
330
3AD
100
AcDbEntity
  8
ガラス
  6
Continuous
100
AcDbVertex
100
AcDb2dVertex
 10
-69.25
 20
-59.3
 30
0.0
 70
     8
  0
VERTEX
  5
3CF
330
3AD
100
AcDbEntity
  8
ガラス
  6
Continuous
100
AcDbVertex
100
AcDb2dVertex
 10
-69.3
 20
-59.325
 30
0.0
 70
     8
  0
VERTEX
  5
3D0
330
3AD
100
AcDbEntity
  8
ガラス
  6
Continuous
100
AcDbVertex
100
AcDb2dVertex
 10
-69.325
 20
-59.35
 30
0.0
 70
     8
  0
VERTEX
  5
3D1
330
3AD
100
AcDbEntity
  8
ガラス
  6
Continuous
100
AcDbVertex
100
AcDb2dVertex
 10
-69.375
 20
-59.35
 30
0.0
 70
     8
  0
VERTEX
  5
3D2
330
3AD
100
AcDbEntity
  8
ガラス
  6
Continuous
100
AcDbVertex
100
AcDb2dVertex
 10
-69.425
 20
-59.375
 30
0.0
 70
     8
  0
VERTEX
  5
3D3
330
3AD
100
AcDbEntity
  8
ガラス
  6
Continuous
100
AcDbVertex
100
AcDb2dVertex
 10
-69.45
 20
-59.4
 30
0.0
 70
     8
  0
VERTEX
  5
3D4
330
3AD
100
AcDbEntity
  8
ガラス
  6
Continuous
100
AcDbVertex
100
AcDb2dVertex
 10
-69.5
 20
-59.4
 30
0.0
 70
     8
  0
VERTEX
  5
3D5
330
3AD
100
AcDbEntity
  8
ガラス
  6
Continuous
100
AcDbVertex
100
AcDb2dVertex
 10
-69.52500000000001
 20
-59.425
 30
0.0
 70
     8
  0
VERTEX
  5
3D6
330
3AD
100
AcDbEntity
  8
ガラス
  6
Continuous
100
AcDbVertex
100
AcDb2dVertex
 10
-69.575
 20
-59.425
 30
0.0
 70
     8
  0
SEQEND
  5
3D7
330
3AD
100
AcDbEntity
  8
0
  0
ARC
  5
3D8
330
381
100
AcDbEntity
  8
ガラス
  6
Continuous
100
AcDbCircle
 10
-69.80426
 20
-58.800536
 30
0.0
 40
0.668594
100
AcDbArc
 50
111.203091
 51
291.203091
  0
ENDBLK
  5
3D9
330
381
100
AcDbEntity
  8
0
100
AcDbBlockEnd
  0
BLOCK
  5
3DA
330
3DB
100
AcDbEntity
  8
0
100
AcDbBlockBegin
  2
*U13
 70
     1
 71
     0
 10
0.0
 20
0.0
 30
0.0
  3
*U13
  1

  0
POLYLINE
  5
3DC
330
3DB
100
AcDbEntity
  8
ガラス
  6
Continuous
100
AcDb2dPolyline
 66
     1
 10
0.0
 20
0.0
 30
0.0
 70
     4
  0
VERTEX
  5
3DD
330
3DC
100
AcDbEntity
  8
ガラス
  6
Continuous
100
AcDbVertex
100
AcDb2dVertex
 10
-62.825
 20
-57.175
 30
0.0
 70
     8
  0
VERTEX
  5
3DE
330
3DC
100
AcDbEntity
  8
ガラス
  6
Continuous
100
AcDbVertex
100
AcDb2dVertex
 10
-62.775
 20
-57.175
 30
0.0
 70
     8
  0
VERTEX
  5
3DF
330
3DC
100
AcDbEntity
  8
ガラス
  6
Continuous
100
AcDbVertex
100
AcDb2dVertex
 10
-62.7
 20
-57.175
 30
0.0
 70
     8
  0
VERTEX
  5
3E0
330
3DC
100
AcDbEntity
  8
ガラス
  6
Continuous
100
AcDbVertex
100
AcDb2dVertex
 10
-62.625
 20
-57.15
 30
0.0
 70
     8
  0
VERTEX
  5
3E1
330
3DC
100
AcDbEntity
  8
ガラス
  6
Continuous
100
AcDbVertex
100
AcDb2dVertex
 10
-62.575
 20
-57.15
 30
0.0
 70
     8
  0
VERTEX
  5
3E2
330
3DC
100
AcDbEntity
  8
ガラス
  6
Continuous
100
AcDbVertex
100
AcDb2dVertex
 10
-62.5
 20
-57.15
 30
0.0
 70
     8
  0
VERTEX
  5
3E3
330
3DC
100
AcDbEntity
  8
ガラス
  6
Continuous
100
AcDbVertex
100
AcDb2dVertex
 10
-62.45
 20
-57.15
 30
0.0
 70
     8
  0
VERTEX
  5
3E4
330
3DC
100
AcDbEntity
  8
ガラス
  6
Continuous
100
AcDbVertex
100
AcDb2dVertex
 10
-62.375
 20
-57.15
 30
0.0
 70
     8
  0
VERTEX
  5
3E5
330
3DC
100
AcDbEntity
  8
ガラス
  6
Continuous
100
AcDbVertex
100
AcDb2dVertex
 10
-62.325
 20
-57.15
 30
0.0
 70
     8
  0
VERTEX
  5
3E6
330
3DC
100
AcDbEntity
  8
ガラス
  6
Continuous
100
AcDbVertex
100
AcDb2dVertex
 10
-62.25
 20
-57.15
 30
0.0
 70
     8
  0
VERTEX
  5
3E7
330
3DC
100
AcDbEntity
  8
ガラス
  6
Continuous
100
AcDbVertex
100
AcDb2dVertex
 10
-62.175
 20
-57.15
 30
0.0
 70
     8
  0
VERTEX
  5
3E8
330
3DC
100
AcDbEntity
  8
ガラス
  6
Continuous
100
AcDbVertex
100
AcDb2dVertex
 10
-62.125
 20
-57.15
 30
0.0
 70
     8
  0
VERTEX
  5
3E9
330
3DC
100
AcDbEntity
  8
ガラス
  6
Continuous
100
AcDbVertex
100
AcDb2dVertex
 10
-62.075
 20
-57.15
 30
0.0
 70
     8
  0
VERTEX
  5
3EA
330
3DC
100
AcDbEntity
  8
ガラス
  6
Continuous
100
AcDbVertex
100
AcDb2dVertex
 10
-62.0
 20
-57.15
 30
0.0
 70
     8
  0
VERTEX
  5
3EB
330
3DC
100
AcDbEntity
  8
ガラス
  6
Continuous
100
AcDbVertex
100
AcDb2dVertex
 10
-61.95
 20
-57.15
 30
0.0
 70
     8
  0
VERTEX
  5
3EC
330
3DC
100
AcDbEntity
  8
ガラス
  6
Continuous
100
AcDbVertex
100
AcDb2dVertex
 10
-61.875
 20
-57.15
 30
0.0
 70
     8
  0
VERTEX
  5
3ED
330
3DC
100
AcDbEntity
  8
ガラス
  6
Continuous
100
AcDbVertex
100
AcDb2dVertex
 10
-61.825
 20
-57.175
 30
0.0
 70
     8
  0
VERTEX
  5
3EE
330
3DC
100
AcDbEntity
  8
ガラス
  6
Continuous
100
AcDbVertex
100
AcDb2dVertex
 10
-61.775
 20
-57.175
 30
0.0
 70
     8
  0
VERTEX
  5
3EF
330
3DC
100
AcDbEntity
  8
ガラス
  6
Continuous
100
AcDbVertex
100
AcDb2dVertex
 10
-61.7
 20
-57.2
 30
0.0
 70
     8
  0
VERTEX
  5
3F0
330
3DC
100
AcDbEntity
  8
ガラス
  6
Continuous
100
AcDbVertex
100
AcDb2dVertex
 10
-61.65
 20
-57.225
 30
0.0
 70
     8
  0
VERTEX
  5
3F1
330
3DC
100
AcDbEntity
  8
ガラス
  6
Continuous
100
AcDbVertex
100
AcDb2dVertex
 10
-61.6
 20
-57.225
 30
0.0
 70
     8
  0
VERTEX
  5
3F2
330
3DC
100
AcDbEntity
  8
ガラス
  6
Continuous
100
AcDbVertex
100
AcDb2dVertex
 10
-61.55
 20
-57.25
 30
0.0
 70
     8
  0
VERTEX
  5
3F3
330
3DC
100
AcDbEntity
  8
ガラス
  6
Continuous
100
AcDbVertex
100
AcDb2dVertex
 10
-61.5
 20
-57.275
 30
0.0
 70
     8
  0
VERTEX
  5
3F4
330
3DC
100
AcDbEntity
  8
ガラス
  6
Continuous
100
AcDbVertex
100
AcDb2dVertex
 10
-61.45
 20
-57.3
 30
0.0
 70
     8
  0
VERTEX
  5
3F5
330
3DC
100
AcDbEntity
  8
ガラス
  6
Continuous
100
AcDbVertex
100
AcDb2dVertex
 10
-61.4
 20
-57.35
 30
0.0
 70
     8
  0
VERTEX
  5
3F6
330
3DC
100
AcDbEntity
  8
ガラス
  6
Continuous
100
AcDbVertex
100
AcDb2dVertex
 10
-61.35
 20
-57.375
 30
0.0
 70
     8
  0
VERTEX
  5
3F7
330
3DC
100
AcDbEntity
  8
ガラス
  6
Continuous
100
AcDbVertex
100
AcDb2dVertex
 10
-61.3
 20
-57.4
 30
0.0
 70
     8
  0
VERTEX
  5
3F8
330
3DC
100
AcDbEntity
  8
ガラス
  6
Continuous
100
AcDbVertex
100
AcDb2dVertex
 10
-61.25
 20
-57.45
 30
0.0
 70
     8
  0
VERTEX
  5
3F9
330
3DC
100
AcDbEntity
  8
ガラス
  6
Continuous
100
AcDbVertex
100
AcDb2dVertex
 10
-61.2
 20
-57.475
 30
0.0
 70
     8
  0
VERTEX
  5
3FA
330
3DC
100
AcDbEntity
  8
ガラス
  6
Continuous
100
AcDbVertex
100
AcDb2dVertex
 10
-61.15
 20
-57.525
 30
0.0
 70
     8
  0
VERTEX
  5
3FB
330
3DC
100
AcDbEntity
  8
ガラス
  6
Continuous
100
AcDbVertex
100
AcDb2dVertex
 10
-61.1
 20
-57.575
 30
0.0
 70
     8
  0
VERTEX
  5
3FC
330
3DC
100
AcDbEntity
  8
ガラス
  6
Continuous
100
AcDbVertex
100
AcDb2dVertex
 10
-61.075
 20
-57.6
 30
0.0
 70
     8
  0
VERTEX
  5
3FD
330
3DC
100
AcDbEntity
  8
ガラス
  6
Continuous
100
AcDbVertex
100
AcDb2dVertex
 10
-61.025
 20
-57.65
 30
0.0
 70
     8
  0
VERTEX
  5
3FE
330
3DC
100
AcDbEntity
  8
ガラス
  6
Continuous
100
AcDbVertex
100
AcDb2dVertex
 10
-60.975
 20
-57.7
 30
0.0
 70
     8
  0
VERTEX
  5
3FF
330
3DC
100
AcDbEntity
  8
ガラス
  6
Continuous
100
AcDbVertex
100
AcDb2dVertex
 10
-60.925
 20
-57.75
 30
0.0
 70
     8
  0
VERTEX
  5
400
330
3DC
100
AcDbEntity
  8
ガラス
  6
Continuous
100
AcDbVertex
100
AcDb2dVertex
 10
-60.9
 20
-57.8
 30
0.0
 70
     8
  0
VERTEX
  5
401
330
3DC
100
AcDbEntity
  8
ガラス
  6
Continuous
100
AcDbVertex
100
AcDb2dVertex
 10
-60.85
 20
-57.85
 30
0.0
 70
     8
  0
VERTEX
  5
402
330
3DC
100
AcDbEntity
  8
ガラス
  6
Continuous
100
AcDbVertex
100
AcDb2dVertex
 10
-60.8
 20
-57.9
 30
0.0
 70
     8
  0
VERTEX
  5
403
330
3DC
100
AcDbEntity
  8
ガラス
  6
Continuous
100
AcDbVertex
100
AcDb2dVertex
 10
-60.775
 20
-57.95
 30
0.0
 70
     8
  0
VERTEX
  5
404
330
3DC
100
AcDbEntity
  8
ガラス
  6
Continuous
100
AcDbVertex
100
AcDb2dVertex
 10
-60.725
 20
-58.0
 30
0.0
 70
     8
  0
VERTEX
  5
405
330
3DC
100
AcDbEntity
  8
ガラス
  6
Continuous
100
AcDbVertex
100
AcDb2dVertex
 10
-60.675
 20
-58.025
 30
0.0
 70
     8
  0
SEQEND
  5
406
330
3DC
100
AcDbEntity
  8
0
  0
POLYLINE
  5
407
330
3DB
100
AcDbEntity
  8
ガラス
  6
Continuous
100
AcDb2dPolyline
 66
     1
 10
0.0
 20
0.0
 30
0.0
 70
     4
  0
VERTEX
  5
408
330
407
100
AcDbEntity
  8
ガラス
  6
Continuous
100
AcDbVertex
100
AcDb2dVertex
 10
-60.675
 20
-58.025
 30
0.0
 70
     8
  0
VERTEX
  5
409
330
407
100
AcDbEntity
  8
ガラス
  6
Continuous
100
AcDbVertex
100
AcDb2dVertex
 10
-60.725
 20
-58.05
 30
0.0
 70
     8
  0
VERTEX
  5
40A
330
407
100
AcDbEntity
  8
ガラス
  6
Continuous
100
AcDbVertex
100
AcDb2dVertex
 10
-60.775
 20
-58.05
 30
0.0
 70
     8
  0
VERTEX
  5
40B
330
407
100
AcDbEntity
  8
ガラス
  6
Continuous
100
AcDbVertex
100
AcDb2dVertex
 10
-60.8
 20
-58.05
 30
0.0
 70
     8
  0
VERTEX
  5
40C
330
407
100
AcDbEntity
  8
ガラス
  6
Continuous
100
AcDbVertex
100
AcDb2dVertex
 10
-60.85
 20
-58.05
 30
0.0
 70
     8
  0
VERTEX
  5
40D
330
407
100
AcDbEntity
  8
ガラス
  6
Continuous
100
AcDbVertex
100
AcDb2dVertex
 10
-60.9
 20
-58.05
 30
0.0
 70
     8
  0
VERTEX
  5
40E
330
407
100
AcDbEntity
  8
ガラス
  6
Continuous
100
AcDbVertex
100
AcDb2dVertex
 10
-60.95
 20
-58.05
 30
0.0
 70
     8
  0
VERTEX
  5
40F
330
407
100
AcDbEntity
  8
ガラス
  6
Continuous
100
AcDbVertex
100
AcDb2dVertex
 10
-60.975
 20
-58.075
 30
0.0
 70
     8
  0
VERTEX
  5
410
330
407
100
AcDbEntity
  8
ガラス
  6
Continuous
100
AcDbVertex
100
AcDb2dVertex
 10
-61.025
 20
-58.075
 30
0.0
 70
     8
  0
VERTEX
  5
411
330
407
100
AcDbEntity
  8
ガラス
  6
Continuous
100
AcDbVertex
100
AcDb2dVertex
 10
-61.075
 20
-58.075
 30
0.0
 70
     8
  0
VERTEX
  5
412
330
407
100
AcDbEntity
  8
ガラス
  6
Continuous
100
AcDbVertex
100
AcDb2dVertex
 10
-61.1
 20
-58.075
 30
0.0
 70
     8
  0
VERTEX
  5
413
330
407
100
AcDbEntity
  8
ガラス
  6
Continuous
100
AcDbVertex
100
AcDb2dVertex
 10
-61.15
 20
-58.075
 30
0.0
 70
     8
  0
VERTEX
  5
414
330
407
100
AcDbEntity
  8
ガラス
  6
Continuous
100
AcDbVertex
100
AcDb2dVertex
 10
-61.2
 20
-58.1
 30
0.0
 70
     8
  0
VERTEX
  5
415
330
407
100
AcDbEntity
  8
ガラス
  6
Continuous
100
AcDbVertex
100
AcDb2dVertex
 10
-61.25
 20
-58.1
 30
0.0
 70
     8
  0
VERTEX
  5
416
330
407
100
AcDbEntity
  8
ガラス
  6
Continuous
100
AcDbVertex
100
AcDb2dVertex
 10
-61.275
 20
-58.1
 30
0.0
 70
     8
  0
VERTEX
  5
417
330
407
100
AcDbEntity
  8
ガラス
  6
Continuous
100
AcDbVertex
100
AcDb2dVertex
 10
-61.325
 20
-58.1
 30
0.0
 70
     8
  0
VERTEX
  5
418
330
407
100
AcDbEntity
  8
ガラス
  6
Continuous
100
AcDbVertex
100
AcDb2dVertex
 10
-61.375
 20
-58.125
 30
0.0
 70
     8
  0
VERTEX
  5
419
330
407
100
AcDbEntity
  8
ガラス
  6
Continuous
100
AcDbVertex
100
AcDb2dVertex
 10
-61.4
 20
-58.125
 30
0.0
 70
     8
  0
VERTEX
  5
41A
330
407
100
AcDbEntity
  8
ガラス
  6
Continuous
100
AcDbVertex
100
AcDb2dVertex
 10
-61.45
 20
-58.125
 30
0.0
 70
     8
  0
VERTEX
  5
41B
330
407
100
AcDbEntity
  8
ガラス
  6
Continuous
100
AcDbVertex
100
AcDb2dVertex
 10
-61.5
 20
-58.15
 30
0.0
 70
     8
  0
VERTEX
  5
41C
330
407
100
AcDbEntity
  8
ガラス
  6
Continuous
100
AcDbVertex
100
AcDb2dVertex
 10
-61.525
 20
-58.15
 30
0.0
 70
     8
  0
VERTEX
  5
41D
330
407
100
AcDbEntity
  8
ガラス
  6
Continuous
100
AcDbVertex
100
AcDb2dVertex
 10
-61.575
 20
-58.15
 30
0.0
 70
     8
  0
VERTEX
  5
41E
330
407
100
AcDbEntity
  8
ガラス
  6
Continuous
100
AcDbVertex
100
AcDb2dVertex
 10
-61.625
 20
-58.175
 30
0.0
 70
     8
  0
VERTEX
  5
41F
330
407
100
AcDbEntity
  8
ガラス
  6
Continuous
100
AcDbVertex
100
AcDb2dVertex
 10
-61.65
 20
-58.175
 30
0.0
 70
     8
  0
VERTEX
  5
420
330
407
100
AcDbEntity
  8
ガラス
  6
Continuous
100
AcDbVertex
100
AcDb2dVertex
 10
-61.7
 20
-58.2
 30
0.0
 70
     8
  0
VERTEX
  5
421
330
407
100
AcDbEntity
  8
ガラス
  6
Continuous
100
AcDbVertex
100
AcDb2dVertex
 10
-61.75
 20
-58.2
 30
0.0
 70
     8
  0
VERTEX
  5
422
330
407
100
AcDbEntity
  8
ガラス
  6
Continuous
100
AcDbVertex
100
AcDb2dVertex
 10
-61.775
 20
-58.225
 30
0.0
 70
     8
  0
VERTEX
  5
423
330
407
100
AcDbEntity
  8
ガラス
  6
Continuous
100
AcDbVertex
100
AcDb2dVertex
 10
-61.825
 20
-58.225
 30
0.0
 70
     8
  0
VERTEX
  5
424
330
407
100
AcDbEntity
  8
ガラス
  6
Continuous
100
AcDbVertex
100
AcDb2dVertex
 10
-61.85
 20
-58.25
 30
0.0
 70
     8
  0
VERTEX
  5
425
330
407
100
AcDbEntity
  8
ガラス
  6
Continuous
100
AcDbVertex
100
AcDb2dVertex
 10
-61.9
 20
-58.25
 30
0.0
 70
     8
  0
VERTEX
  5
426
330
407
100
AcDbEntity
  8
ガラス
  6
Continuous
100
AcDbVertex
100
AcDb2dVertex
 10
-61.95
 20
-58.275
 30
0.0
 70
     8
  0
VERTEX
  5
427
330
407
100
AcDbEntity
  8
ガラス
  6
Continuous
100
AcDbVertex
100
AcDb2dVertex
 10
-61.975
 20
-58.275
 30
0.0
 70
     8
  0
VERTEX
  5
428
330
407
100
AcDbEntity
  8
ガラス
  6
Continuous
100
AcDbVertex
100
AcDb2dVertex
 10
-62.025
 20
-58.3
 30
0.0
 70
     8
  0
VERTEX
  5
429
330
407
100
AcDbEntity
  8
ガラス
  6
Continuous
100
AcDbVertex
100
AcDb2dVertex
 10
-62.075
 20
-58.325
 30
0.0
 70
     8
  0
VERTEX
  5
42A
330
407
100
AcDbEntity
  8
ガラス
  6
Continuous
100
AcDbVertex
100
AcDb2dVertex
 10
-62.1
 20
-58.325
 30
0.0
 70
     8
  0
VERTEX
  5
42B
330
407
100
AcDbEntity
  8
ガラス
  6
Continuous
100
AcDbVertex
100
AcDb2dVertex
 10
-62.15
 20
-58.35
 30
0.0
 70
     8
  0
VERTEX
  5
42C
330
407
100
AcDbEntity
  8
ガラス
  6
Continuous
100
AcDbVertex
100
AcDb2dVertex
 10
-62.175
 20
-58.375
 30
0.0
 70
     8
  0
VERTEX
  5
42D
330
407
100
AcDbEntity
  8
ガラス
  6
Continuous
100
AcDbVertex
100
AcDb2dVertex
 10
-62.225
 20
-58.375
 30
0.0
 70
     8
  0
VERTEX
  5
42E
330
407
100
AcDbEntity
  8
ガラス
  6
Continuous
100
AcDbVertex
100
AcDb2dVertex
 10
-62.275
 20
-58.4
 30
0.0
 70
     8
  0
VERTEX
  5
42F
330
407
100
AcDbEntity
  8
ガラス
  6
Continuous
100
AcDbVertex
100
AcDb2dVertex
 10
-62.3
 20
-58.4
 30
0.0
 70
     8
  0
VERTEX
  5
430
330
407
100
AcDbEntity
  8
ガラス
  6
Continuous
100
AcDbVertex
100
AcDb2dVertex
 10
-62.35
 20
-58.425
 30
0.0
 70
     8
  0
SEQEND
  5
431
330
407
100
AcDbEntity
  8
0
  0
ARC
  5
432
330
3DB
100
AcDbEntity
  8
ガラス
  6
Continuous
100
AcDbCircle
 10
-62.575041
 20
-57.790244
 30
0.0
 40
0.668594
100
AcDbArc
 50
111.203091
 51
291.203091
  0
ENDBLK
  5
433
330
3DB
100
AcDbEntity
  8
0
100
AcDbBlockEnd
  0
BLOCK
  5
434
330
435
100
AcDbEntity
  8
0
100
AcDbBlockBegin
  2
*U14
 70
     1
 71
     0
 10
0.0
 20
0.0
 30
0.0
  3
*U14
  1

  0
POLYLINE
  5
436
330
435
100
AcDbEntity
  8
ガラス
  6
Continuous
100
AcDb2dPolyline
 66
     1
 10
0.0
 20
0.0
 30
0.0
 70
     4
  0
VERTEX
  5
437
330
436
100
AcDbEntity
  8
ガラス
  6
Continuous
100
AcDbVertex
100
AcDb2dVertex
 10
-52.025
 20
12.55
 30
0.0
 70
     8
  0
VERTEX
  5
438
330
436
100
AcDbEntity
  8
ガラス
  6
Continuous
100
AcDbVertex
100
AcDb2dVertex
 10
-52.0
 20
12.6
 30
0.0
 70
     8
  0
VERTEX
  5
439
330
436
100
AcDbEntity
  8
ガラス
  6
Continuous
100
AcDbVertex
100
AcDb2dVertex
 10
-51.975
 20
12.675
 30
0.0
 70
     8
  0
VERTEX
  5
43A
330
436
100
AcDbEntity
  8
ガラス
  6
Continuous
100
AcDbVertex
100
AcDb2dVertex
 10
-51.975
 20
12.725
 30
0.0
 70
     8
  0
VERTEX
  5
43B
330
436
100
AcDbEntity
  8
ガラス
  6
Continuous
100
AcDbVertex
100
AcDb2dVertex
 10
-51.95
 20
12.8
 30
0.0
 70
     8
  0
VERTEX
  5
43C
330
436
100
AcDbEntity
  8
ガラス
  6
Continuous
100
AcDbVertex
100
AcDb2dVertex
 10
-51.925
 20
12.85
 30
0.0
 70
     8
  0
VERTEX
  5
43D
330
436
100
AcDbEntity
  8
ガラス
  6
Continuous
100
AcDbVertex
100
AcDb2dVertex
 10
-51.9
 20
12.925
 30
0.0
 70
     8
  0
VERTEX
  5
43E
330
436
100
AcDbEntity
  8
ガラス
  6
Continuous
100
AcDbVertex
100
AcDb2dVertex
 10
-51.9
 20
12.975
 30
0.0
 70
     8
  0
VERTEX
  5
43F
330
436
100
AcDbEntity
  8
ガラス
  6
Continuous
100
AcDbVertex
100
AcDb2dVertex
 10
-51.875
 20
13.05
 30
0.0
 70
     8
  0
VERTEX
  5
440
330
436
100
AcDbEntity
  8
ガラス
  6
Continuous
100
AcDbVertex
100
AcDb2dVertex
 10
-51.85
 20
13.1
 30
0.0
 70
     8
  0
VERTEX
  5
441
330
436
100
AcDbEntity
  8
ガラス
  6
Continuous
100
AcDbVertex
100
AcDb2dVertex
 10
-51.825
 20
13.15
 30
0.0
 70
     8
  0
VERTEX
  5
442
330
436
100
AcDbEntity
  8
ガラス
  6
Continuous
100
AcDbVertex
100
AcDb2dVertex
 10
-51.8
 20
13.225
 30
0.0
 70
     8
  0
VERTEX
  5
443
330
436
100
AcDbEntity
  8
ガラス
  6
Continuous
100
AcDbVertex
100
AcDb2dVertex
 10
-51.775
 20
13.275
 30
0.0
 70
     8
  0
VERTEX
  5
444
330
436
100
AcDbEntity
  8
ガラス
  6
Continuous
100
AcDbVertex
100
AcDb2dVertex
 10
-51.75
 20
13.325
 30
0.0
 70
     8
  0
VERTEX
  5
445
330
436
100
AcDbEntity
  8
ガラス
  6
Continuous
100
AcDbVertex
100
AcDb2dVertex
 10
-51.725
 20
13.375
 30
0.0
 70
     8
  0
VERTEX
  5
446
330
436
100
AcDbEntity
  8
ガラス
  6
Continuous
100
AcDbVertex
100
AcDb2dVertex
 10
-51.7
 20
13.425
 30
0.0
 70
     8
  0
VERTEX
  5
447
330
436
100
AcDbEntity
  8
ガラス
  6
Continuous
100
AcDbVertex
100
AcDb2dVertex
 10
-51.675
 20
13.475
 30
0.0
 70
     8
  0
VERTEX
  5
448
330
436
100
AcDbEntity
  8
ガラス
  6
Continuous
100
AcDbVertex
100
AcDb2dVertex
 10
-51.625
 20
13.525
 30
0.0
 70
     8
  0
VERTEX
  5
449
330
436
100
AcDbEntity
  8
ガラス
  6
Continuous
100
AcDbVertex
100
AcDb2dVertex
 10
-51.6
 20
13.575
 30
0.0
 70
     8
  0
VERTEX
  5
44A
330
436
100
AcDbEntity
  8
ガラス
  6
Continuous
100
AcDbVertex
100
AcDb2dVertex
 10
-51.55
 20
13.625
 30
0.0
 70
     8
  0
VERTEX
  5
44B
330
436
100
AcDbEntity
  8
ガラス
  6
Continuous
100
AcDbVertex
100
AcDb2dVertex
 10
-51.525
 20
13.675
 30
0.0
 70
     8
  0
VERTEX
  5
44C
330
436
100
AcDbEntity
  8
ガラス
  6
Continuous
100
AcDbVertex
100
AcDb2dVertex
 10
-51.475
 20
13.725
 30
0.0
 70
     8
  0
VERTEX
  5
44D
330
436
100
AcDbEntity
  8
ガラス
  6
Continuous
100
AcDbVertex
100
AcDb2dVertex
 10
-51.45
 20
13.75
 30
0.0
 70
     8
  0
VERTEX
  5
44E
330
436
100
AcDbEntity
  8
ガラス
  6
Continuous
100
AcDbVertex
100
AcDb2dVertex
 10
-51.4
 20
13.8
 30
0.0
 70
     8
  0
VERTEX
  5
44F
330
436
100
AcDbEntity
  8
ガラス
  6
Continuous
100
AcDbVertex
100
AcDb2dVertex
 10
-51.35
 20
13.825
 30
0.0
 70
     8
  0
VERTEX
  5
450
330
436
100
AcDbEntity
  8
ガラス
  6
Continuous
100
AcDbVertex
100
AcDb2dVertex
 10
-51.3
 20
13.85
 30
0.0
 70
     8
  0
VERTEX
  5
451
330
436
100
AcDbEntity
  8
ガラス
  6
Continuous
100
AcDbVertex
100
AcDb2dVertex
 10
-51.25
 20
13.9
 30
0.0
 70
     8
  0
VERTEX
  5
452
330
436
100
AcDbEntity
  8
ガラス
  6
Continuous
100
AcDbVertex
100
AcDb2dVertex
 10
-51.2
 20
13.925
 30
0.0
 70
     8
  0
VERTEX
  5
453
330
436
100
AcDbEntity
  8
ガラス
  6
Continuous
100
AcDbVertex
100
AcDb2dVertex
 10
-51.15
 20
13.95
 30
0.0
 70
     8
  0
VERTEX
  5
454
330
436
100
AcDbEntity
  8
ガラス
  6
Continuous
100
AcDbVertex
100
AcDb2dVertex
 10
-51.1
 20
13.975
 30
0.0
 70
     8
  0
VERTEX
  5
455
330
436
100
AcDbEntity
  8
ガラス
  6
Continuous
100
AcDbVertex
100
AcDb2dVertex
 10
-51.05
 20
14.0
 30
0.0
 70
     8
  0
VERTEX
  5
456
330
436
100
AcDbEntity
  8
ガラス
  6
Continuous
100
AcDbVertex
100
AcDb2dVertex
 10
-50.975
 20
14.025
 30
0.0
 70
     8
  0
VERTEX
  5
457
330
436
100
AcDbEntity
  8
ガラス
  6
Continuous
100
AcDbVertex
100
AcDb2dVertex
 10
-50.925
 20
14.05
 30
0.0
 70
     8
  0
VERTEX
  5
458
330
436
100
AcDbEntity
  8
ガラス
  6
Continuous
100
AcDbVertex
100
AcDb2dVertex
 10
-50.875
 20
14.075
 30
0.0
 70
     8
  0
VERTEX
  5
459
330
436
100
AcDbEntity
  8
ガラス
  6
Continuous
100
AcDbVertex
100
AcDb2dVertex
 10
-50.8
 20
14.1
 30
0.0
 70
     8
  0
VERTEX
  5
45A
330
436
100
AcDbEntity
  8
ガラス
  6
Continuous
100
AcDbVertex
100
AcDb2dVertex
 10
-50.75
 20
14.125
 30
0.0
 70
     8
  0
VERTEX
  5
45B
330
436
100
AcDbEntity
  8
ガラス
  6
Continuous
100
AcDbVertex
100
AcDb2dVertex
 10
-50.7
 20
14.15
 30
0.0
 70
     8
  0
VERTEX
  5
45C
330
436
100
AcDbEntity
  8
ガラス
  6
Continuous
100
AcDbVertex
100
AcDb2dVertex
 10
-50.625
 20
14.175
 30
0.0
 70
     8
  0
VERTEX
  5
45D
330
436
100
AcDbEntity
  8
ガラス
  6
Continuous
100
AcDbVertex
100
AcDb2dVertex
 10
-50.575
 20
14.2
 30
0.0
 70
     8
  0
VERTEX
  5
45E
330
436
100
AcDbEntity
  8
ガラス
  6
Continuous
100
AcDbVertex
100
AcDb2dVertex
 10
-50.5
 20
14.225
 30
0.0
 70
     8
  0
VERTEX
  5
45F
330
436
100
AcDbEntity
  8
ガラス
  6
Continuous
100
AcDbVertex
100
AcDb2dVertex
 10
-50.45
 20
14.225
 30
0.0
 70
     8
  0
SEQEND
  5
460
330
436
100
AcDbEntity
  8
0
  0
POLYLINE
  5
461
330
435
100
AcDbEntity
  8
ガラス
  6
Continuous
100
AcDb2dPolyline
 66
     1
 10
0.0
 20
0.0
 30
0.0
 70
     4
  0
VERTEX
  5
462
330
461
100
AcDbEntity
  8
ガラス
  6
Continuous
100
AcDbVertex
100
AcDb2dVertex
 10
-50.45
 20
14.225
 30
0.0
 70
     8
  0
VERTEX
  5
463
330
461
100
AcDbEntity
  8
ガラス
  6
Continuous
100
AcDbVertex
100
AcDb2dVertex
 10
-50.45
 20
14.2
 30
0.0
 70
     8
  0
VERTEX
  5
464
330
461
100
AcDbEntity
  8
ガラス
  6
Continuous
100
AcDbVertex
100
AcDb2dVertex
 10
-50.475
 20
14.15
 30
0.0
 70
     8
  0
VERTEX
  5
465
330
461
100
AcDbEntity
  8
ガラス
  6
Continuous
100
AcDbVertex
100
AcDb2dVertex
 10
-50.475
 20
14.1
 30
0.0
 70
     8
  0
VERTEX
  5
466
330
461
100
AcDbEntity
  8
ガラス
  6
Continuous
100
AcDbVertex
100
AcDb2dVertex
 10
-50.5
 20
14.075
 30
0.0
 70
     8
  0
VERTEX
  5
467
330
461
100
AcDbEntity
  8
ガラス
  6
Continuous
100
AcDbVertex
100
AcDb2dVertex
 10
-50.5
 20
14.025
 30
0.0
 70
     8
  0
VERTEX
  5
468
330
461
100
AcDbEntity
  8
ガラス
  6
Continuous
100
AcDbVertex
100
AcDb2dVertex
 10
-50.525
 20
14.0
 30
0.0
 70
     8
  0
VERTEX
  5
469
330
461
100
AcDbEntity
  8
ガラス
  6
Continuous
100
AcDbVertex
100
AcDb2dVertex
 10
-50.525
 20
13.95
 30
0.0
 70
     8
  0
VERTEX
  5
46A
330
461
100
AcDbEntity
  8
ガラス
  6
Continuous
100
AcDbVertex
100
AcDb2dVertex
 10
-50.525
 20
13.9
 30
0.0
 70
     8
  0
VERTEX
  5
46B
330
461
100
AcDbEntity
  8
ガラス
  6
Continuous
100
AcDbVertex
100
AcDb2dVertex
 10
-50.55
 20
13.875
 30
0.0
 70
     8
  0
VERTEX
  5
46C
330
461
100
AcDbEntity
  8
ガラス
  6
Continuous
100
AcDbVertex
100
AcDb2dVertex
 10
-50.55
 20
13.825
 30
0.0
 70
     8
  0
VERTEX
  5
46D
330
461
100
AcDbEntity
  8
ガラス
  6
Continuous
100
AcDbVertex
100
AcDb2dVertex
 10
-50.575
 20
13.775
 30
0.0
 70
     8
  0
VERTEX
  5
46E
330
461
100
AcDbEntity
  8
ガラス
  6
Continuous
100
AcDbVertex
100
AcDb2dVertex
 10
-50.575
 20
13.75
 30
0.0
 70
     8
  0
VERTEX
  5
46F
330
461
100
AcDbEntity
  8
ガラス
  6
Continuous
100
AcDbVertex
100
AcDb2dVertex
 10
-50.6
 20
13.7
 30
0.0
 70
     8
  0
VERTEX
  5
470
330
461
100
AcDbEntity
  8
ガラス
  6
Continuous
100
AcDbVertex
100
AcDb2dVertex
 10
-50.6
 20
13.65
 30
0.0
 70
     8
  0
VERTEX
  5
471
330
461
100
AcDbEntity
  8
ガラス
  6
Continuous
100
AcDbVertex
100
AcDb2dVertex
 10
-50.6
 20
13.6
 30
0.0
 70
     8
  0
VERTEX
  5
472
330
461
100
AcDbEntity
  8
ガラス
  6
Continuous
100
AcDbVertex
100
AcDb2dVertex
 10
-50.625
 20
13.575
 30
0.0
 70
     8
  0
VERTEX
  5
473
330
461
100
AcDbEntity
  8
ガラス
  6
Continuous
100
AcDbVertex
100
AcDb2dVertex
 10
-50.625
 20
13.525
 30
0.0
 70
     8
  0
VERTEX
  5
474
330
461
100
AcDbEntity
  8
ガラス
  6
Continuous
100
AcDbVertex
100
AcDb2dVertex
 10
-50.625
 20
13.475
 30
0.0
 70
     8
  0
VERTEX
  5
475
330
461
100
AcDbEntity
  8
ガラス
  6
Continuous
100
AcDbVertex
100
AcDb2dVertex
 10
-50.625
 20
13.45
 30
0.0
 70
     8
  0
VERTEX
  5
476
330
461
100
AcDbEntity
  8
ガラス
  6
Continuous
100
AcDbVertex
100
AcDb2dVertex
 10
-50.65
 20
13.4
 30
0.0
 70
     8
  0
VERTEX
  5
477
330
461
100
AcDbEntity
  8
ガラス
  6
Continuous
100
AcDbVertex
100
AcDb2dVertex
 10
-50.65
 20
13.35
 30
0.0
 70
     8
  0
VERTEX
  5
478
330
461
100
AcDbEntity
  8
ガラス
  6
Continuous
100
AcDbVertex
100
AcDb2dVertex
 10
-50.65
 20
13.325
 30
0.0
 70
     8
  0
VERTEX
  5
479
330
461
100
AcDbEntity
  8
ガラス
  6
Continuous
100
AcDbVertex
100
AcDb2dVertex
 10
-50.65
 20
13.275
 30
0.0
 70
     8
  0
VERTEX
  5
47A
330
461
100
AcDbEntity
  8
ガラス
  6
Continuous
100
AcDbVertex
100
AcDb2dVertex
 10
-50.675
 20
13.225
 30
0.0
 70
     8
  0
VERTEX
  5
47B
330
461
100
AcDbEntity
  8
ガラス
  6
Continuous
100
AcDbVertex
100
AcDb2dVertex
 10
-50.675
 20
13.2
 30
0.0
 70
     8
  0
VERTEX
  5
47C
330
461
100
AcDbEntity
  8
ガラス
  6
Continuous
100
AcDbVertex
100
AcDb2dVertex
 10
-50.675
 20
13.15
 30
0.0
 70
     8
  0
VERTEX
  5
47D
330
461
100
AcDbEntity
  8
ガラス
  6
Continuous
100
AcDbVertex
100
AcDb2dVertex
 10
-50.675
 20
13.1
 30
0.0
 70
     8
  0
VERTEX
  5
47E
330
461
100
AcDbEntity
  8
ガラス
  6
Continuous
100
AcDbVertex
100
AcDb2dVertex
 10
-50.675
 20
13.05
 30
0.0
 70
     8
  0
VERTEX
  5
47F
330
461
100
AcDbEntity
  8
ガラス
  6
Continuous
100
AcDbVertex
100
AcDb2dVertex
 10
-50.675
 20
13.025
 30
0.0
 70
     8
  0
VERTEX
  5
480
330
461
100
AcDbEntity
  8
ガラス
  6
Continuous
100
AcDbVertex
100
AcDb2dVertex
 10
-50.675
 20
12.975
 30
0.0
 70
     8
  0
VERTEX
  5
481
330
461
100
AcDbEntity
  8
ガラス
  6
Continuous
100
AcDbVertex
100
AcDb2dVertex
 10
-50.675
 20
12.925
 30
0.0
 70
     8
  0
VERTEX
  5
482
330
461
100
AcDbEntity
  8
ガラス
  6
Continuous
100
AcDbVertex
100
AcDb2dVertex
 10
-50.675
 20
12.9
 30
0.0
 70
     8
  0
VERTEX
  5
483
330
461
100
AcDbEntity
  8
ガラス
  6
Continuous
100
AcDbVertex
100
AcDb2dVertex
 10
-50.675
 20
12.85
 30
0.0
 70
     8
  0
VERTEX
  5
484
330
461
100
AcDbEntity
  8
ガラス
  6
Continuous
100
AcDbVertex
100
AcDb2dVertex
 10
-50.675
 20
12.8
 30
0.0
 70
     8
  0
VERTEX
  5
485
330
461
100
AcDbEntity
  8
ガラス
  6
Continuous
100
AcDbVertex
100
AcDb2dVertex
 10
-50.675
 20
12.75
 30
0.0
 70
     8
  0
VERTEX
  5
486
330
461
100
AcDbEntity
  8
ガラス
  6
Continuous
100
AcDbVertex
100
AcDb2dVertex
 10
-50.675
 20
12.725
 30
0.0
 70
     8
  0
VERTEX
  5
487
330
461
100
AcDbEntity
  8
ガラス
  6
Continuous
100
AcDbVertex
100
AcDb2dVertex
 10
-50.675
 20
12.675
 30
0.0
 70
     8
  0
VERTEX
  5
488
330
461
100
AcDbEntity
  8
ガラス
  6
Continuous
100
AcDbVertex
100
AcDb2dVertex
 10
-50.675
 20
12.625
 30
0.0
 70
     8
  0
VERTEX
  5
489
330
461
100
AcDbEntity
  8
ガラス
  6
Continuous
100
AcDbVertex
100
AcDb2dVertex
 10
-50.675
 20
12.6
 30
0.0
 70
     8
  0
VERTEX
  5
48A
330
461
100
AcDbEntity
  8
ガラス
  6
Continuous
100
AcDbVertex
100
AcDb2dVertex
 10
-50.675
 20
12.55
 30
0.0
 70
     8
  0
SEQEND
  5
48B
330
461
100
AcDbEntity
  8
0
  0
ARC
  5
48C
330
435
100
AcDbEntity
  8
ガラス
  6
Continuous
100
AcDbCircle
 10
-51.338236
 20
12.5576
 30
0.0
 40
0.668594
100
AcDbArc
 50
180.0
 51
0.0
  0
ENDBLK
  5
48D
330
435
100
AcDbEntity
  8
0
100
AcDbBlockEnd
  0
BLOCK
  5
48E
330
48F
100
AcDbEntity
  8
0
100
AcDbBlockBegin
  2
*U15
 70
     1
 71
     0
 10
0.0
 20
0.0
 30
0.0
  3
*U15
  1

  0
POLYLINE
  5
490
330
48F
100
AcDbEntity
  8
ガラス
  6
Continuous
100
AcDb2dPolyline
 66
     1
 10
0.0
 20
0.0
 30
0.0
 70
     4
  0
VERTEX
  5
491
330
490
100
AcDbEntity
  8
ガラス
  6
Continuous
100
AcDbVertex
100
AcDb2dVertex
 10
-52.025
 20
-6.25
 30
0.0
 70
     8
  0
VERTEX
  5
492
330
490
100
AcDbEntity
  8
ガラス
  6
Continuous
100
AcDbVertex
100
AcDb2dVertex
 10
-52.0
 20
-6.2
 30
0.0
 70
     8
  0
VERTEX
  5
493
330
490
100
AcDbEntity
  8
ガラス
  6
Continuous
100
AcDbVertex
100
AcDb2dVertex
 10
-51.975
 20
-6.125
 30
0.0
 70
     8
  0
VERTEX
  5
494
330
490
100
AcDbEntity
  8
ガラス
  6
Continuous
100
AcDbVertex
100
AcDb2dVertex
 10
-51.975
 20
-6.075
 30
0.0
 70
     8
  0
VERTEX
  5
495
330
490
100
AcDbEntity
  8
ガラス
  6
Continuous
100
AcDbVertex
100
AcDb2dVertex
 10
-51.95
 20
-6.0
 30
0.0
 70
     8
  0
VERTEX
  5
496
330
490
100
AcDbEntity
  8
ガラス
  6
Continuous
100
AcDbVertex
100
AcDb2dVertex
 10
-51.925
 20
-5.95
 30
0.0
 70
     8
  0
VERTEX
  5
497
330
490
100
AcDbEntity
  8
ガラス
  6
Continuous
100
AcDbVertex
100
AcDb2dVertex
 10
-51.9
 20
-5.875
 30
0.0
 70
     8
  0
VERTEX
  5
498
330
490
100
AcDbEntity
  8
ガラス
  6
Continuous
100
AcDbVertex
100
AcDb2dVertex
 10
-51.9
 20
-5.825
 30
0.0
 70
     8
  0
VERTEX
  5
499
330
490
100
AcDbEntity
  8
ガラス
  6
Continuous
100
AcDbVertex
100
AcDb2dVertex
 10
-51.875
 20
-5.775
 30
0.0
 70
     8
  0
VERTEX
  5
49A
330
490
100
AcDbEntity
  8
ガラス
  6
Continuous
100
AcDbVertex
100
AcDb2dVertex
 10
-51.85
 20
-5.7
 30
0.0
 70
     8
  0
VERTEX
  5
49B
330
490
100
AcDbEntity
  8
ガラス
  6
Continuous
100
AcDbVertex
100
AcDb2dVertex
 10
-51.825
 20
-5.65
 30
0.0
 70
     8
  0
VERTEX
  5
49C
330
490
100
AcDbEntity
  8
ガラス
  6
Continuous
100
AcDbVertex
100
AcDb2dVertex
 10
-51.8
 20
-5.6
 30
0.0
 70
     8
  0
VERTEX
  5
49D
330
490
100
AcDbEntity
  8
ガラス
  6
Continuous
100
AcDbVertex
100
AcDb2dVertex
 10
-51.775
 20
-5.525
 30
0.0
 70
     8
  0
VERTEX
  5
49E
330
490
100
AcDbEntity
  8
ガラス
  6
Continuous
100
AcDbVertex
100
AcDb2dVertex
 10
-51.75
 20
-5.475
 30
0.0
 70
     8
  0
VERTEX
  5
49F
330
490
100
AcDbEntity
  8
ガラス
  6
Continuous
100
AcDbVertex
100
AcDb2dVertex
 10
-51.725
 20
-5.425
 30
0.0
 70
     8
  0
VERTEX
  5
4A0
330
490
100
AcDbEntity
  8
ガラス
  6
Continuous
100
AcDbVertex
100
AcDb2dVertex
 10
-51.7
 20
-5.375
 30
0.0
 70
     8
  0
VERTEX
  5
4A1
330
490
100
AcDbEntity
  8
ガラス
  6
Continuous
100
AcDbVertex
100
AcDb2dVertex
 10
-51.675
 20
-5.325
 30
0.0
 70
     8
  0
VERTEX
  5
4A2
330
490
100
AcDbEntity
  8
ガラス
  6
Continuous
100
AcDbVertex
100
AcDb2dVertex
 10
-51.625
 20
-5.275
 30
0.0
 70
     8
  0
VERTEX
  5
4A3
330
490
100
AcDbEntity
  8
ガラス
  6
Continuous
100
AcDbVertex
100
AcDb2dVertex
 10
-51.6
 20
-5.225
 30
0.0
 70
     8
  0
VERTEX
  5
4A4
330
490
100
AcDbEntity
  8
ガラス
  6
Continuous
100
AcDbVertex
100
AcDb2dVertex
 10
-51.55
 20
-5.175
 30
0.0
 70
     8
  0
VERTEX
  5
4A5
330
490
100
AcDbEntity
  8
ガラス
  6
Continuous
100
AcDbVertex
100
AcDb2dVertex
 10
-51.525
 20
-5.125
 30
0.0
 70
     8
  0
VERTEX
  5
4A6
330
490
100
AcDbEntity
  8
ガラス
  6
Continuous
100
AcDbVertex
100
AcDb2dVertex
 10
-51.475
 20
-5.1
 30
0.0
 70
     8
  0
VERTEX
  5
4A7
330
490
100
AcDbEntity
  8
ガラス
  6
Continuous
100
AcDbVertex
100
AcDb2dVertex
 10
-51.45
 20
-5.05
 30
0.0
 70
     8
  0
VERTEX
  5
4A8
330
490
100
AcDbEntity
  8
ガラス
  6
Continuous
100
AcDbVertex
100
AcDb2dVertex
 10
-51.4
 20
-5.025
 30
0.0
 70
     8
  0
VERTEX
  5
4A9
330
490
100
AcDbEntity
  8
ガラス
  6
Continuous
100
AcDbVertex
100
AcDb2dVertex
 10
-51.35
 20
-4.975
 30
0.0
 70
     8
  0
VERTEX
  5
4AA
330
490
100
AcDbEntity
  8
ガラス
  6
Continuous
100
AcDbVertex
100
AcDb2dVertex
 10
-51.3
 20
-4.95
 30
0.0
 70
     8
  0
VERTEX
  5
4AB
330
490
100
AcDbEntity
  8
ガラス
  6
Continuous
100
AcDbVertex
100
AcDb2dVertex
 10
-51.25
 20
-4.9
 30
0.0
 70
     8
  0
VERTEX
  5
4AC
330
490
100
AcDbEntity
  8
ガラス
  6
Continuous
100
AcDbVertex
100
AcDb2dVertex
 10
-51.2
 20
-4.875
 30
0.0
 70
     8
  0
VERTEX
  5
4AD
330
490
100
AcDbEntity
  8
ガラス
  6
Continuous
100
AcDbVertex
100
AcDb2dVertex
 10
-51.15
 20
-4.85
 30
0.0
 70
     8
  0
VERTEX
  5
4AE
330
490
100
AcDbEntity
  8
ガラス
  6
Continuous
100
AcDbVertex
100
AcDb2dVertex
 10
-51.1
 20
-4.825
 30
0.0
 70
     8
  0
VERTEX
  5
4AF
330
490
100
AcDbEntity
  8
ガラス
  6
Continuous
100
AcDbVertex
100
AcDb2dVertex
 10
-51.05
 20
-4.8
 30
0.0
 70
     8
  0
VERTEX
  5
4B0
330
490
100
AcDbEntity
  8
ガラス
  6
Continuous
100
AcDbVertex
100
AcDb2dVertex
 10
-50.975
 20
-4.775
 30
0.0
 70
     8
  0
VERTEX
  5
4B1
330
490
100
AcDbEntity
  8
ガラス
  6
Continuous
100
AcDbVertex
100
AcDb2dVertex
 10
-50.925
 20
-4.75
 30
0.0
 70
     8
  0
VERTEX
  5
4B2
330
490
100
AcDbEntity
  8
ガラス
  6
Continuous
100
AcDbVertex
100
AcDb2dVertex
 10
-50.875
 20
-4.725
 30
0.0
 70
     8
  0
VERTEX
  5
4B3
330
490
100
AcDbEntity
  8
ガラス
  6
Continuous
100
AcDbVertex
100
AcDb2dVertex
 10
-50.8
 20
-4.7
 30
0.0
 70
     8
  0
VERTEX
  5
4B4
330
490
100
AcDbEntity
  8
ガラス
  6
Continuous
100
AcDbVertex
100
AcDb2dVertex
 10
-50.75
 20
-4.675
 30
0.0
 70
     8
  0
VERTEX
  5
4B5
330
490
100
AcDbEntity
  8
ガラス
  6
Continuous
100
AcDbVertex
100
AcDb2dVertex
 10
-50.7
 20
-4.65
 30
0.0
 70
     8
  0
VERTEX
  5
4B6
330
490
100
AcDbEntity
  8
ガラス
  6
Continuous
100
AcDbVertex
100
AcDb2dVertex
 10
-50.625
 20
-4.625
 30
0.0
 70
     8
  0
VERTEX
  5
4B7
330
490
100
AcDbEntity
  8
ガラス
  6
Continuous
100
AcDbVertex
100
AcDb2dVertex
 10
-50.575
 20
-4.6
 30
0.0
 70
     8
  0
VERTEX
  5
4B8
330
490
100
AcDbEntity
  8
ガラス
  6
Continuous
100
AcDbVertex
100
AcDb2dVertex
 10
-50.5
 20
-4.6
 30
0.0
 70
     8
  0
VERTEX
  5
4B9
330
490
100
AcDbEntity
  8
ガラス
  6
Continuous
100
AcDbVertex
100
AcDb2dVertex
 10
-50.45
 20
-4.575
 30
0.0
 70
     8
  0
SEQEND
  5
4BA
330
490
100
AcDbEntity
  8
0
  0
POLYLINE
  5
4BB
330
48F
100
AcDbEntity
  8
ガラス
  6
Continuous
100
AcDb2dPolyline
 66
     1
 10
0.0
 20
0.0
 30
0.0
 70
     4
  0
VERTEX
  5
4BC
330
4BB
100
AcDbEntity
  8
ガラス
  6
Continuous
100
AcDbVertex
100
AcDb2dVertex
 10
-50.45
 20
-4.575
 30
0.0
 70
     8
  0
VERTEX
  5
4BD
330
4BB
100
AcDbEntity
  8
ガラス
  6
Continuous
100
AcDbVertex
100
AcDb2dVertex
 10
-50.45
 20
-4.6
 30
0.0
 70
     8
  0
VERTEX
  5
4BE
330
4BB
100
AcDbEntity
  8
ガラス
  6
Continuous
100
AcDbVertex
100
AcDb2dVertex
 10
-50.475
 20
-4.65
 30
0.0
 70
     8
  0
VERTEX
  5
4BF
330
4BB
100
AcDbEntity
  8
ガラス
  6
Continuous
100
AcDbVertex
100
AcDb2dVertex
 10
-50.475
 20
-4.7
 30
0.0
 70
     8
  0
VERTEX
  5
4C0
330
4BB
100
AcDbEntity
  8
ガラス
  6
Continuous
100
AcDbVertex
100
AcDb2dVertex
 10
-50.5
 20
-4.725
 30
0.0
 70
     8
  0
VERTEX
  5
4C1
330
4BB
100
AcDbEntity
  8
ガラス
  6
Continuous
100
AcDbVertex
100
AcDb2dVertex
 10
-50.5
 20
-4.775
 30
0.0
 70
     8
  0
VERTEX
  5
4C2
330
4BB
100
AcDbEntity
  8
ガラス
  6
Continuous
100
AcDbVertex
100
AcDb2dVertex
 10
-50.525
 20
-4.825
 30
0.0
 70
     8
  0
VERTEX
  5
4C3
330
4BB
100
AcDbEntity
  8
ガラス
  6
Continuous
100
AcDbVertex
100
AcDb2dVertex
 10
-50.525
 20
-4.85
 30
0.0
 70
     8
  0
VERTEX
  5
4C4
330
4BB
100
AcDbEntity
  8
ガラス
  6
Continuous
100
AcDbVertex
100
AcDb2dVertex
 10
-50.525
 20
-4.9
 30
0.0
 70
     8
  0
VERTEX
  5
4C5
330
4BB
100
AcDbEntity
  8
ガラス
  6
Continuous
100
AcDbVertex
100
AcDb2dVertex
 10
-50.55
 20
-4.95
 30
0.0
 70
     8
  0
VERTEX
  5
4C6
330
4BB
100
AcDbEntity
  8
ガラス
  6
Continuous
100
AcDbVertex
100
AcDb2dVertex
 10
-50.55
 20
-4.975
 30
0.0
 70
     8
  0
VERTEX
  5
4C7
330
4BB
100
AcDbEntity
  8
ガラス
  6
Continuous
100
AcDbVertex
100
AcDb2dVertex
 10
-50.575
 20
-5.025
 30
0.0
 70
     8
  0
VERTEX
  5
4C8
330
4BB
100
AcDbEntity
  8
ガラス
  6
Continuous
100
AcDbVertex
100
AcDb2dVertex
 10
-50.575
 20
-5.075
 30
0.0
 70
     8
  0
VERTEX
  5
4C9
330
4BB
100
AcDbEntity
  8
ガラス
  6
Continuous
100
AcDbVertex
100
AcDb2dVertex
 10
-50.6
 20
-5.1
 30
0.0
 70
     8
  0
VERTEX
  5
4CA
330
4BB
100
AcDbEntity
  8
ガラス
  6
Continuous
100
AcDbVertex
100
AcDb2dVertex
 10
-50.6
 20
-5.15
 30
0.0
 70
     8
  0
VERTEX
  5
4CB
330
4BB
100
AcDbEntity
  8
ガラス
  6
Continuous
100
AcDbVertex
100
AcDb2dVertex
 10
-50.6
 20
-5.2
 30
0.0
 70
     8
  0
VERTEX
  5
4CC
330
4BB
100
AcDbEntity
  8
ガラス
  6
Continuous
100
AcDbVertex
100
AcDb2dVertex
 10
-50.625
 20
-5.225
 30
0.0
 70
     8
  0
VERTEX
  5
4CD
330
4BB
100
AcDbEntity
  8
ガラス
  6
Continuous
100
AcDbVertex
100
AcDb2dVertex
 10
-50.625
 20
-5.275
 30
0.0
 70
     8
  0
VERTEX
  5
4CE
330
4BB
100
AcDbEntity
  8
ガラス
  6
Continuous
100
AcDbVertex
100
AcDb2dVertex
 10
-50.625
 20
-5.325
 30
0.0
 70
     8
  0
VERTEX
  5
4CF
330
4BB
100
AcDbEntity
  8
ガラス
  6
Continuous
100
AcDbVertex
100
AcDb2dVertex
 10
-50.625
 20
-5.35
 30
0.0
 70
     8
  0
VERTEX
  5
4D0
330
4BB
100
AcDbEntity
  8
ガラス
  6
Continuous
100
AcDbVertex
100
AcDb2dVertex
 10
-50.65
 20
-5.4
 30
0.0
 70
     8
  0
VERTEX
  5
4D1
330
4BB
100
AcDbEntity
  8
ガラス
  6
Continuous
100
AcDbVertex
100
AcDb2dVertex
 10
-50.65
 20
-5.45
 30
0.0
 70
     8
  0
VERTEX
  5
4D2
330
4BB
100
AcDbEntity
  8
ガラス
  6
Continuous
100
AcDbVertex
100
AcDb2dVertex
 10
-50.65
 20
-5.5
 30
0.0
 70
     8
  0
VERTEX
  5
4D3
330
4BB
100
AcDbEntity
  8
ガラス
  6
Continuous
100
AcDbVertex
100
AcDb2dVertex
 10
-50.65
 20
-5.525
 30
0.0
 70
     8
  0
VERTEX
  5
4D4
330
4BB
100
AcDbEntity
  8
ガラス
  6
Continuous
100
AcDbVertex
100
AcDb2dVertex
 10
-50.675
 20
-5.575
 30
0.0
 70
     8
  0
VERTEX
  5
4D5
330
4BB
100
AcDbEntity
  8
ガラス
  6
Continuous
100
AcDbVertex
100
AcDb2dVertex
 10
-50.675
 20
-5.625
 30
0.0
 70
     8
  0
VERTEX
  5
4D6
330
4BB
100
AcDbEntity
  8
ガラス
  6
Continuous
100
AcDbVertex
100
AcDb2dVertex
 10
-50.675
 20
-5.65
 30
0.0
 70
     8
  0
VERTEX
  5
4D7
330
4BB
100
AcDbEntity
  8
ガラス
  6
Continuous
100
AcDbVertex
100
AcDb2dVertex
 10
-50.675
 20
-5.7
 30
0.0
 70
     8
  0
VERTEX
  5
4D8
330
4BB
100
AcDbEntity
  8
ガラス
  6
Continuous
100
AcDbVertex
100
AcDb2dVertex
 10
-50.675
 20
-5.75
 30
0.0
 70
     8
  0
VERTEX
  5
4D9
330
4BB
100
AcDbEntity
  8
ガラス
  6
Continuous
100
AcDbVertex
100
AcDb2dVertex
 10
-50.675
 20
-5.775
 30
0.0
 70
     8
  0
VERTEX
  5
4DA
330
4BB
100
AcDbEntity
  8
ガラス
  6
Continuous
100
AcDbVertex
100
AcDb2dVertex
 10
-50.675
 20
-5.825
 30
0.0
 70
     8
  0
VERTEX
  5
4DB
330
4BB
100
AcDbEntity
  8
ガラス
  6
Continuous
100
AcDbVertex
100
AcDb2dVertex
 10
-50.675
 20
-5.875
 30
0.0
 70
     8
  0
VERTEX
  5
4DC
330
4BB
100
AcDbEntity
  8
ガラス
  6
Continuous
100
AcDbVertex
100
AcDb2dVertex
 10
-50.675
 20
-5.925
 30
0.0
 70
     8
  0
VERTEX
  5
4DD
330
4BB
100
AcDbEntity
  8
ガラス
  6
Continuous
100
AcDbVertex
100
AcDb2dVertex
 10
-50.675
 20
-5.95
 30
0.0
 70
     8
  0
VERTEX
  5
4DE
330
4BB
100
AcDbEntity
  8
ガラス
  6
Continuous
100
AcDbVertex
100
AcDb2dVertex
 10
-50.675
 20
-6.0
 30
0.0
 70
     8
  0
VERTEX
  5
4DF
330
4BB
100
AcDbEntity
  8
ガラス
  6
Continuous
100
AcDbVertex
100
AcDb2dVertex
 10
-50.675
 20
-6.05
 30
0.0
 70
     8
  0
VERTEX
  5
4E0
330
4BB
100
AcDbEntity
  8
ガラス
  6
Continuous
100
AcDbVertex
100
AcDb2dVertex
 10
-50.675
 20
-6.1
 30
0.0
 70
     8
  0
VERTEX
  5
4E1
330
4BB
100
AcDbEntity
  8
ガラス
  6
Continuous
100
AcDbVertex
100
AcDb2dVertex
 10
-50.675
 20
-6.125
 30
0.0
 70
     8
  0
VERTEX
  5
4E2
330
4BB
100
AcDbEntity
  8
ガラス
  6
Continuous
100
AcDbVertex
100
AcDb2dVertex
 10
-50.675
 20
-6.175
 30
0.0
 70
     8
  0
VERTEX
  5
4E3
330
4BB
100
AcDbEntity
  8
ガラス
  6
Continuous
100
AcDbVertex
100
AcDb2dVertex
 10
-50.675
 20
-6.225
 30
0.0
 70
     8
  0
VERTEX
  5
4E4
330
4BB
100
AcDbEntity
  8
ガラス
  6
Continuous
100
AcDbVertex
100
AcDb2dVertex
 10
-50.675
 20
-6.25
 30
0.0
 70
     8
  0
SEQEND
  5
4E5
330
4BB
100
AcDbEntity
  8
0
  0
ARC
  5
4E6
330
48F
100
AcDbEntity
  8
ガラス
  6
Continuous
100
AcDbCircle
 10
-51.338236
 20
-6.247546
 30
0.0
 40
0.668594
100
AcDbArc
 50
180.0
 51
0.0
  0
ENDBLK
  5
4E7
330
48F
100
AcDbEntity
  8
0
100
AcDbBlockEnd
  0
BLOCK
  5
4E8
330
4E9
100
AcDbEntity
  8
0
100
AcDbBlockBegin
  2
*U16
 70
     1
 71
     0
 10
0.0
 20
0.0
 30
0.0
  3
*U16
  1

  0
POLYLINE
  5
4EA
330
4E9
100
AcDbEntity
  8
ガラス
  6
Continuous
100
AcDb2dPolyline
 66
     1
 10
0.0
 20
0.0
 30
0.0
 70
     4
  0
VERTEX
  5
4EB
330
4EA
100
AcDbEntity
  8
ガラス
  6
Continuous
100
AcDbVertex
100
AcDb2dVertex
 10
-52.025
 20
-23.65
 30
0.0
 70
     8
  0
VERTEX
  5
4EC
330
4EA
100
AcDbEntity
  8
ガラス
  6
Continuous
100
AcDbVertex
100
AcDb2dVertex
 10
-52.0
 20
-23.575
 30
0.0
 70
     8
  0
VERTEX
  5
4ED
330
4EA
100
AcDbEntity
  8
ガラス
  6
Continuous
100
AcDbVertex
100
AcDb2dVertex
 10
-51.975
 20
-23.525
 30
0.0
 70
     8
  0
VERTEX
  5
4EE
330
4EA
100
AcDbEntity
  8
ガラス
  6
Continuous
100
AcDbVertex
100
AcDb2dVertex
 10
-51.975
 20
-23.45
 30
0.0
 70
     8
  0
VERTEX
  5
4EF
330
4EA
100
AcDbEntity
  8
ガラス
  6
Continuous
100
AcDbVertex
100
AcDb2dVertex
 10
-51.95
 20
-23.4
 30
0.0
 70
     8
  0
VERTEX
  5
4F0
330
4EA
100
AcDbEntity
  8
ガラス
  6
Continuous
100
AcDbVertex
100
AcDb2dVertex
 10
-51.925
 20
-23.325
 30
0.0
 70
     8
  0
VERTEX
  5
4F1
330
4EA
100
AcDbEntity
  8
ガラス
  6
Continuous
100
AcDbVertex
100
AcDb2dVertex
 10
-51.9
 20
-23.275
 30
0.0
 70
     8
  0
VERTEX
  5
4F2
330
4EA
100
AcDbEntity
  8
ガラス
  6
Continuous
100
AcDbVertex
100
AcDb2dVertex
 10
-51.9
 20
-23.2
 30
0.0
 70
     8
  0
VERTEX
  5
4F3
330
4EA
100
AcDbEntity
  8
ガラス
  6
Continuous
100
AcDbVertex
100
AcDb2dVertex
 10
-51.875
 20
-23.15
 30
0.0
 70
     8
  0
VERTEX
  5
4F4
330
4EA
100
AcDbEntity
  8
ガラス
  6
Continuous
100
AcDbVertex
100
AcDb2dVertex
 10
-51.85
 20
-23.1
 30
0.0
 70
     8
  0
VERTEX
  5
4F5
330
4EA
100
AcDbEntity
  8
ガラス
  6
Continuous
100
AcDbVertex
100
AcDb2dVertex
 10
-51.825
 20
-23.025
 30
0.0
 70
     8
  0
VERTEX
  5
4F6
330
4EA
100
AcDbEntity
  8
ガラス
  6
Continuous
100
AcDbVertex
100
AcDb2dVertex
 10
-51.8
 20
-22.975
 30
0.0
 70
     8
  0
VERTEX
  5
4F7
330
4EA
100
AcDbEntity
  8
ガラス
  6
Continuous
100
AcDbVertex
100
AcDb2dVertex
 10
-51.775
 20
-22.925
 30
0.0
 70
     8
  0
VERTEX
  5
4F8
330
4EA
100
AcDbEntity
  8
ガラス
  6
Continuous
100
AcDbVertex
100
AcDb2dVertex
 10
-51.75
 20
-22.85
 30
0.0
 70
     8
  0
VERTEX
  5
4F9
330
4EA
100
AcDbEntity
  8
ガラス
  6
Continuous
100
AcDbVertex
100
AcDb2dVertex
 10
-51.725
 20
-22.8
 30
0.0
 70
     8
  0
VERTEX
  5
4FA
330
4EA
100
AcDbEntity
  8
ガラス
  6
Continuous
100
AcDbVertex
100
AcDb2dVertex
 10
-51.7
 20
-22.75
 30
0.0
 70
     8
  0
VERTEX
  5
4FB
330
4EA
100
AcDbEntity
  8
ガラス
  6
Continuous
100
AcDbVertex
100
AcDb2dVertex
 10
-51.675
 20
-22.7
 30
0.0
 70
     8
  0
VERTEX
  5
4FC
330
4EA
100
AcDbEntity
  8
ガラス
  6
Continuous
100
AcDbVertex
100
AcDb2dVertex
 10
-51.625
 20
-22.65
 30
0.0
 70
     8
  0
VERTEX
  5
4FD
330
4EA
100
AcDbEntity
  8
ガラス
  6
Continuous
100
AcDbVertex
100
AcDb2dVertex
 10
-51.6
 20
-22.6
 30
0.0
 70
     8
  0
VERTEX
  5
4FE
330
4EA
100
AcDbEntity
  8
ガラス
  6
Continuous
100
AcDbVertex
100
AcDb2dVertex
 10
-51.55
 20
-22.55
 30
0.0
 70
     8
  0
VERTEX
  5
4FF
330
4EA
100
AcDbEntity
  8
ガラス
  6
Continuous
100
AcDbVertex
100
AcDb2dVertex
 10
-51.525
 20
-22.525
 30
0.0
 70
     8
  0
VERTEX
  5
500
330
4EA
100
AcDbEntity
  8
ガラス
  6
Continuous
100
AcDbVertex
100
AcDb2dVertex
 10
-51.475
 20
-22.475
 30
0.0
 70
     8
  0
VERTEX
  5
501
330
4EA
100
AcDbEntity
  8
ガラス
  6
Continuous
100
AcDbVertex
100
AcDb2dVertex
 10
-51.45
 20
-22.425
 30
0.0
 70
     8
  0
VERTEX
  5
502
330
4EA
100
AcDbEntity
  8
ガラス
  6
Continuous
100
AcDbVertex
100
AcDb2dVertex
 10
-51.4
 20
-22.4
 30
0.0
 70
     8
  0
VERTEX
  5
503
330
4EA
100
AcDbEntity
  8
ガラス
  6
Continuous
100
AcDbVertex
100
AcDb2dVertex
 10
-51.35
 20
-22.35
 30
0.0
 70
     8
  0
VERTEX
  5
504
330
4EA
100
AcDbEntity
  8
ガラス
  6
Continuous
100
AcDbVertex
100
AcDb2dVertex
 10
-51.3
 20
-22.325
 30
0.0
 70
     8
  0
VERTEX
  5
505
330
4EA
100
AcDbEntity
  8
ガラス
  6
Continuous
100
AcDbVertex
100
AcDb2dVertex
 10
-51.25
 20
-22.3
 30
0.0
 70
     8
  0
VERTEX
  5
506
330
4EA
100
AcDbEntity
  8
ガラス
  6
Continuous
100
AcDbVertex
100
AcDb2dVertex
 10
-51.2
 20
-22.275
 30
0.0
 70
     8
  0
VERTEX
  5
507
330
4EA
100
AcDbEntity
  8
ガラス
  6
Continuous
100
AcDbVertex
100
AcDb2dVertex
 10
-51.15
 20
-22.225
 30
0.0
 70
     8
  0
VERTEX
  5
508
330
4EA
100
AcDbEntity
  8
ガラス
  6
Continuous
100
AcDbVertex
100
AcDb2dVertex
 10
-51.1
 20
-22.2
 30
0.0
 70
     8
  0
VERTEX
  5
509
330
4EA
100
AcDbEntity
  8
ガラス
  6
Continuous
100
AcDbVertex
100
AcDb2dVertex
 10
-51.05
 20
-22.175
 30
0.0
 70
     8
  0
VERTEX
  5
50A
330
4EA
100
AcDbEntity
  8
ガラス
  6
Continuous
100
AcDbVertex
100
AcDb2dVertex
 10
-50.975
 20
-22.15
 30
0.0
 70
     8
  0
VERTEX
  5
50B
330
4EA
100
AcDbEntity
  8
ガラス
  6
Continuous
100
AcDbVertex
100
AcDb2dVertex
 10
-50.925
 20
-22.125
 30
0.0
 70
     8
  0
VERTEX
  5
50C
330
4EA
100
AcDbEntity
  8
ガラス
  6
Continuous
100
AcDbVertex
100
AcDb2dVertex
 10
-50.875
 20
-22.1
 30
0.0
 70
     8
  0
VERTEX
  5
50D
330
4EA
100
AcDbEntity
  8
ガラス
  6
Continuous
100
AcDbVertex
100
AcDb2dVertex
 10
-50.8
 20
-22.075
 30
0.0
 70
     8
  0
VERTEX
  5
50E
330
4EA
100
AcDbEntity
  8
ガラス
  6
Continuous
100
AcDbVertex
100
AcDb2dVertex
 10
-50.75
 20
-22.05
 30
0.0
 70
     8
  0
VERTEX
  5
50F
330
4EA
100
AcDbEntity
  8
ガラス
  6
Continuous
100
AcDbVertex
100
AcDb2dVertex
 10
-50.7
 20
-22.025
 30
0.0
 70
     8
  0
VERTEX
  5
510
330
4EA
100
AcDbEntity
  8
ガラス
  6
Continuous
100
AcDbVertex
100
AcDb2dVertex
 10
-50.625
 20
-22.025
 30
0.0
 70
     8
  0
VERTEX
  5
511
330
4EA
100
AcDbEntity
  8
ガラス
  6
Continuous
100
AcDbVertex
100
AcDb2dVertex
 10
-50.575
 20
-22.0
 30
0.0
 70
     8
  0
VERTEX
  5
512
330
4EA
100
AcDbEntity
  8
ガラス
  6
Continuous
100
AcDbVertex
100
AcDb2dVertex
 10
-50.5
 20
-21.975
 30
0.0
 70
     8
  0
VERTEX
  5
513
330
4EA
100
AcDbEntity
  8
ガラス
  6
Continuous
100
AcDbVertex
100
AcDb2dVertex
 10
-50.45
 20
-21.95
 30
0.0
 70
     8
  0
SEQEND
  5
514
330
4EA
100
AcDbEntity
  8
0
  0
POLYLINE
  5
515
330
4E9
100
AcDbEntity
  8
ガラス
  6
Continuous
100
AcDb2dPolyline
 66
     1
 10
0.0
 20
0.0
 30
0.0
 70
     4
  0
VERTEX
  5
516
330
515
100
AcDbEntity
  8
ガラス
  6
Continuous
100
AcDbVertex
100
AcDb2dVertex
 10
-50.45
 20
-21.95
 30
0.0
 70
     8
  0
VERTEX
  5
517
330
515
100
AcDbEntity
  8
ガラス
  6
Continuous
100
AcDbVertex
100
AcDb2dVertex
 10
-50.45
 20
-22.0
 30
0.0
 70
     8
  0
VERTEX
  5
518
330
515
100
AcDbEntity
  8
ガラス
  6
Continuous
100
AcDbVertex
100
AcDb2dVertex
 10
-50.475
 20
-22.025
 30
0.0
 70
     8
  0
VERTEX
  5
519
330
515
100
AcDbEntity
  8
ガラス
  6
Continuous
100
AcDbVertex
100
AcDb2dVertex
 10
-50.475
 20
-22.075
 30
0.0
 70
     8
  0
VERTEX
  5
51A
330
515
100
AcDbEntity
  8
ガラス
  6
Continuous
100
AcDbVertex
100
AcDb2dVertex
 10
-50.5
 20
-22.125
 30
0.0
 70
     8
  0
VERTEX
  5
51B
330
515
100
AcDbEntity
  8
ガラス
  6
Continuous
100
AcDbVertex
100
AcDb2dVertex
 10
-50.5
 20
-22.15
 30
0.0
 70
     8
  0
VERTEX
  5
51C
330
515
100
AcDbEntity
  8
ガラス
  6
Continuous
100
AcDbVertex
100
AcDb2dVertex
 10
-50.525
 20
-22.2
 30
0.0
 70
     8
  0
VERTEX
  5
51D
330
515
100
AcDbEntity
  8
ガラス
  6
Continuous
100
AcDbVertex
100
AcDb2dVertex
 10
-50.525
 20
-22.25
 30
0.0
 70
     8
  0
VERTEX
  5
51E
330
515
100
AcDbEntity
  8
ガラス
  6
Continuous
100
AcDbVertex
100
AcDb2dVertex
 10
-50.525
 20
-22.275
 30
0.0
 70
     8
  0
VERTEX
  5
51F
330
515
100
AcDbEntity
  8
ガラス
  6
Continuous
100
AcDbVertex
100
AcDb2dVertex
 10
-50.55
 20
-22.325
 30
0.0
 70
     8
  0
VERTEX
  5
520
330
515
100
AcDbEntity
  8
ガラス
  6
Continuous
100
AcDbVertex
100
AcDb2dVertex
 10
-50.55
 20
-22.375
 30
0.0
 70
     8
  0
VERTEX
  5
521
330
515
100
AcDbEntity
  8
ガラス
  6
Continuous
100
AcDbVertex
100
AcDb2dVertex
 10
-50.575
 20
-22.4
 30
0.0
 70
     8
  0
VERTEX
  5
522
330
515
100
AcDbEntity
  8
ガラス
  6
Continuous
100
AcDbVertex
100
AcDb2dVertex
 10
-50.575
 20
-22.45
 30
0.0
 70
     8
  0
VERTEX
  5
523
330
515
100
AcDbEntity
  8
ガラス
  6
Continuous
100
AcDbVertex
100
AcDb2dVertex
 10
-50.6
 20
-22.5
 30
0.0
 70
     8
  0
VERTEX
  5
524
330
515
100
AcDbEntity
  8
ガラス
  6
Continuous
100
AcDbVertex
100
AcDb2dVertex
 10
-50.6
 20
-22.525
 30
0.0
 70
     8
  0
VERTEX
  5
525
330
515
100
AcDbEntity
  8
ガラス
  6
Continuous
100
AcDbVertex
100
AcDb2dVertex
 10
-50.6
 20
-22.575
 30
0.0
 70
     8
  0
VERTEX
  5
526
330
515
100
AcDbEntity
  8
ガラス
  6
Continuous
100
AcDbVertex
100
AcDb2dVertex
 10
-50.625
 20
-22.625
 30
0.0
 70
     8
  0
VERTEX
  5
527
330
515
100
AcDbEntity
  8
ガラス
  6
Continuous
100
AcDbVertex
100
AcDb2dVertex
 10
-50.625
 20
-22.65
 30
0.0
 70
     8
  0
VERTEX
  5
528
330
515
100
AcDbEntity
  8
ガラス
  6
Continuous
100
AcDbVertex
100
AcDb2dVertex
 10
-50.625
 20
-22.7
 30
0.0
 70
     8
  0
VERTEX
  5
529
330
515
100
AcDbEntity
  8
ガラス
  6
Continuous
100
AcDbVertex
100
AcDb2dVertex
 10
-50.625
 20
-22.75
 30
0.0
 70
     8
  0
VERTEX
  5
52A
330
515
100
AcDbEntity
  8
ガラス
  6
Continuous
100
AcDbVertex
100
AcDb2dVertex
 10
-50.65
 20
-22.775
 30
0.0
 70
     8
  0
VERTEX
  5
52B
330
515
100
AcDbEntity
  8
ガラス
  6
Continuous
100
AcDbVertex
100
AcDb2dVertex
 10
-50.65
 20
-22.825
 30
0.0
 70
     8
  0
VERTEX
  5
52C
330
515
100
AcDbEntity
  8
ガラス
  6
Continuous
100
AcDbVertex
100
AcDb2dVertex
 10
-50.65
 20
-22.875
 30
0.0
 70
     8
  0
VERTEX
  5
52D
330
515
100
AcDbEntity
  8
ガラス
  6
Continuous
100
AcDbVertex
100
AcDb2dVertex
 10
-50.65
 20
-22.925
 30
0.0
 70
     8
  0
VERTEX
  5
52E
330
515
100
AcDbEntity
  8
ガラス
  6
Continuous
100
AcDbVertex
100
AcDb2dVertex
 10
-50.675
 20
-22.95
 30
0.0
 70
     8
  0
VERTEX
  5
52F
330
515
100
AcDbEntity
  8
ガラス
  6
Continuous
100
AcDbVertex
100
AcDb2dVertex
 10
-50.675
 20
-23.0
 30
0.0
 70
     8
  0
VERTEX
  5
530
330
515
100
AcDbEntity
  8
ガラス
  6
Continuous
100
AcDbVertex
100
AcDb2dVertex
 10
-50.675
 20
-23.05
 30
0.0
 70
     8
  0
VERTEX
  5
531
330
515
100
AcDbEntity
  8
ガラス
  6
Continuous
100
AcDbVertex
100
AcDb2dVertex
 10
-50.675
 20
-23.075
 30
0.0
 70
     8
  0
VERTEX
  5
532
330
515
100
AcDbEntity
  8
ガラス
  6
Continuous
100
AcDbVertex
100
AcDb2dVertex
 10
-50.675
 20
-23.125
 30
0.0
 70
     8
  0
VERTEX
  5
533
330
515
100
AcDbEntity
  8
ガラス
  6
Continuous
100
AcDbVertex
100
AcDb2dVertex
 10
-50.675
 20
-23.175
 30
0.0
 70
     8
  0
VERTEX
  5
534
330
515
100
AcDbEntity
  8
ガラス
  6
Continuous
100
AcDbVertex
100
AcDb2dVertex
 10
-50.675
 20
-23.225
 30
0.0
 70
     8
  0
VERTEX
  5
535
330
515
100
AcDbEntity
  8
ガラス
  6
Continuous
100
AcDbVertex
100
AcDb2dVertex
 10
-50.675
 20
-23.25
 30
0.0
 70
     8
  0
VERTEX
  5
536
330
515
100
AcDbEntity
  8
ガラス
  6
Continuous
100
AcDbVertex
100
AcDb2dVertex
 10
-50.675
 20
-23.3
 30
0.0
 70
     8
  0
VERTEX
  5
537
330
515
100
AcDbEntity
  8
ガラス
  6
Continuous
100
AcDbVertex
100
AcDb2dVertex
 10
-50.675
 20
-23.35
 30
0.0
 70
     8
  0
VERTEX
  5
538
330
515
100
AcDbEntity
  8
ガラス
  6
Continuous
100
AcDbVertex
100
AcDb2dVertex
 10
-50.675
 20
-23.375
 30
0.0
 70
     8
  0
VERTEX
  5
539
330
515
100
AcDbEntity
  8
ガラス
  6
Continuous
100
AcDbVertex
100
AcDb2dVertex
 10
-50.675
 20
-23.425
 30
0.0
 70
     8
  0
VERTEX
  5
53A
330
515
100
AcDbEntity
  8
ガラス
  6
Continuous
100
AcDbVertex
100
AcDb2dVertex
 10
-50.675
 20
-23.475
 30
0.0
 70
     8
  0
VERTEX
  5
53B
330
515
100
AcDbEntity
  8
ガラス
  6
Continuous
100
AcDbVertex
100
AcDb2dVertex
 10
-50.675
 20
-23.525
 30
0.0
 70
     8
  0
VERTEX
  5
53C
330
515
100
AcDbEntity
  8
ガラス
  6
Continuous
100
AcDbVertex
100
AcDb2dVertex
 10
-50.675
 20
-23.55
 30
0.0
 70
     8
  0
VERTEX
  5
53D
330
515
100
AcDbEntity
  8
ガラス
  6
Continuous
100
AcDbVertex
100
AcDb2dVertex
 10
-50.675
 20
-23.6
 30
0.0
 70
     8
  0
VERTEX
  5
53E
330
515
100
AcDbEntity
  8
ガラス
  6
Continuous
100
AcDbVertex
100
AcDb2dVertex
 10
-50.675
 20
-23.65
 30
0.0
 70
     8
  0
SEQEND
  5
53F
330
515
100
AcDbEntity
  8
0
  0
ARC
  5
540
330
4E9
100
AcDbEntity
  8
ガラス
  6
Continuous
100
AcDbCircle
 10
-51.338236
 20
-23.630988
 30
0.0
 40
0.668594
100
AcDbArc
 50
180.0
 51
0.0
  0
ENDBLK
  5
541
330
4E9
100
AcDbEntity
  8
0
100
AcDbBlockEnd
  0
BLOCK
  5
542
330
543
100
AcDbEntity
  8
0
100
AcDbBlockBegin
  2
*U17
 70
     1
 71
     0
 10
0.0
 20
0.0
 30
0.0
  3
*U17
  1

  0
LINE
  5
544
330
543
100
AcDbEntity
  8
ゴム等
  6
Continuous
100
AcDbLine
 10
-52.558847
 20
25.979628
 30
0.0
 11
-47.558845
 21
25.979628
 31
0.0
  0
LINE
  5
545
330
543
100
AcDbEntity
  8
ゴム等
  6
Continuous
100
AcDbLine
 10
-52.558847
 20
25.979628
 30
0.0
 11
-52.558847
 21
15.97963
 31
0.0
  0
LINE
  5
546
330
543
100
AcDbEntity
  8
ゴム等
  6
Continuous
100
AcDbLine
 10
-52.558847
 20
15.97963
 30
0.0
 11
-47.558845
 21
15.97963
 31
0.0
  0
LINE
  5
547
330
543
100
AcDbEntity
  8
ゴム等
  6
Continuous
100
AcDbLine
 10
-47.558845
 20
25.979628
 30
0.0
 11
-47.558845
 21
15.97963
 31
0.0
  0
LINE
  5
548
330
543
100
AcDbEntity
  8
ゴム等
  6
Continuous
100
AcDbLine
 10
-48.88897
 20
15.97963
 30
0.0
 11
-47.558845
 21
17.309755
 31
0.0
  0
LINE
  5
549
330
543
100
AcDbEntity
  8
ゴム等
  6
Continuous
100
AcDbLine
 10
-50.303193
 20
15.97963
 30
0.0
 11
-47.558845
 21
18.723978
 31
0.0
  0
LINE
  5
54A
330
543
100
AcDbEntity
  8
ゴム等
  6
Continuous
100
AcDbLine
 10
-51.717393
 20
15.97963
 30
0.0
 11
-47.558845
 21
20.138177
 31
0.0
  0
LINE
  5
54B
330
543
100
AcDbEntity
  8
ゴム等
  6
Continuous
100
AcDbLine
 10
-52.558847
 20
19.380827
 30
0.0
 11
-47.558845
 21
24.38083
 31
0.0
  0
LINE
  5
54C
330
543
100
AcDbEntity
  8
ゴム等
  6
Continuous
100
AcDbLine
 10
-52.558847
 20
17.966605
 30
0.0
 11
-47.558845
 21
22.9666
 31
0.0
  0
LINE
  5
54D
330
543
100
AcDbEntity
  8
ゴム等
  6
Continuous
100
AcDbLine
 10
-52.558847
 20
16.552405
 30
0.0
 11
-47.558845
 21
21.5524
 31
0.0
  0
LINE
  5
54E
330
543
100
AcDbEntity
  8
ゴム等
  6
Continuous
100
AcDbLine
 10
-52.558847
 20
20.79505
 30
0.0
 11
-47.558845
 21
25.79503
 31
0.0
  0
LINE
  5
54F
330
543
100
AcDbEntity
  8
ゴム等
  6
Continuous
100
AcDbLine
 10
-52.558847
 20
22.20925
 30
0.0
 11
-48.78847
 21
25.979628
 31
0.0
  0
LINE
  5
550
330
543
100
AcDbEntity
  8
ゴム等
  6
Continuous
100
AcDbLine
 10
-52.558847
 20
23.62345
 30
0.0
 11
-50.20267
 21
25.979628
 31
0.0
  0
LINE
  5
551
330
543
100
AcDbEntity
  8
ゴム等
  6
Continuous
100
AcDbLine
 10
-52.558847
 20
25.03768
 30
0.0
 11
-51.616892
 21
25.979628
 31
0.0
  0
ENDBLK
  5
552
330
543
100
AcDbEntity
  8
0
100
AcDbBlockEnd
  0
BLOCK
  5
553
330
554
100
AcDbEntity
  8
0
100
AcDbBlockBegin
  2
*U18
 70
     1
 71
     0
 10
0.0
 20
0.0
 30
0.0
  3
*U18
  1

  0
LINE
  5
555
330
554
100
AcDbEntity
  8
ゴム等
  6
Continuous
100
AcDbLine
 10
-22.15885
 20
-50.02037
 30
0.0
 11
-22.658853
 21
-47.520373
 31
0.0
  0
LINE
  5
556
330
554
100
AcDbEntity
  8
ゴム等
  6
Continuous
100
AcDbLine
 10
-16.858847
 20
-47.520373
 30
0.0
 11
-17.35885
 21
-50.02037
 31
0.0
  0
LINE
  5
557
330
554
100
AcDbEntity
  8
ゴム等
  6
Continuous
100
AcDbLine
 10
-14.758847
 20
-42.52037
 30
0.0
 11
-14.758847
 21
-47.520373
 31
0.0
  0
LINE
  5
558
330
554
100
AcDbEntity
  8
ゴム等
  6
Continuous
100
AcDbLine
 10
-24.758853
 20
-42.52037
 30
0.0
 11
-24.758853
 21
-47.520373
 31
0.0
  0
LINE
  5
559
330
554
100
AcDbEntity
  8
ゴム等
  6
Continuous
100
AcDbLine
 10
-22.15885
 20
-50.02037
 30
0.0
 11
-17.35885
 21
-50.02037
 31
0.0
  0
LINE
  5
55A
330
554
100
AcDbEntity
  8
ゴム等
  6
Continuous
100
AcDbLine
 10
-14.758847
 20
-47.520373
 30
0.0
 11
-16.858847
 21
-47.520373
 31
0.0
  0
LINE
  5
55B
330
554
100
AcDbEntity
  8
ゴム等
  6
Continuous
100
AcDbLine
 10
-22.658853
 20
-47.520373
 30
0.0
 11
-24.758853
 21
-47.520373
 31
0.0
  0
LINE
  5
55C
330
554
100
AcDbEntity
  8
ゴム等
  6
Continuous
100
AcDbLine
 10
-19.75885
 20
-43.020373
 30
0.0
 11
-19.258847
 21
-42.52037
 31
0.0
  0
LINE
  5
55D
330
554
100
AcDbEntity
  8
ゴム等
  6
Continuous
100
AcDbLine
 10
-19.75885
 20
-43.020373
 30
0.0
 11
-20.258853
 21
-42.52037
 31
0.0
  0
LINE
  5
55E
330
554
100
AcDbEntity
  8
ゴム等
  6
Continuous
100
AcDbLine
 10
-24.758853
 20
-42.52037
 30
0.0
 11
-20.258853
 21
-42.52037
 31
0.0
  0
LINE
  5
55F
330
554
100
AcDbEntity
  8
ゴム等
  6
Continuous
100
AcDbLine
 10
-19.258847
 20
-42.52037
 30
0.0
 11
-14.758847
 21
-42.52037
 31
0.0
  0
LINE
  5
560
330
554
100
AcDbEntity
  8
ゴム等
  6
Continuous
100
AcDbLine
 10
-24.758853
 20
-44.298057
 30
0.0
 11
-19.03654
 21
-50.02037
 31
0.0
  0
LINE
  5
561
330
554
100
AcDbEntity
  8
ゴム等
  6
Continuous
100
AcDbLine
 10
-24.415218
 20
-42.52037
 30
0.0
 11
-17.284908
 21
-49.650673
 31
0.0
  0
LINE
  5
562
330
554
100
AcDbEntity
  8
ゴム等
  6
Continuous
100
AcDbLine
 10
-22.293895
 20
-42.52037
 30
0.0
 11
-16.931358
 21
-47.882907
 31
0.0
  0
LINE
  5
563
330
554
100
AcDbEntity
  8
ゴム等
  6
Continuous
100
AcDbLine
 10
-19.71571
 20
-42.977232
 30
0.0
 11
-15.17257
 21
-47.520373
 31
0.0
  0
LINE
  5
564
330
554
100
AcDbEntity
  8
ゴム等
  6
Continuous
100
AcDbLine
 10
-15.929935
 20
-42.52037
 30
0.0
 11
-14.758847
 21
-43.691457
 31
0.0
  0
LINE
  5
565
330
554
100
AcDbEntity
  8
ゴム等
  6
Continuous
100
AcDbLine
 10
-18.05125
 20
-42.52037
 30
0.0
 11
-14.758847
 21
-45.812773
 31
0.0
  0
LINE
  5
566
330
554
100
AcDbEntity
  8
ゴム等
  6
Continuous
100
AcDbLine
 10
-24.758853
 20
-46.419373
 30
0.0
 11
-23.657852
 21
-47.520373
 31
0.0
  0
LINE
  5
567
330
554
100
AcDbEntity
  8
ゴム等
  6
Continuous
100
AcDbLine
 10
-22.409102
 20
-48.769122
 30
0.0
 11
-21.157855
 21
-50.02037
 31
0.0
  0
ENDBLK
  5
568
330
554
100
AcDbEntity
  8
0
100
AcDbBlockEnd
  0
BLOCK
  5
569
330
56A
100
AcDbEntity
  8
0
100
AcDbBlockBegin
  2
*U19
 70
     1
 71
     0
 10
0.0
 20
0.0
 30
0.0
  3
*U19
  1

  0
LWPOLYLINE
  5
56B
330
56A
100
AcDbEntity
  8
ゴム等
  6
DOT
100
AcDbPolyline
 90
        4
 70
     1
 43
0.0
 10
-46.558855
 20
-48.520377
 10
-56.558853
 20
-48.520377
 10
-56.558853
 20
-58.520375
 10
-46.558855
 20
-58.520375
  0
LINE
  5
571
330
56A
100
AcDbEntity
  8
ゴム等
  6
DOT
100
AcDbLine
 10
-56.558853
 20
-58.520375
 30
0.0
 11
-46.558855
 21
-48.520377
 31
0.0
  0
LINE
  5
572
330
56A
100
AcDbEntity
  8
ゴム等
  6
DOT
100
AcDbLine
 10
-55.04413
 20
-48.520377
 30
0.0
 11
-56.558853
 21
-50.0351
 31
0.0
  0
LINE
  5
573
330
56A
100
AcDbEntity
  8
ゴム等
  6
DOT
100
AcDbLine
 10
-52.922815
 20
-48.520377
 30
0.0
 11
-56.558853
 21
-52.156415
 31
0.0
  0
LINE
  5
574
330
56A
100
AcDbEntity
  8
ゴム等
  6
DOT
100
AcDbLine
 10
-50.8015
 20
-48.520377
 30
0.0
 11
-56.558853
 21
-54.27773
 31
0.0
  0
LINE
  5
575
330
56A
100
AcDbEntity
  8
ゴム等
  6
DOT
100
AcDbLine
 10
-48.68017
 20
-48.520377
 30
0.0
 11
-56.558853
 21
-56.39906
 31
0.0
  0
LINE
  5
576
330
56A
100
AcDbEntity
  8
ゴム等
  6
DOT
100
AcDbLine
 10
-46.558855
 20
-57.005652
 30
0.0
 11
-48.073578
 21
-58.520375
 31
0.0
  0
LINE
  5
577
330
56A
100
AcDbEntity
  8
ゴム等
  6
DOT
100
AcDbLine
 10
-46.558855
 20
-54.884338
 30
0.0
 11
-50.194892
 21
-58.520375
 31
0.0
  0
LINE
  5
578
330
56A
100
AcDbEntity
  8
ゴム等
  6
DOT
100
AcDbLine
 10
-46.558855
 20
-52.763022
 30
0.0
 11
-52.316208
 21
-58.520375
 31
0.0
  0
LINE
  5
579
330
56A
100
AcDbEntity
  8
ゴム等
  6
DOT
100
AcDbLine
 10
-46.558855
 20
-50.641693
 30
0.0
 11
-54.437537
 21
-58.520375
 31
0.0
  0
ENDBLK
  5
57A
330
56A
100
AcDbEntity
  8
0
100
AcDbBlockEnd
  0
BLOCK
  5
57B
330
57C
100
AcDbEntity
  8
0
100
AcDbBlockBegin
  2
*U20
 70
     1
 71
     0
 10
0.0
 20
0.0
 30
0.0
  3
*U20
  1

  0
LINE
  5
57D
330
57C
100
AcDbEntity
  8
ゴム等
  6
Continuous
100
AcDbLine
 10
-43.258847
 20
30.97963
 30
0.0
 11
-43.258847
 21
25.979628
 31
0.0
  0
LINE
  5
57E
330
57C
100
AcDbEntity
  8
ゴム等
  6
Continuous
100
AcDbLine
 10
-43.258847
 20
30.97963
 30
0.0
 11
-33.25885
 21
30.97963
 31
0.0
  0
LINE
  5
57F
330
57C
100
AcDbEntity
  8
ゴム等
  6
Continuous
100
AcDbLine
 10
-33.25885
 20
30.97963
 30
0.0
 11
-33.25885
 21
25.979628
 31
0.0
  0
LINE
  5
580
330
57C
100
AcDbEntity
  8
ゴム等
  6
Continuous
100
AcDbLine
 10
-43.258847
 20
25.979628
 30
0.0
 11
-33.25885
 21
25.979628
 31
0.0
  0
LINE
  5
581
330
57C
100
AcDbEntity
  8
ゴム等
  6
Continuous
100
AcDbLine
 10
-33.25885
 20
27.309752
 30
0.0
 11
-34.588975
 21
25.979628
 31
0.0
  0
LINE
  5
582
330
57C
100
AcDbEntity
  8
ゴム等
  6
Continuous
100
AcDbLine
 10
-33.25885
 20
28.723968
 30
0.0
 11
-36.00319
 21
25.979628
 31
0.0
  0
LINE
  5
583
330
57C
100
AcDbEntity
  8
ゴム等
  6
Continuous
100
AcDbLine
 10
-33.25885
 20
30.138175
 30
0.0
 11
-37.417397
 21
25.979628
 31
0.0
  0
LINE
  5
584
330
57C
100
AcDbEntity
  8
ゴム等
  6
Continuous
100
AcDbLine
 10
-36.66004
 20
30.97963
 30
0.0
 11
-41.660042
 21
25.979628
 31
0.0
  0
LINE
  5
585
330
57C
100
AcDbEntity
  8
ゴム等
  6
Continuous
100
AcDbLine
 10
-35.245825
 20
30.97963
 30
0.0
 11
-40.245827
 21
25.979628
 31
0.0
  0
LINE
  5
586
330
57C
100
AcDbEntity
  8
ゴム等
  6
Continuous
100
AcDbLine
 10
-33.831617
 20
30.97963
 30
0.0
 11
-38.831613
 21
25.979628
 31
0.0
  0
LINE
  5
587
330
57C
100
AcDbEntity
  8
ゴム等
  6
Continuous
100
AcDbLine
 10
-38.074255
 20
30.97963
 30
0.0
 11
-43.074258
 21
25.979628
 31
0.0
  0
LINE
  5
588
330
57C
100
AcDbEntity
  8
ゴム等
  6
Continuous
100
AcDbLine
 10
-39.48847
 20
30.97963
 30
0.0
 11
-43.258847
 21
27.209245
 31
0.0
  0
LINE
  5
589
330
57C
100
AcDbEntity
  8
ゴム等
  6
Continuous
100
AcDbLine
 10
-40.902678
 20
30.97963
 30
0.0
 11
-43.258847
 21
28.62346
 31
0.0
  0
LINE
  5
58A
330
57C
100
AcDbEntity
  8
ゴム等
  6
Continuous
100
AcDbLine
 10
-42.316892
 20
30.97963
 30
0.0
 11
-43.258847
 21
30.037675
 31
0.0
  0
ENDBLK
  5
58B
330
57C
100
AcDbEntity
  8
0
100
AcDbBlockEnd
  0
BLOCK
  5
58C
330
58D
100
AcDbEntity
  8
0
100
AcDbBlockBegin
  2
*U21
 70
     1
 71
     0
 10
0.0
 20
0.0
 30
0.0
  3
*U21
  1

  0
LINE
  5
58E
330
58D
100
AcDbEntity
  8
ゴム等
  6
Continuous
 62
    63
100
AcDbLine
 10
-8.66203
 20
3.37573
 30
0.0
 11
-8.66203
 21
3.875733
 31
0.0
  0
LINE
  5
58F
330
58D
100
AcDbEntity
  8
ゴム等
  6
Continuous
 62
    63
100
AcDbLine
 10
-8.66203
 20
3.875733
 30
0.0
 11
-7.662032
 21
3.875733
 31
0.0
  0
LINE
  5
590
330
58D
100
AcDbEntity
  8
ゴム等
  6
Continuous
 62
    63
100
AcDbLine
 10
-8.66203
 20
3.37573
 30
0.0
 11
-6.462032
 21
1.175733
 31
0.0
  0
LINE
  5
591
330
58D
100
AcDbEntity
  8
ゴム等
  6
Continuous
 62
    63
100
AcDbLine
 10
-7.662032
 20
3.875733
 30
0.0
 11
-7.662032
 21
5.675733
 31
0.0
  0
LINE
  5
592
330
58D
100
AcDbEntity
  8
ゴム等
  6
Continuous
 62
    63
100
AcDbLine
 10
-7.662032
 20
5.675733
 30
0.0
 11
-11.262032
 21
5.675733
 31
0.0
  0
LINE
  5
593
330
58D
100
AcDbEntity
  8
ゴム等
  6
Continuous
 62
    63
100
AcDbLine
 10
-1.862035
 20
3.37573
 30
0.0
 11
-1.862035
 21
3.875733
 31
0.0
  0
LINE
  5
594
330
58D
100
AcDbEntity
  8
ゴム等
  6
Continuous
 62
    63
100
AcDbLine
 10
-1.862035
 20
3.875733
 30
0.0
 11
-2.862032
 21
3.875733
 31
0.0
  0
LINE
  5
595
330
58D
100
AcDbEntity
  8
ゴム等
  6
Continuous
 62
    63
100
AcDbLine
 10
-1.862035
 20
3.37573
 30
0.0
 11
-4.062032
 21
1.175733
 31
0.0
  0
LINE
  5
596
330
58D
100
AcDbEntity
  8
ゴム等
  6
Continuous
 62
    63
100
AcDbLine
 10
-2.862032
 20
3.875733
 30
0.0
 11
-2.862032
 21
5.675733
 31
0.0
  0
LINE
  5
597
330
58D
100
AcDbEntity
  8
ゴム等
  6
Continuous
 62
    63
100
AcDbLine
 10
-2.862032
 20
5.675733
 30
0.0
 11
0.737968
 21
5.675733
 31
0.0
  0
LINE
  5
598
330
58D
100
AcDbEntity
  8
ゴム等
  6
Continuous
 62
    63
100
AcDbLine
 10
-6.462032
 20
1.175733
 30
0.0
 11
-4.062032
 21
1.175733
 31
0.0
  0
ARC
  5
599
330
58D
100
AcDbEntity
  8
ゴム等
  6
Continuous
 62
    63
100
AcDbCircle
 10
-5.262026
 20
4.675727
 30
0.0
 40
1.0
100
AcDbArc
 50
90.0
 51
180.0
  0
LINE
  5
59A
330
58D
100
AcDbEntity
  8
ゴム等
  6
Continuous
 62
    63
100
AcDbLine
 10
-5.262032
 20
5.675733
 30
0.0
 11
-5.262032
 21
5.675733
 31
0.0
  0
ARC
  5
59B
330
58D
100
AcDbEntity
  8
ゴム等
  6
Continuous
 62
    63
100
AcDbCircle
 10
-5.262026
 20
4.675727
 30
0.0
 40
1.0
100
AcDbArc
 50
0.0
 51
90.0
  0
LINE
  5
59C
330
58D
100
AcDbEntity
  8
ゴム等
  6
Continuous
 62
    63
100
AcDbLine
 10
-4.262035
 20
4.675727
 30
0.0
 11
-4.262035
 21
3.07573
 31
0.0
  0
ARC
  5
59D
330
58D
100
AcDbEntity
  8
ゴム等
  6
Continuous
 62
    63
100
AcDbCircle
 10
-5.262026
 20
3.075727
 30
0.0
 40
1.0
100
AcDbArc
 50
270.0
 51
0.0
  0
LINE
  5
59E
330
58D
100
AcDbEntity
  8
ゴム等
  6
Continuous
 62
    63
100
AcDbLine
 10
-5.262032
 20
2.075733
 30
0.0
 11
-5.262032
 21
2.075733
 31
0.0
  0
LINE
  5
59F
330
58D
100
AcDbEntity
  8
ゴム等
  6
Continuous
 62
    63
100
AcDbLine
 10
-6.26203
 20
4.675727
 30
0.0
 11
-6.26203
 21
3.07573
 31
0.0
  0
ARC
  5
5A0
330
58D
100
AcDbEntity
  8
ゴム等
  6
Continuous
 62
    63
100
AcDbCircle
 10
-5.262026
 20
3.075727
 30
0.0
 40
1.0
100
AcDbArc
 50
180.0
 51
270.0
  0
LINE
  5
5A1
330
58D
100
AcDbEntity
  8
ゴム等
  6
Continuous
 62
    63
100
AcDbLine
 10
-11.262032
 20
20.675733
 30
0.0
 11
-9.262029999999999
 21
20.675733
 31
0.0
  0
LINE
  5
5A2
330
58D
100
AcDbEntity
  8
ゴム等
  6
Continuous
 62
    63
100
AcDbLine
 10
0.737968
 20
20.675733
 30
0.0
 11
-1.262035
 21
20.675733
 31
0.0
  0
LINE
  5
5A3
330
58D
100
AcDbEntity
  8
ゴム等
  6
Continuous
 62
    63
100
AcDbLine
 10
-1.262035
 20
20.675733
 30
0.0
 11
-1.262035
 21
20.675733
 31
0.0
  0
ARC
  5
5A4
330
58D
100
AcDbEntity
  8
ゴム等
  6
Continuous
 62
    63
100
AcDbCircle
 10
-1.762026
 20
20.675727
 30
0.0
 40
0.5
100
AcDbArc
 50
270.0
 51
0.0
  0
LINE
  5
5A5
330
58D
100
AcDbEntity
  8
ゴム等
  6
Continuous
 62
    63
100
AcDbLine
 10
-9.262029999999999
 20
20.675733
 30
0.0
 11
-9.262029999999999
 21
20.675733
 31
0.0
  0
LINE
  5
5A6
330
58D
100
AcDbEntity
  8
ゴム等
  6
Continuous
 62
    63
100
AcDbLine
 10
-8.762034999999999
 20
20.17573
 30
0.0
 11
-1.76203
 21
20.17573
 31
0.0
  0
ARC
  5
5A7
330
58D
100
AcDbEntity
  8
ゴム等
  6
Continuous
 62
    63
100
AcDbCircle
 10
-8.762026000000001
 20
20.675727
 30
0.0
 40
0.5
100
AcDbArc
 50
180.0
 51
270.0
  0
LINE
  5
5A8
330
58D
100
AcDbEntity
  8
ゴム等
  6
Continuous
 62
    63
100
AcDbLine
 10
-11.262032
 20
5.675733
 30
0.0
 11
-11.262032
 21
20.675733
 31
0.0
  0
LINE
  5
5A9
330
58D
100
AcDbEntity
  8
ゴム等
  6
Continuous
 62
    63
100
AcDbLine
 10
0.737968
 20
5.675733
 30
0.0
 11
0.737968
 21
20.675733
 31
0.0
  0
LINE
  5
5AA
330
58D
100
AcDbEntity
  8
ゴム等
  6
Continuous
100
AcDbLine
 10
-2.357687
 20
20.17573
 30
0.0
 11
0.737968
 21
17.080075
 31
0.0
  0
LINE
  5
5AB
330
58D
100
AcDbEntity
  8
ゴム等
  6
Continuous
100
AcDbLine
 10
-0.02926
 20
20.675733
 30
0.0
 11
0.737968
 21
19.908497
 31
0.0
  0
LINE
  5
5AC
330
58D
100
AcDbEntity
  8
ゴム等
  6
Continuous
100
AcDbLine
 10
-5.186117
 20
20.17573
 30
0.0
 11
0.737968
 21
14.251645
 31
0.0
  0
LINE
  5
5AD
330
58D
100
AcDbEntity
  8
ゴム等
  6
Continuous
100
AcDbLine
 10
-8.01454
 20
20.17573
 30
0.0
 11
0.737968
 21
11.423222
 31
0.0
  0
LINE
  5
5AE
330
58D
100
AcDbEntity
  8
ゴム等
  6
Continuous
100
AcDbLine
 10
-11.262032
 20
20.594793
 30
0.0
 11
0.737968
 21
8.594792999999999
 31
0.0
  0
LINE
  5
5AF
330
58D
100
AcDbEntity
  8
ゴム等
  6
Continuous
100
AcDbLine
 10
-11.262032
 20
17.766362
 30
0.0
 11
0.737968
 21
5.76637
 31
0.0
  0
LINE
  5
5B0
330
58D
100
AcDbEntity
  8
ゴム等
  6
Continuous
100
AcDbLine
 10
-11.262032
 20
14.93794
 30
0.0
 11
-1.999825
 21
5.675733
 31
0.0
  0
LINE
  5
5B1
330
58D
100
AcDbEntity
  8
ゴム等
  6
Continuous
100
AcDbLine
 10
-11.262032
 20
12.10951
 30
0.0
 11
-2.19514
 21
3.042625
 31
0.0
  0
LINE
  5
5B2
330
58D
100
AcDbEntity
  8
ゴム等
  6
Continuous
100
AcDbLine
 10
-11.262032
 20
6.452657
 30
0.0
 11
-10.485107
 21
5.675733
 31
0.0
  0
LINE
  5
5B3
330
58D
100
AcDbEntity
  8
ゴム等
  6
Continuous
100
AcDbLine
 10
-8.685107
 20
3.875733
 30
0.0
 11
-5.9851
 21
1.175733
 31
0.0
  0
LINE
  5
5B4
330
58D
100
AcDbEntity
  8
ゴム等
  6
Continuous
100
AcDbLine
 10
-11.262032
 20
9.281079999999999
 30
0.0
 11
-6.26203
 21
4.281085
 31
0.0
  0
LINE
  5
5B5
330
58D
100
AcDbEntity
  8
ゴム等
  6
Continuous
100
AcDbLine
 10
-3.609355
 20
1.62841
 30
0.0
 11
-4.459742
 21
2.478797
 31
0.0
  0
ENDBLK
  5
5B6
330
58D
100
AcDbEntity
  8
0
100
AcDbBlockEnd
  0
BLOCK
  5
5B7
330
5B8
100
AcDbEntity
  8
0
100
AcDbBlockBegin
  2
*U22
 70
     1
 71
     0
 10
0.0
 20
0.0
 30
0.0
  3
*U22
  1

  0
LINE
  5
5B9
330
5B8
100
AcDbEntity
  8
ボルト／ビス
  6
Continuous
 62
    64
100
AcDbLine
 10
-16.258847
 20
-52.02038
 30
0.0
 11
-16.35055
 21
-53.06855
 31
0.0
  0
ARC
  5
5BA
330
5B8
100
AcDbEntity
  8
ボルト／ビス
  6
Continuous
 62
    64
100
AcDbCircle
 10
-18.044087
 20
-52.920378
 30
0.0
 40
1.7
100
AcDbArc
 50
270.0
 51
355.000011
  0
LINE
  5
5BB
330
5B8
100
AcDbEntity
  8
ボルト／ビス
  6
Continuous
 62
    64
100
AcDbLine
 10
-18.04408
 20
-54.620382
 30
0.0
 11
-19.75885
 21
-54.620382
 31
0.0
  0
LINE
  5
5BC
330
5B8
100
AcDbEntity
  8
ボルト／ビス
  6
Continuous
 62
    64
100
AcDbLine
 10
-23.258845
 20
-52.02038
 30
0.0
 11
-23.167143
 21
-53.06855
 31
0.0
  0
ARC
  5
5BD
330
5B8
100
AcDbEntity
  8
ボルト／ビス
  6
Continuous
 62
    64
100
AcDbCircle
 10
-21.473621
 20
-52.920378
 30
0.0
 40
1.7
100
AcDbArc
 50
184.999989
 51
270.0
  0
LINE
  5
5BE
330
5B8
100
AcDbEntity
  8
ボルト／ビス
  6
Continuous
 62
    64
100
AcDbLine
 10
-21.473613
 20
-54.620382
 30
0.0
 11
-19.75885
 21
-54.620382
 31
0.0
  0
LINE
  5
5BF
330
5B8
100
AcDbEntity
  8
ボルト／ビス
  6
Continuous
 62
    64
100
AcDbLine
 10
-17.36221
 20
-54.235475
 30
0.0
 11
-17.36221
 21
-54.477643
 31
0.0
  0
LINE
  5
5C0
330
5B8
100
AcDbEntity
  8
ボルト／ビス
  6
Continuous
 62
    64
100
AcDbLine
 10
-19.058845
 20
-53.585397
 30
0.0
 11
-19.75885
 21
-53.585397
 31
0.0
  0
LINE
  5
5C1
330
5B8
100
AcDbEntity
  8
ボルト／ビス
  6
Continuous
 62
    64
100
AcDbLine
 10
-18.658847
 20
-54.235475
 30
0.0
 11
-17.36221
 21
-54.235475
 31
0.0
  0
LINE
  5
5C2
330
5B8
100
AcDbEntity
  8
ボルト／ビス
  6
Continuous
 62
    64
100
AcDbLine
 10
-19.058845
 20
-53.585397
 30
0.0
 11
-19.058845
 21
-53.835477
 31
0.0
  0
ARC
  5
5C3
330
5B8
100
AcDbEntity
  8
ボルト／ビス
  6
Continuous
 62
    64
100
AcDbCircle
 10
-18.658854
 20
-53.835473
 30
0.0
 40
0.4
100
AcDbArc
 50
180.0
 51
270.0
  0
LINE
  5
5C4
330
5B8
100
AcDbEntity
  8
ボルト／ビス
  6
Continuous
 62
    64
100
AcDbLine
 10
-22.15549
 20
-54.235475
 30
0.0
 11
-22.15549
 21
-54.477643
 31
0.0
  0
LINE
  5
5C5
330
5B8
100
AcDbEntity
  8
ボルト／ビス
  6
Continuous
 62
    64
100
AcDbLine
 10
-20.458847
 20
-53.585397
 30
0.0
 11
-19.75885
 21
-53.585397
 31
0.0
  0
LINE
  5
5C6
330
5B8
100
AcDbEntity
  8
ボルト／ビス
  6
Continuous
 62
    64
100
AcDbLine
 10
-20.858845
 20
-54.235475
 30
0.0
 11
-22.15549
 21
-54.235475
 31
0.0
  0
LINE
  5
5C7
330
5B8
100
AcDbEntity
  8
ボルト／ビス
  6
Continuous
 62
    64
100
AcDbLine
 10
-20.458847
 20
-53.585397
 30
0.0
 11
-20.458847
 21
-53.835477
 31
0.0
  0
ARC
  5
5C8
330
5B8
100
AcDbEntity
  8
ボルト／ビス
  6
Continuous
 62
    64
100
AcDbCircle
 10
-20.858854
 20
-53.835473
 30
0.0
 40
0.4
100
AcDbArc
 50
270.0
 51
0.0
  0
LINE
  5
5C9
330
5B8
100
AcDbEntity
  8
ボルト／ビス
  6
Continuous
 62
    64
100
AcDbLine
 10
-16.258847
 20
-52.02038
 30
0.0
 11
-23.258845
 21
-52.02038
 31
0.0
  0
LINE
  5
5CA
330
5B8
100
AcDbEntity
  8
ボルト／ビス
  6
Continuous
 62
    64
100
AcDbLine
 10
-19.75885
 20
-56.591773
 30
0.0
 11
-19.75885
 21
-36.377113
 31
0.0
  0
LINE
  5
5CB
330
5B8
100
AcDbEntity
  8
ボルト／ビス
  6
Continuous
 62
    64
100
AcDbLine
 10
-17.758847
 20
-38.52038
 30
0.0
 11
-18.25885
 21
-38.020385
 31
0.0
  0
LINE
  5
5CC
330
5B8
100
AcDbEntity
  8
ボルト／ビス
  6
Continuous
 62
    64
100
AcDbLine
 10
-21.758845
 20
-38.52038
 30
0.0
 11
-21.25885
 21
-38.020385
 31
0.0
  0
LINE
  5
5CD
330
5B8
100
AcDbEntity
  8
ボルト／ビス
  6
Continuous
 62
    64
100
AcDbLine
 10
-17.758847
 20
-38.52038
 30
0.0
 11
-21.758845
 21
-38.52038
 31
0.0
  0
LINE
  5
5CE
330
5B8
100
AcDbEntity
  8
ボルト／ビス
  6
Continuous
 62
    64
100
AcDbLine
 10
-18.25885
 20
-38.020385
 30
0.0
 11
-21.25885
 21
-38.020385
 31
0.0
  0
LINE
  5
5CF
330
5B8
100
AcDbEntity
  8
ボルト／ビス
  6
Continuous
 62
    64
100
AcDbLine
 10
-21.758845
 20
-52.02038
 30
0.0
 11
-21.758845
 21
-38.52038
 31
0.0
  0
LINE
  5
5D0
330
5B8
100
AcDbEntity
  8
ボルト／ビス
  6
Continuous
 62
    64
100
AcDbLine
 10
-17.758847
 20
-52.02038
 30
0.0
 11
-17.758847
 21
-38.52038
 31
0.0
  0
LINE
  5
5D1
330
5B8
100
AcDbEntity
  8
ボルト／ビス
  6
Continuous
 62
    64
100
AcDbLine
 10
-18.25885
 20
-52.02038
 30
0.0
 11
-18.25885
 21
-38.020385
 31
0.0
  0
LINE
  5
5D2
330
5B8
100
AcDbEntity
  8
ボルト／ビス
  6
Continuous
 62
    64
100
AcDbLine
 10
-21.25885
 20
-52.02038
 30
0.0
 11
-21.25885
 21
-38.020385
 31
0.0
  0
ENDBLK
  5
5D3
330
5B8
100
AcDbEntity
  8
0
100
AcDbBlockEnd
  0
BLOCK
  5
5D4
330
5D5
100
AcDbEntity
  8
0
100
AcDbBlockBegin
  2
*U23
 70
     1
 71
     0
 10
0.0
 20
0.0
 30
0.0
  3
*U23
  1

  0
LINE
  5
5D6
330
5D5
100
AcDbEntity
  8
ボルト／ビス
  6
Continuous
 62
    64
100
AcDbLine
 10
-33.758853
 20
-83.62025800000001
 30
0.0
 11
-33.66715
 21
-84.66842
 31
0.0
  0
ARC
  5
5D7
330
5D5
100
AcDbEntity
  8
ボルト／ビス
  6
Continuous
 62
    64
100
AcDbCircle
 10
-31.97362
 20
-84.52025399999999
 30
0.0
 40
1.7
100
AcDbArc
 50
184.999989
 51
270.0
  0
LINE
  5
5D8
330
5D5
100
AcDbEntity
  8
ボルト／ビス
  6
Continuous
 62
    64
100
AcDbLine
 10
-31.97362
 20
-86.22026
 30
0.0
 11
-30.25885
 21
-86.22026
 31
0.0
  0
LINE
  5
5D9
330
5D5
100
AcDbEntity
  8
ボルト／ビス
  6
Continuous
 62
    64
100
AcDbLine
 10
-26.758847
 20
-83.62025800000001
 30
0.0
 11
-26.85055
 21
-84.66842
 31
0.0
  0
ARC
  5
5DA
330
5D5
100
AcDbEntity
  8
ボルト／ビス
  6
Continuous
 62
    64
100
AcDbCircle
 10
-28.544087
 20
-84.52025399999999
 30
0.0
 40
1.7
100
AcDbArc
 50
270.0
 51
355.000011
  0
LINE
  5
5DB
330
5D5
100
AcDbEntity
  8
ボルト／ビス
  6
Continuous
 62
    64
100
AcDbLine
 10
-28.54408
 20
-86.22026
 30
0.0
 11
-30.25885
 21
-86.22026
 31
0.0
  0
LINE
  5
5DC
330
5D5
100
AcDbEntity
  8
ボルト／ビス
  6
Continuous
 62
    64
100
AcDbLine
 10
-32.65549
 20
-85.835353
 30
0.0
 11
-32.65549
 21
-86.077513
 31
0.0
  0
LINE
  5
5DD
330
5D5
100
AcDbEntity
  8
ボルト／ビス
  6
Continuous
 62
    64
100
AcDbLine
 10
-30.958847
 20
-85.18526799999999
 30
0.0
 11
-30.25885
 21
-85.18526799999999
 31
0.0
  0
LINE
  5
5DE
330
5D5
100
AcDbEntity
  8
ボルト／ビス
  6
Continuous
 62
    64
100
AcDbLine
 10
-31.358853
 20
-85.835353
 30
0.0
 11
-32.65549
 21
-85.835353
 31
0.0
  0
LINE
  5
5DF
330
5D5
100
AcDbEntity
  8
ボルト／ビス
  6
Continuous
 62
    64
100
AcDbLine
 10
-30.958847
 20
-85.18526799999999
 30
0.0
 11
-30.958847
 21
-85.435355
 31
0.0
  0
ARC
  5
5E0
330
5D5
100
AcDbEntity
  8
ボルト／ビス
  6
Continuous
 62
    64
100
AcDbCircle
 10
-31.358853
 20
-85.435349
 30
0.0
 40
0.4
100
AcDbArc
 50
270.0
 51
0.0
  0
LINE
  5
5E1
330
5D5
100
AcDbEntity
  8
ボルト／ビス
  6
Continuous
 62
    64
100
AcDbLine
 10
-27.86221
 20
-85.835353
 30
0.0
 11
-27.86221
 21
-86.077513
 31
0.0
  0
LINE
  5
5E2
330
5D5
100
AcDbEntity
  8
ボルト／ビス
  6
Continuous
 62
    64
100
AcDbLine
 10
-29.558853
 20
-85.18526799999999
 30
0.0
 11
-30.25885
 21
-85.18526799999999
 31
0.0
  0
LINE
  5
5E3
330
5D5
100
AcDbEntity
  8
ボルト／ビス
  6
Continuous
 62
    64
100
AcDbLine
 10
-29.158847
 20
-85.835353
 30
0.0
 11
-27.86221
 21
-85.835353
 31
0.0
  0
LINE
  5
5E4
330
5D5
100
AcDbEntity
  8
ボルト／ビス
  6
Continuous
 62
    64
100
AcDbLine
 10
-29.558853
 20
-85.18526799999999
 30
0.0
 11
-29.558853
 21
-85.435355
 31
0.0
  0
ARC
  5
5E5
330
5D5
100
AcDbEntity
  8
ボルト／ビス
  6
Continuous
 62
    64
100
AcDbCircle
 10
-29.158853
 20
-85.435349
 30
0.0
 40
0.4
100
AcDbArc
 50
180.0
 51
270.0
  0
LINE
  5
5E6
330
5D5
100
AcDbEntity
  8
ボルト／ビス
  6
Continuous
 62
    64
100
AcDbLine
 10
-33.758853
 20
-83.62025800000001
 30
0.0
 11
-26.758847
 21
-83.62025800000001
 31
0.0
  0
LINE
  5
5E7
330
5D5
100
AcDbEntity
  8
ボルト／ビス
  6
Continuous
 62
    64
100
AcDbLine
 10
-32.258853
 20
-74.120255
 30
0.0
 11
-31.75885
 21
-73.62026
 31
0.0
  0
LINE
  5
5E8
330
5D5
100
AcDbEntity
  8
ボルト／ビス
  6
Continuous
 62
    64
100
AcDbLine
 10
-28.258847
 20
-74.120255
 30
0.0
 11
-28.75885
 21
-73.62026
 31
0.0
  0
LINE
  5
5E9
330
5D5
100
AcDbEntity
  8
ボルト／ビス
  6
Continuous
 62
    64
100
AcDbLine
 10
-32.258853
 20
-74.120255
 30
0.0
 11
-28.258847
 21
-74.120255
 31
0.0
  0
LINE
  5
5EA
330
5D5
100
AcDbEntity
  8
ボルト／ビス
  6
Continuous
 62
    64
100
AcDbLine
 10
-31.75885
 20
-73.62026
 30
0.0
 11
-28.75885
 21
-73.62026
 31
0.0
  0
LINE
  5
5EB
330
5D5
100
AcDbEntity
  8
ボルト／ビス
  6
Continuous
 62
    64
100
AcDbLine
 10
-30.25885
 20
-88.191643
 30
0.0
 11
-30.25885
 21
-72.045388
 31
0.0
  0
LINE
  5
5EC
330
5D5
100
AcDbEntity
  8
ボルト／ビス
  6
Continuous
 62
    64
100
AcDbLine
 10
-32.258853
 20
-83.62025800000001
 30
0.0
 11
-32.258853
 21
-74.120255
 31
0.0
  0
LINE
  5
5ED
330
5D5
100
AcDbEntity
  8
ボルト／ビス
  6
Continuous
 62
    64
100
AcDbLine
 10
-28.258847
 20
-83.62025800000001
 30
0.0
 11
-28.258847
 21
-74.120255
 31
0.0
  0
LINE
  5
5EE
330
5D5
100
AcDbEntity
  8
ボルト／ビス
  6
Continuous
 62
    64
100
AcDbLine
 10
-28.75885
 20
-83.62025800000001
 30
0.0
 11
-28.75885
 21
-73.62026
 31
0.0
  0
LINE
  5
5EF
330
5D5
100
AcDbEntity
  8
ボルト／ビス
  6
Continuous
 62
    64
100
AcDbLine
 10
-31.75885
 20
-83.62025800000001
 30
0.0
 11
-31.75885
 21
-73.62026
 31
0.0
  0
ENDBLK
  5
5F0
330
5D5
100
AcDbEntity
  8
0
100
AcDbBlockEnd
  0
BLOCK
  5
5F1
330
5F2
100
AcDbEntity
  8
0
100
AcDbBlockBegin
  2
*U24
 70
     1
 71
     0
 10
0.0
 20
0.0
 30
0.0
  3
*U24
  1

  0
LINE
  5
5F3
330
5F2
100
AcDbEntity
  8
ボルト／ビス
  6
Continuous
 62
    64
100
AcDbLine
 10
-85.258825
 20
-81.72038000000001
 30
0.0
 11
-85.167123
 21
-82.768542
 31
0.0
  0
ARC
  5
5F4
330
5F2
100
AcDbEntity
  8
ボルト／ビス
  6
Continuous
 62
    64
100
AcDbCircle
 10
-83.47359
 20
-82.620375
 30
0.0
 40
1.7
100
AcDbArc
 50
184.999989
 51
270.0
  0
LINE
  5
5F5
330
5F2
100
AcDbEntity
  8
ボルト／ビス
  6
Continuous
 62
    64
100
AcDbLine
 10
-83.473592
 20
-84.320382
 30
0.0
 11
-81.75882300000001
 21
-84.320382
 31
0.0
  0
LINE
  5
5F6
330
5F2
100
AcDbEntity
  8
ボルト／ビス
  6
Continuous
 62
    64
100
AcDbLine
 10
-78.25882
 20
-81.72038000000001
 30
0.0
 11
-78.350522
 21
-82.768542
 31
0.0
  0
ARC
  5
5F7
330
5F2
100
AcDbEntity
  8
ボルト／ビス
  6
Continuous
 62
    64
100
AcDbCircle
 10
-80.044056
 20
-82.620375
 30
0.0
 40
1.7
100
AcDbArc
 50
270.0
 51
355.000011
  0
LINE
  5
5F8
330
5F2
100
AcDbEntity
  8
ボルト／ビス
  6
Continuous
 62
    64
100
AcDbLine
 10
-80.04405199999999
 20
-84.320382
 30
0.0
 11
-81.75882300000001
 21
-84.320382
 31
0.0
  0
LINE
  5
5F9
330
5F2
100
AcDbEntity
  8
ボルト／ビス
  6
Continuous
 62
    64
100
AcDbLine
 10
-84.155462
 20
-83.935475
 30
0.0
 11
-84.155462
 21
-84.177635
 31
0.0
  0
LINE
  5
5FA
330
5F2
100
AcDbEntity
  8
ボルト／ビス
  6
Continuous
 62
    64
100
AcDbLine
 10
-82.45882
 20
-83.28539000000001
 30
0.0
 11
-81.75882300000001
 21
-83.28539000000001
 31
0.0
  0
LINE
  5
5FB
330
5F2
100
AcDbEntity
  8
ボルト／ビス
  6
Continuous
 62
    64
100
AcDbLine
 10
-82.858825
 20
-83.935475
 30
0.0
 11
-84.155462
 21
-83.935475
 31
0.0
  0
LINE
  5
5FC
330
5F2
100
AcDbEntity
  8
ボルト／ビス
  6
Continuous
 62
    64
100
AcDbLine
 10
-82.45882
 20
-83.28539000000001
 30
0.0
 11
-82.45882
 21
-83.535477
 31
0.0
  0
ARC
  5
5FD
330
5F2
100
AcDbEntity
  8
ボルト／ビス
  6
Continuous
 62
    64
100
AcDbCircle
 10
-82.858823
 20
-83.53547
 30
0.0
 40
0.4
100
AcDbArc
 50
270.0
 51
0.0
  0
LINE
  5
5FE
330
5F2
100
AcDbEntity
  8
ボルト／ビス
  6
Continuous
 62
    64
100
AcDbLine
 10
-79.362183
 20
-83.935475
 30
0.0
 11
-79.362183
 21
-84.177635
 31
0.0
  0
LINE
  5
5FF
330
5F2
100
AcDbEntity
  8
ボルト／ビス
  6
Continuous
 62
    64
100
AcDbLine
 10
-81.058825
 20
-83.28539000000001
 30
0.0
 11
-81.75882300000001
 21
-83.28539000000001
 31
0.0
  0
LINE
  5
600
330
5F2
100
AcDbEntity
  8
ボルト／ビス
  6
Continuous
 62
    64
100
AcDbLine
 10
-80.65882000000001
 20
-83.935475
 30
0.0
 11
-79.362183
 21
-83.935475
 31
0.0
  0
LINE
  5
601
330
5F2
100
AcDbEntity
  8
ボルト／ビス
  6
Continuous
 62
    64
100
AcDbLine
 10
-81.058825
 20
-83.28539000000001
 30
0.0
 11
-81.058825
 21
-83.535477
 31
0.0
  0
ARC
  5
602
330
5F2
100
AcDbEntity
  8
ボルト／ビス
  6
Continuous
 62
    64
100
AcDbCircle
 10
-80.658823
 20
-83.53547
 30
0.0
 40
0.4
100
AcDbArc
 50
180.0
 51
270.0
  0
LINE
  5
603
330
5F2
100
AcDbEntity
  8
ボルト／ビス
  6
Continuous
 62
    64
100
AcDbLine
 10
-85.258825
 20
-81.72038000000001
 30
0.0
 11
-78.25882
 21
-81.72038000000001
 31
0.0
  0
LINE
  5
604
330
5F2
100
AcDbEntity
  8
ボルト／ビス
  6
Continuous
 62
    64
100
AcDbLine
 10
-83.758825
 20
-72.220377
 30
0.0
 11
-83.25882300000001
 21
-71.720382
 31
0.0
  0
LINE
  5
605
330
5F2
100
AcDbEntity
  8
ボルト／ビス
  6
Continuous
 62
    64
100
AcDbLine
 10
-79.75882
 20
-72.220377
 30
0.0
 11
-80.25882300000001
 21
-71.720382
 31
0.0
  0
LINE
  5
606
330
5F2
100
AcDbEntity
  8
ボルト／ビス
  6
Continuous
 62
    64
100
AcDbLine
 10
-83.758825
 20
-72.220377
 30
0.0
 11
-79.75882
 21
-72.220377
 31
0.0
  0
LINE
  5
607
330
5F2
100
AcDbEntity
  8
ボルト／ビス
  6
Continuous
 62
    64
100
AcDbLine
 10
-83.25882300000001
 20
-71.720382
 30
0.0
 11
-80.25882300000001
 21
-71.720382
 31
0.0
  0
LINE
  5
608
330
5F2
100
AcDbEntity
  8
ボルト／ビス
  6
Continuous
 62
    64
100
AcDbLine
 10
-81.75882300000001
 20
-86.291765
 30
0.0
 11
-81.75882300000001
 21
-70.14551
 31
0.0
  0
LINE
  5
609
330
5F2
100
AcDbEntity
  8
ボルト／ビス
  6
Continuous
 62
    64
100
AcDbLine
 10
-83.758825
 20
-81.72038000000001
 30
0.0
 11
-83.758825
 21
-72.220377
 31
0.0
  0
LINE
  5
60A
330
5F2
100
AcDbEntity
  8
ボルト／ビス
  6
Continuous
 62
    64
100
AcDbLine
 10
-79.75882
 20
-81.72038000000001
 30
0.0
 11
-79.75882
 21
-72.220377
 31
0.0
  0
LINE
  5
60B
330
5F2
100
AcDbEntity
  8
ボルト／ビス
  6
Continuous
 62
    64
100
AcDbLine
 10
-80.25882300000001
 20
-81.72038000000001
 30
0.0
 11
-80.25882300000001
 21
-71.720382
 31
0.0
  0
LINE
  5
60C
330
5F2
100
AcDbEntity
  8
ボルト／ビス
  6
Continuous
 62
    64
100
AcDbLine
 10
-83.25882300000001
 20
-81.72038000000001
 30
0.0
 11
-83.25882300000001
 21
-71.720382
 31
0.0
  0
ENDBLK
  5
60D
330
5F2
100
AcDbEntity
  8
0
100
AcDbBlockEnd
  0
BLOCK
  5
60E
330
60F
100
AcDbEntity
  8
0
100
AcDbBlockBegin
  2
*U25
 70
     1
 71
     0
 10
0.0
 20
0.0
 30
0.0
  3
*U25
  1

  0
LINE
  5
610
330
60F
100
AcDbEntity
  8
ボルト／ビス
  6
Continuous
 62
    64
100
AcDbLine
 10
-33.158845
 20
-16.020365
 30
0.0
 11
-33.658847
 21
-16.520367
 31
0.0
  0
LINE
  5
611
330
60F
100
AcDbEntity
  8
ボルト／ビス
  6
Continuous
 62
    64
100
AcDbLine
 10
-33.158845
 20
-20.02037
 30
0.0
 11
-33.658847
 21
-19.520367
 31
0.0
  0
LINE
  5
612
330
60F
100
AcDbEntity
  8
ボルト／ビス
  6
Continuous
 62
    64
100
AcDbLine
 10
-33.658847
 20
-16.520367
 30
0.0
 11
-33.658847
 21
-19.520367
 31
0.0
  0
LINE
  5
613
330
60F
100
AcDbEntity
  8
ボルト／ビス
  6
Continuous
 62
    64
100
AcDbLine
 10
-33.158845
 20
-16.020365
 30
0.0
 11
-33.158845
 21
-20.02037
 31
0.0
  0
LINE
  5
614
330
60F
100
AcDbEntity
  8
ボルト／ビス
  6
Continuous
 62
    64
100
AcDbLine
 10
-33.158845
 20
-16.020365
 30
0.0
 11
-29.458847
 21
-16.020365
 31
0.0
  0
LINE
  5
615
330
60F
100
AcDbEntity
  8
ボルト／ビス
  6
Continuous
 62
    64
100
AcDbLine
 10
-33.658847
 20
-16.520367
 30
0.0
 11
-29.458847
 21
-16.520367
 31
0.0
  0
LINE
  5
616
330
60F
100
AcDbEntity
  8
ボルト／ビス
  6
Continuous
 62
    64
100
AcDbLine
 10
-33.658847
 20
-19.520367
 30
0.0
 11
-29.458847
 21
-19.520367
 31
0.0
  0
LINE
  5
617
330
60F
100
AcDbEntity
  8
ボルト／ビス
  6
Continuous
 62
    64
100
AcDbLine
 10
-33.158845
 20
-20.02037
 30
0.0
 11
-29.458847
 21
-20.02037
 31
0.0
  0
LINE
  5
618
330
60F
100
AcDbEntity
  8
ボルト／ビス
  6
Continuous
 62
    64
100
AcDbLine
 10
-29.458847
 20
-16.020365
 30
0.0
 11
-29.458847
 21
-20.02037
 31
0.0
  0
LINE
  5
619
330
60F
100
AcDbEntity
  8
ボルト／ビス
  6
Continuous
 62
    64
100
AcDbLine
 10
-27.658847
 20
-15.020367
 30
0.0
 11
-29.458847
 21
-16.020365
 31
0.0
  0
LINE
  5
61A
330
60F
100
AcDbEntity
  8
ボルト／ビス
  6
Continuous
 62
    64
100
AcDbLine
 10
-27.658847
 20
-15.020367
 30
0.0
 11
-27.658847
 21
-21.020367
 31
0.0
  0
LINE
  5
61B
330
60F
100
AcDbEntity
  8
ボルト／ビス
  6
Continuous
 62
    64
100
AcDbLine
 10
-27.658847
 20
-21.020367
 30
0.0
 11
-29.458847
 21
-20.02037
 31
0.0
  0
LINE
  5
61C
330
60F
100
AcDbEntity
  8
ボルト／ビス
  6
Continuous
 62
    64
100
AcDbLine
 10
-35.239322
 20
-18.020367
 30
0.0
 11
-26.175317
 21
-18.020367
 31
0.0
  0
ENDBLK
  5
61D
330
60F
100
AcDbEntity
  8
0
100
AcDbBlockEnd
  0
BLOCK
  5
61E
330
61F
100
AcDbEntity
  8
0
100
AcDbBlockBegin
  2
*U26
 70
     1
 71
     0
 10
0.0
 20
0.0
 30
0.0
  3
*U26
  1

  0
LINE
  5
620
330
61F
100
AcDbEntity
  8
ボルト／ビス
  6
Continuous
 62
    64
100
AcDbLine
 10
-27.25885
 20
2.975852
 30
0.0
 11
-26.210688
 21
2.88415
 31
0.0
  0
ARC
  5
621
330
61F
100
AcDbEntity
  8
ボルト／ビス
  6
Continuous
 62
    64
100
AcDbCircle
 10
-26.35885
 20
1.190621
 30
0.0
 40
1.7
100
AcDbArc
 50
0.0
 51
85.000011
  0
LINE
  5
622
330
61F
100
AcDbEntity
  8
ボルト／ビス
  6
Continuous
 62
    64
100
AcDbLine
 10
-24.658855
 20
1.19062
 30
0.0
 11
-24.658855
 21
-0.52415
 31
0.0
  0
LINE
  5
623
330
61F
100
AcDbEntity
  8
ボルト／ビス
  6
Continuous
 62
    64
100
AcDbLine
 10
-27.25885
 20
-4.024153
 30
0.0
 11
-26.210688
 21
-3.93245
 31
0.0
  0
ARC
  5
624
330
61F
100
AcDbEntity
  8
ボルト／ビス
  6
Continuous
 62
    64
100
AcDbCircle
 10
-26.35885
 20
-2.238913
 30
0.0
 40
1.7
100
AcDbArc
 50
274.999989
 51
0.0
  0
LINE
  5
625
330
61F
100
AcDbEntity
  8
ボルト／ビス
  6
Continuous
 62
    64
100
AcDbLine
 10
-24.658855
 20
-2.23892
 30
0.0
 11
-24.658855
 21
-0.52415
 31
0.0
  0
LINE
  5
626
330
61F
100
AcDbEntity
  8
ボルト／ビス
  6
Continuous
 62
    64
100
AcDbLine
 10
-25.043755
 20
1.87249
 30
0.0
 11
-24.801595
 21
1.87249
 31
0.0
  0
LINE
  5
627
330
61F
100
AcDbEntity
  8
ボルト／ビス
  6
Continuous
 62
    64
100
AcDbLine
 10
-25.69384
 20
0.175848
 30
0.0
 11
-25.69384
 21
-0.52415
 31
0.0
  0
LINE
  5
628
330
61F
100
AcDbEntity
  8
ボルト／ビス
  6
Continuous
 62
    64
100
AcDbLine
 10
-25.043755
 20
0.575852
 30
0.0
 11
-25.043755
 21
1.87249
 31
0.0
  0
LINE
  5
629
330
61F
100
AcDbEntity
  8
ボルト／ビス
  6
Continuous
 62
    64
100
AcDbLine
 10
-25.69384
 20
0.175848
 30
0.0
 11
-25.44376
 21
0.175848
 31
0.0
  0
ARC
  5
62A
330
61F
100
AcDbEntity
  8
ボルト／ビス
  6
Continuous
 62
    64
100
AcDbCircle
 10
-25.443755
 20
0.575854
 30
0.0
 40
0.4
100
AcDbArc
 50
270.0
 51
0.0
  0
LINE
  5
62B
330
61F
100
AcDbEntity
  8
ボルト／ビス
  6
Continuous
 62
    64
100
AcDbLine
 10
-25.043755
 20
-2.92079
 30
0.0
 11
-24.801595
 21
-2.92079
 31
0.0
  0
LINE
  5
62C
330
61F
100
AcDbEntity
  8
ボルト／ビス
  6
Continuous
 62
    64
100
AcDbLine
 10
-25.69384
 20
-1.224147
 30
0.0
 11
-25.69384
 21
-0.52415
 31
0.0
  0
LINE
  5
62D
330
61F
100
AcDbEntity
  8
ボルト／ビス
  6
Continuous
 62
    64
100
AcDbLine
 10
-25.043755
 20
-1.624153
 30
0.0
 11
-25.043755
 21
-2.92079
 31
0.0
  0
LINE
  5
62E
330
61F
100
AcDbEntity
  8
ボルト／ビス
  6
Continuous
 62
    64
100
AcDbLine
 10
-25.69384
 20
-1.224147
 30
0.0
 11
-25.44376
 21
-1.224147
 31
0.0
  0
ARC
  5
62F
330
61F
100
AcDbEntity
  8
ボルト／ビス
  6
Continuous
 62
    64
100
AcDbCircle
 10
-25.443755
 20
-1.624146
 30
0.0
 40
0.4
100
AcDbArc
 50
0.0
 51
90.0
  0
LINE
  5
630
330
61F
100
AcDbEntity
  8
ボルト／ビス
  6
Continuous
 62
    64
100
AcDbLine
 10
-27.25885
 20
2.975852
 30
0.0
 11
-27.25885
 21
-4.024153
 31
0.0
  0
LINE
  5
631
330
61F
100
AcDbEntity
  8
ボルト／ビス
  6
Continuous
 62
    64
100
AcDbLine
 10
-34.75885
 20
1.475852
 30
0.0
 11
-35.258853
 21
0.97585
 31
0.0
  0
LINE
  5
632
330
61F
100
AcDbEntity
  8
ボルト／ビス
  6
Continuous
 62
    64
100
AcDbLine
 10
-34.75885
 20
-2.524153
 30
0.0
 11
-35.258853
 21
-2.02415
 31
0.0
  0
LINE
  5
633
330
61F
100
AcDbEntity
  8
ボルト／ビス
  6
Continuous
 62
    64
100
AcDbLine
 10
-27.25885
 20
0.97585
 30
0.0
 11
-35.258853
 21
0.97585
 31
0.0
  0
LINE
  5
634
330
61F
100
AcDbEntity
  8
ボルト／ビス
  6
Continuous
 62
    64
100
AcDbLine
 10
-27.25885
 20
1.475852
 30
0.0
 11
-34.75885
 21
1.475852
 31
0.0
  0
LINE
  5
635
330
61F
100
AcDbEntity
  8
ボルト／ビス
  6
Continuous
 62
    64
100
AcDbLine
 10
-27.25885
 20
-2.02415
 30
0.0
 11
-35.258853
 21
-2.02415
 31
0.0
  0
LINE
  5
636
330
61F
100
AcDbEntity
  8
ボルト／ビス
  6
Continuous
 62
    64
100
AcDbLine
 10
-27.25885
 20
-2.524153
 30
0.0
 11
-34.75885
 21
-2.524153
 31
0.0
  0
LINE
  5
637
330
61F
100
AcDbEntity
  8
ボルト／ビス
  6
Continuous
 62
    64
100
AcDbLine
 10
-34.75885
 20
1.475852
 30
0.0
 11
-34.75885
 21
-2.524153
 31
0.0
  0
LINE
  5
638
330
61F
100
AcDbEntity
  8
ボルト／ビス
  6
Continuous
 62
    64
100
AcDbLine
 10
-35.258853
 20
0.97585
 30
0.0
 11
-35.258853
 21
-2.02415
 31
0.0
  0
LINE
  5
639
330
61F
100
AcDbEntity
  8
ボルト／ビス
  6
DASHDOT
 62
    64
100
AcDbLine
 10
-21.658855
 20
-0.52415
 30
0.0
 11
-38.258853
 21
-0.52415
 31
0.0
  0
ENDBLK
  5
63A
330
61F
100
AcDbEntity
  8
0
100
AcDbBlockEnd
  0
BLOCK
  5
63B
330
63C
100
AcDbEntity
  8
0
100
AcDbBlockBegin
  2
*U27
 70
     1
 71
     0
 10
0.0
 20
0.0
 30
0.0
  3
*U27
  1

  0
LINE
  5
63D
330
63C
100
AcDbEntity
  8
St
  6
Continuous
100
AcDbLine
 10
-68.064437
 20
-118.82036
 30
0.0
 11
-71.26443999999999
 21
-118.82036
 31
0.0
  0
LINE
  5
63E
330
63C
100
AcDbEntity
  8
St
  6
Continuous
100
AcDbLine
 10
-68.064437
 20
-108.820355
 30
0.0
 11
-71.26443999999999
 21
-108.820355
 31
0.0
  0
LINE
  5
63F
330
63C
100
AcDbEntity
  8
St
  6
Continuous
100
AcDbLine
 10
-46.341528
 20
-78.820258
 30
0.0
 11
-49.541522
 21
-82.02025999999999
 31
0.0
  0
LINE
  5
640
330
63C
100
AcDbEntity
  8
St
  6
Continuous
100
AcDbLine
 10
-47.048635
 20
-78.820258
 30
0.0
 11
-50.24863
 21
-82.02025999999999
 31
0.0
  0
LINE
  5
641
330
63C
100
AcDbEntity
  8
St
  6
Continuous
100
AcDbLine
 10
-74.983
 20
-78.820258
 30
0.0
 11
-78.18299500000001
 21
-82.02025999999999
 31
0.0
  0
LINE
  5
642
330
63C
100
AcDbEntity
  8
St
  6
Continuous
100
AcDbLine
 10
-75.690107
 20
-78.820258
 30
0.0
 11
-78.890103
 21
-82.02025999999999
 31
0.0
  0
LINE
  5
643
330
63C
100
AcDbEntity
  8
St
  6
Continuous
100
AcDbLine
 10
-25.258847
 20
-78.820385
 30
0.0
 11
-25.258847
 21
-82.02025999999999
 31
0.0
  0
ARC
  5
644
330
63C
100
AcDbEntity
  8
St
  6
Continuous
 62
   127
100
AcDbCircle
 10
-68.064444
 20
-82.020363
 30
0.0
 40
3.2
100
AcDbArc
 50
90.0
 51
180.0
  0
LINE
  5
645
330
63C
100
AcDbEntity
  8
St
  6
Continuous
100
AcDbLine
 10
-32.508805
 20
-78.820258
 30
0.0
 11
-32.508805
 21
-82.02025999999999
 31
0.0
  0
LINE
  5
646
330
63C
100
AcDbEntity
  8
St
  6
Continuous
100
AcDbLine
 10
-28.008805
 20
-78.820258
 30
0.0
 11
-28.008805
 21
-82.02025999999999
 31
0.0
  0
LINE
  5
647
330
63C
100
AcDbEntity
  8
St
  6
Continuous
100
AcDbLine
 10
-28.008805
 20
-79.62026
 30
0.0
 11
-32.508805
 21
-79.62026
 31
0.0
  0
LINE
  5
648
330
63C
100
AcDbEntity
  8
St
  6
Continuous
100
AcDbLine
 10
-28.008805
 20
-80.420255
 30
0.0
 11
-32.508805
 21
-80.420255
 31
0.0
  0
LINE
  5
649
330
63C
100
AcDbEntity
  8
St
  6
Continuous
100
AcDbLine
 10
-28.008805
 20
-81.220258
 30
0.0
 11
-32.508805
 21
-81.220258
 31
0.0
  0
LINE
  5
64A
330
63C
100
AcDbEntity
  8
St
  6
Continuous
100
AcDbLine
 10
-30.258805
 20
-85.071133
 30
0.0
 11
-30.258805
 21
-75.59849800000001
 31
0.0
  0
LINE
  5
64B
330
63C
100
AcDbEntity
  8
St
  6
Continuous
100
AcDbLine
 10
-84.008777
 20
-78.82037699999999
 30
0.0
 11
-84.008777
 21
-82.02038
 31
0.0
  0
LINE
  5
64C
330
63C
100
AcDbEntity
  8
St
  6
Continuous
100
AcDbLine
 10
-79.508777
 20
-78.82037699999999
 30
0.0
 11
-79.508777
 21
-82.02038
 31
0.0
  0
LINE
  5
64D
330
63C
100
AcDbEntity
  8
St
  6
Continuous
100
AcDbLine
 10
-79.508777
 20
-79.62038
 30
0.0
 11
-84.008777
 21
-79.62038
 31
0.0
  0
LINE
  5
64E
330
63C
100
AcDbEntity
  8
St
  6
Continuous
100
AcDbLine
 10
-79.508777
 20
-80.42037500000001
 30
0.0
 11
-84.008777
 21
-80.42037500000001
 31
0.0
  0
LINE
  5
64F
330
63C
100
AcDbEntity
  8
St
  6
Continuous
100
AcDbLine
 10
-79.508777
 20
-81.220377
 30
0.0
 11
-84.008777
 21
-81.220377
 31
0.0
  0
LINE
  5
650
330
63C
100
AcDbEntity
  8
St
  6
Continuous
100
AcDbLine
 10
-81.758777
 20
-85.071252
 30
0.0
 11
-81.758777
 21
-75.598618
 31
0.0
  0
LINE
  5
651
330
63C
100
AcDbEntity
  8
St
  6
Continuous
100
AcDbLine
 10
-62.892775
 20
-113.820357
 30
0.0
 11
-76.729953
 21
-113.820357
 31
0.0
  0
LINE
  5
652
330
63C
100
AcDbEntity
  8
St
  6
Continuous
100
AcDbLine
 10
-68.064437
 20
-128.82026
 30
0.0
 11
-71.26443999999999
 21
-128.82026
 31
0.0
  0
LINE
  5
653
330
63C
100
AcDbEntity
  8
St
  6
Continuous
 62
   127
100
AcDbLine
 10
-68.064437
 20
-82.02037300000001
 30
0.0
 11
-68.064437
 21
-128.82026
 31
0.0
  0
LINE
  5
654
330
63C
100
AcDbEntity
  8
St
  6
Continuous
 62
   127
100
AcDbLine
 10
-71.26443999999999
 20
-82.02037300000001
 30
0.0
 11
-71.26443999999999
 21
-128.82026
 31
0.0
  0
LINE
  5
655
330
63C
100
AcDbEntity
  8
St
  6
Continuous
 62
   127
100
AcDbLine
 10
-68.86444
 20
-108.820355
 30
0.0
 11
-68.86444
 21
-118.82036
 31
0.0
  0
LINE
  5
656
330
63C
100
AcDbEntity
  8
St
  6
Continuous
 62
   127
100
AcDbLine
 10
-69.664435
 20
-108.820355
 30
0.0
 11
-69.664435
 21
-118.82036
 31
0.0
  0
LINE
  5
657
330
63C
100
AcDbEntity
  8
St
  6
Continuous
 62
   127
100
AcDbLine
 10
-70.464437
 20
-108.820355
 30
0.0
 11
-70.464437
 21
-118.82036
 31
0.0
  0
LINE
  5
658
330
63C
100
AcDbEntity
  8
St
  6
Continuous
 62
   127
100
AcDbLine
 10
-25.258847
 20
-82.02025999999999
 30
0.0
 11
-86.758855
 21
-82.02038
 31
0.0
  0
LINE
  5
659
330
63C
100
AcDbEntity
  8
St
  6
Continuous
 62
   127
100
AcDbLine
 10
-86.758855
 20
-82.02038
 30
0.0
 11
-86.758847
 21
-78.82037699999999
 31
0.0
  0
LINE
  5
65A
330
63C
100
AcDbEntity
  8
St
  6
Continuous
 62
   127
100
AcDbLine
 10
-25.258847
 20
-78.820258
 30
0.0
 11
-86.758847
 21
-78.82037699999999
 31
0.0
  0
ENDBLK
  5
65B
330
63C
100
AcDbEntity
  8
0
100
AcDbBlockEnd
  0
BLOCK
  5
65C
330
65D
100
AcDbEntity
  8
0
100
AcDbBlockBegin
  2
*U28
 70
     1
 71
     0
 10
0.0
 20
0.0
 30
0.0
  3
*U28
  1

  0
LINE
  5
65E
330
65D
100
AcDbEntity
  8
寸法
  6
Continuous
100
AcDbLine
 10
-69.454493
 20
50.479632
 30
0.0
 11
-157.501293
 21
50.479632
 31
0.0
  0
LINE
  5
65F
330
65D
100
AcDbEntity
  8
寸法
  6
Continuous
100
AcDbLine
 10
-114.258845
 20
-78.520377
 30
0.0
 11
-157.501293
 21
-78.520377
 31
0.0
  0
LINE
  5
660
330
65D
100
AcDbEntity
  8
寸法
  6
Continuous
100
AcDbLine
 10
-157.501293
 20
50.479632
 30
0.0
 11
-157.501293
 21
-78.520377
 31
0.0
  0
POINT
  5
661
330
65D
100
AcDbEntity
  8
寸法
100
AcDbPoint
 10
-157.501293
 20
50.479632
 30
0.0
  0
POINT
  5
662
330
65D
100
AcDbEntity
  8
寸法
100
AcDbPoint
 10
-157.501293
 20
-78.520377
 30
0.0
  0
TEXT
  5
663
330
65D
100
AcDbEntity
  8
寸法
  6
Continuous
100
AcDbText
 10
-157.9
 20
-17.275
 30
0.0
 40
4.0
  1
129
 50
90.0
  7
TextStyle03
 72
     5
 11
-157.9
 21
-10.775
 31
0.0
100
AcDbText
  0
ENDBLK
  5
664
330
65D
100
AcDbEntity
  8
0
100
AcDbBlockEnd
  0
BLOCK
  5
665
330
666
100
AcDbEntity
  8
0
100
AcDbBlockBegin
  2
*U29
 70
     1
 71
     0
 10
0.0
 20
0.0
 30
0.0
  3
*U29
  1

  0
LINE
  5
667
330
666
100
AcDbEntity
  8
寸法
  6
Continuous
100
AcDbLine
 10
-89.258847
 20
-88.520375
 30
0.0
 11
-157.501293
 21
-88.520375
 31
0.0
  0
LINE
  5
668
330
666
100
AcDbEntity
  8
寸法
  6
Continuous
100
AcDbLine
 10
-157.501293
 20
-78.520377
 30
0.0
 11
-157.501293
 21
-88.520375
 31
0.0
  0
POINT
  5
669
330
666
100
AcDbEntity
  8
寸法
100
AcDbPoint
 10
-157.501293
 20
-88.520375
 30
0.0
  0
TEXT
  5
66A
330
666
100
AcDbEntity
  8
寸法
  6
Continuous
100
AcDbText
 10
-157.9
 20
-85.65000000000001
 30
0.0
 40
4.0
  1
10
 50
90.0
  7
TextStyle03
 72
     5
 11
-157.9
 21
-81.40000000000001
 31
0.0
100
AcDbText
  0
ENDBLK
  5
66B
330
666
100
AcDbEntity
  8
0
100
AcDbBlockEnd
  0
BLOCK
  5
66C
330
66D
100
AcDbEntity
  8
0
100
AcDbBlockBegin
  2
*U30
 70
     1
 71
     0
 10
0.0
 20
0.0
 30
0.0
  3
*U30
  1

  0
LINE
  5
66E
330
66D
100
AcDbEntity
  8
寸法
  6
Continuous
100
AcDbLine
 10
-69.454493
 20
50.479632
 30
0.0
 11
-149.282687
 21
50.479632
 31
0.0
  0
LINE
  5
66F
330
66D
100
AcDbEntity
  8
寸法
  6
Continuous
100
AcDbLine
 10
-67.75884499999999
 20
0.47962
 30
0.0
 11
-149.282687
 21
0.47962
 31
0.0
  0
LINE
  5
670
330
66D
100
AcDbEntity
  8
寸法
  6
Continuous
100
AcDbLine
 10
-149.282687
 20
50.479632
 30
0.0
 11
-149.282687
 21
0.47962
 31
0.0
  0
POINT
  5
671
330
66D
100
AcDbEntity
  8
寸法
100
AcDbPoint
 10
-149.282687
 20
50.479632
 30
0.0
  0
POINT
  5
672
330
66D
100
AcDbEntity
  8
寸法
100
AcDbPoint
 10
-149.282687
 20
0.47962
 30
0.0
  0
TEXT
  5
673
330
66D
100
AcDbEntity
  8
寸法
  6
Continuous
100
AcDbText
 10
-149.7
 20
23.35
 30
0.0
 40
4.0
  1
50
 50
90.0
  7
TextStyle03
 72
     5
 11
-149.7
 21
27.6
 31
0.0
100
AcDbText
  0
ENDBLK
  5
674
330
66D
100
AcDbEntity
  8
0
100
AcDbBlockEnd
  0
BLOCK
  5
675
330
676
100
AcDbEntity
  8
0
100
AcDbBlockBegin
  2
*U31
 70
     1
 71
     0
 10
0.0
 20
0.0
 30
0.0
  3
*U31
  1

  0
LINE
  5
677
330
676
100
AcDbEntity
  8
寸法
  6
Continuous
100
AcDbLine
 10
-114.258845
 20
-63.520377
 30
0.0
 11
-149.282687
 21
-63.520377
 31
0.0
  0
LINE
  5
678
330
676
100
AcDbEntity
  8
寸法
  6
Continuous
100
AcDbLine
 10
-149.282687
 20
0.47962
 30
0.0
 11
-149.282687
 21
-63.520377
 31
0.0
  0
POINT
  5
679
330
676
100
AcDbEntity
  8
寸法
100
AcDbPoint
 10
-149.282687
 20
-63.520377
 30
0.0
  0
TEXT
  5
67A
330
676
100
AcDbEntity
  8
寸法
  6
Continuous
100
AcDbText
 10
-149.7
 20
-33.65
 30
0.0
 40
4.0
  1
64
 50
90.0
  7
TextStyle03
 72
     5
 11
-149.7
 21
-29.4
 31
0.0
100
AcDbText
  0
ENDBLK
  5
67B
330
676
100
AcDbEntity
  8
0
100
AcDbBlockEnd
  0
BLOCK
  5
67C
330
67D
100
AcDbEntity
  8
0
100
AcDbBlockBegin
  2
*U32
 70
     1
 71
     0
 10
0.0
 20
0.0
 30
0.0
  3
*U32
  1

  0
LINE
  5
67E
330
67D
100
AcDbEntity
  8
寸法
  6
Continuous
100
AcDbLine
 10
-114.258845
 20
-78.520377
 30
0.0
 11
-149.282687
 21
-78.520377
 31
0.0
  0
LINE
  5
67F
330
67D
100
AcDbEntity
  8
寸法
  6
Continuous
100
AcDbLine
 10
-149.282687
 20
-63.520377
 30
0.0
 11
-149.282687
 21
-78.520377
 31
0.0
  0
POINT
  5
680
330
67D
100
AcDbEntity
  8
寸法
100
AcDbPoint
 10
-149.282687
 20
-78.520377
 30
0.0
  0
TEXT
  5
681
330
67D
100
AcDbEntity
  8
寸法
  6
Continuous
100
AcDbText
 10
-149.7
 20
-73.15000000000001
 30
0.0
 40
4.0
  1
15
 50
90.0
  7
TextStyle03
 72
     5
 11
-149.7
 21
-68.90000000000001
 31
0.0
100
AcDbText
  0
ENDBLK
  5
682
330
67D
100
AcDbEntity
  8
0
100
AcDbBlockEnd
  0
BLOCK
  5
683
330
684
100
AcDbEntity
  8
0
100
AcDbBlockBegin
  2
*U33
 70
     1
 71
     0
 10
0.0
 20
0.0
 30
0.0
  3
*U33
  1

  0
LINE
  5
685
330
684
100
AcDbEntity
  8
寸法
  6
Continuous
100
AcDbLine
 10
-114.258845
 20
-63.520377
 30
0.0
 11
-140.930108
 21
-63.520377
 31
0.0
  0
LINE
  5
686
330
684
100
AcDbEntity
  8
寸法
  6
Continuous
100
AcDbLine
 10
-59.258847
 20
-58.520375
 30
0.0
 11
-140.930108
 21
-58.520375
 31
0.0
  0
LINE
  5
687
330
684
100
AcDbEntity
  8
寸法
  6
Continuous
100
AcDbLine
 10
-140.930108
 20
-63.520377
 30
0.0
 11
-140.930108
 21
-58.520375
 31
0.0
  0
POINT
  5
688
330
684
100
AcDbEntity
  8
寸法
100
AcDbPoint
 10
-140.930108
 20
-63.520377
 30
0.0
  0
POINT
  5
689
330
684
100
AcDbEntity
  8
寸法
100
AcDbPoint
 10
-140.930108
 20
-58.520375
 30
0.0
  0
TEXT
  5
68A
330
684
100
AcDbEntity
  8
寸法
  6
Continuous
100
AcDbText
 10
-141.325
 20
-62.025
 30
0.0
 40
4.0
  1
5
 50
90.0
  7
TextStyle03
 72
     5
 11
-141.325
 21
-60.025
 31
0.0
100
AcDbText
  0
ENDBLK
  5
68B
330
684
100
AcDbEntity
  8
0
100
AcDbBlockEnd
  0
BLOCK
  5
68C
330
68D
100
AcDbEntity
  8
0
100
AcDbBlockBegin
  2
*U34
 70
     1
 71
     0
 10
0.0
 20
0.0
 30
0.0
  3
*U34
  1

  0
LINE
  5
68E
330
68D
100
AcDbEntity
  8
寸法
  6
Continuous
100
AcDbLine
 10
-113.258845
 20
-62.520377
 30
0.0
 11
-113.258845
 21
107.132187
 31
0.0
  0
LINE
  5
68F
330
68D
100
AcDbEntity
  8
寸法
  6
Continuous
100
AcDbLine
 10
-18.258847
 20
107.132187
 30
0.0
 11
-113.258845
 21
107.132187
 31
0.0
  0
POINT
  5
690
330
68D
100
AcDbEntity
  8
寸法
100
AcDbPoint
 10
-18.258847
 20
107.132187
 30
0.0
  0
POINT
  5
691
330
68D
100
AcDbEntity
  8
寸法
100
AcDbPoint
 10
-113.258845
 20
107.132187
 30
0.0
  0
TEXT
  5
692
330
68D
100
AcDbEntity
  8
寸法
  6
Continuous
100
AcDbText
 10
-67.925
 20
107.5
 30
0.0
 40
4.0
  1
95
  7
TextStyle03
 72
     5
 11
-63.675
 21
107.5
 31
0.0
100
AcDbText
  0
ENDBLK
  5
693
330
68D
100
AcDbEntity
  8
0
100
AcDbBlockEnd
  0
BLOCK
  5
694
330
695
100
AcDbEntity
  8
0
100
AcDbBlockBegin
  2
*U35
 70
     1
 71
     0
 10
0.0
 20
0.0
 30
0.0
  3
*U35
  1

  0
LINE
  5
696
330
695
100
AcDbEntity
  8
寸法
  6
Continuous
100
AcDbLine
 10
16.741152
 20
-24.520375
 30
0.0
 11
16.741152
 21
98.476022
 31
0.0
  0
LINE
  5
697
330
695
100
AcDbEntity
  8
寸法
  6
Continuous
100
AcDbLine
 10
-18.258847
 20
98.476022
 30
0.0
 11
16.741152
 21
98.476022
 31
0.0
  0
POINT
  5
698
330
695
100
AcDbEntity
  8
寸法
100
AcDbPoint
 10
-18.258847
 20
98.476022
 30
0.0
  0
POINT
  5
699
330
695
100
AcDbEntity
  8
寸法
100
AcDbPoint
 10
16.741152
 20
98.476022
 30
0.0
  0
TEXT
  5
69A
330
695
100
AcDbEntity
  8
寸法
  6
Continuous
100
AcDbText
 10
-2.925
 20
98.84999999999999
 30
0.0
 40
4.0
  1
35
  7
TextStyle03
 72
     5
 11
1.325
 21
98.84999999999999
 31
0.0
100
AcDbText
  0
ENDBLK
  5
69B
330
695
100
AcDbEntity
  8
0
100
AcDbBlockEnd
  0
BLOCK
  5
69C
330
69D
100
AcDbEntity
  8
0
100
AcDbBlockBegin
  2
*U36
 70
     1
 71
     0
 10
0.0
 20
0.0
 30
0.0
  3
*U36
  1

  0
LINE
  5
69E
330
69D
100
AcDbEntity
  8
寸法
  6
Continuous
100
AcDbLine
 10
-113.258845
 20
-79.520377
 30
0.0
 11
-113.258845
 21
-101.539027
 31
0.0
  0
LINE
  5
69F
330
69D
100
AcDbEntity
  8
寸法
  6
Continuous
100
AcDbLine
 10
-88.258847
 20
-89.520375
 30
0.0
 11
-88.258847
 21
-101.539027
 31
0.0
  0
LINE
  5
6A0
330
69D
100
AcDbEntity
  8
寸法
  6
Continuous
100
AcDbLine
 10
-113.258845
 20
-101.539027
 30
0.0
 11
-88.258847
 21
-101.539027
 31
0.0
  0
POINT
  5
6A1
330
69D
100
AcDbEntity
  8
寸法
100
AcDbPoint
 10
-113.258845
 20
-101.539027
 30
0.0
  0
POINT
  5
6A2
330
69D
100
AcDbEntity
  8
寸法
100
AcDbPoint
 10
-88.258847
 20
-101.539027
 30
0.0
  0
TEXT
  5
6A3
330
69D
100
AcDbEntity
  8
寸法
  6
Continuous
100
AcDbText
 10
-102.925
 20
-101.15
 30
0.0
 40
4.0
  1
25
  7
TextStyle03
 72
     5
 11
-98.675
 21
-101.15
 31
0.0
100
AcDbText
  0
ENDBLK
  5
6A4
330
69D
100
AcDbEntity
  8
0
100
AcDbBlockEnd
  0
BLOCK
  5
6A5
330
6A6
100
AcDbEntity
  8
0
100
AcDbBlockBegin
  2
*U37
 70
     1
 71
     0
 10
0.0
 20
0.0
 30
0.0
  3
*U37
  1

  0
LWPOLYLINE
  5
6A7
330
6A6
100
AcDbEntity
  8
寸法
  6
ByBlock
 62
     0
100
AcDbPolyline
 90
        3
 70
     0
 43
0.0
 10
-58.258847
 20
-54.220377
 10
-61.334475
 20
-51.14475
 10
-70.883915
 20
-51.14475
  0
ENDBLK
  5
6AC
330
6A6
100
AcDbEntity
  8
0
100
AcDbBlockEnd
  0
BLOCK
  5
6AD
330
6AE
100
AcDbEntity
  8
0
100
AcDbBlockBegin
  2
*U38
 70
     1
 71
     0
 10
0.0
 20
0.0
 30
0.0
  3
*U38
  1

  0
LWPOLYLINE
  5
6AF
330
6AE
100
AcDbEntity
  8
寸法
  6
ByBlock
 62
     0
100
AcDbPolyline
 90
        3
 70
     0
 43
0.0
 10
-16.288332
 20
-45.600355
 10
1.9279
 20
-63.816587
 10
16.328418
 20
-63.816587
  0
ENDBLK
  5
6B4
330
6AE
100
AcDbEntity
  8
0
100
AcDbBlockEnd
  0
BLOCK
  5
6B5
330
6B6
100
AcDbEntity
  8
0
100
AcDbBlockBegin
  2
*U39
 70
     1
 71
     0
 10
0.0
 20
0.0
 30
0.0
  3
*U39
  1

  0
LWPOLYLINE
  5
6B7
330
6B6
100
AcDbEntity
  8
寸法
  6
Continuous
100
AcDbPolyline
 90
        3
 70
     0
 43
0.0
 10
-9.483235000000001
 20
-12.124153
 10
-3.929577
 20
-17.67781
 10
25.513465
 20
-17.67781
  0
ENDBLK
  5
6BC
330
6B6
100
AcDbEntity
  8
0
100
AcDbBlockEnd
  0
BLOCK
  5
6BD
330
6BE
100
AcDbEntity
  8
0
100
AcDbBlockBegin
  2
*U40
 70
     1
 71
     0
 10
0.0
 20
0.0
 30
0.0
  3
*U40
  1

  0
LWPOLYLINE
  5
6BF
330
6BE
100
AcDbEntity
  8
寸法
  6
Continuous
100
AcDbPolyline
 90
        3
 70
     0
 43
0.0
 10
-13.15885
 20
-67.85319300000001
 10
5.300338
 20
-86.312382
 10
15.525007
 20
-86.312382
  0
ENDBLK
  5
6C4
330
6BE
100
AcDbEntity
  8
0
100
AcDbBlockEnd
  0
BLOCK
  5
6C5
330
6C6
100
AcDbEntity
  8
0
100
AcDbBlockBegin
  2
*U41
 70
     1
 71
     0
 10
0.0
 20
0.0
 30
0.0
  3
*U41
  1

  0
LINE
  5
6C7
330
6C6
100
AcDbEntity
  8
寸法
  6
Continuous
100
AcDbLine
 10
2.5015
 20
50.479623
 30
0.0
 11
97.180588
 21
50.479623
 31
0.0
  0
LINE
  5
6C8
330
6C6
100
AcDbEntity
  8
寸法
  6
Continuous
100
AcDbLine
 10
4.54551
 20
47.27962
 30
0.0
 11
97.180588
 21
47.27962
 31
0.0
  0
LINE
  5
6C9
330
6C6
100
AcDbEntity
  8
寸法
  6
Continuous
100
AcDbLine
 10
97.180588
 20
50.479623
 30
0.0
 11
97.180588
 21
47.27962
 31
0.0
  0
POINT
  5
6CA
330
6C6
100
AcDbEntity
  8
寸法
100
AcDbPoint
 10
97.180588
 20
50.479623
 30
0.0
  0
POINT
  5
6CB
330
6C6
100
AcDbEntity
  8
寸法
100
AcDbPoint
 10
97.180588
 20
47.27962
 30
0.0
  0
TEXT
  5
6CC
330
6C6
100
AcDbEntity
  8
寸法
  6
Continuous
100
AcDbText
 10
96.77500000000001
 20
52.375
 30
0.0
 40
4.0
  1
3.2
 50
90.0
  7
TextStyle03
 72
     5
 11
96.77500000000001
 21
58.875
 31
0.0
100
AcDbText
  0
ENDBLK
  5
6CD
330
6C6
100
AcDbEntity
  8
0
100
AcDbBlockEnd
  0
BLOCK
  5
6CE
330
6CF
100
AcDbEntity
  8
0
100
AcDbBlockBegin
  2
*U42
 70
     1
 71
     0
 10
0.0
 20
0.0
 30
0.0
  3
*U42
  1

  0
LINE
  5
6D0
330
6CF
100
AcDbEntity
  8
寸法
  6
Continuous
100
AcDbLine
 10
4.54551
 20
47.27962
 30
0.0
 11
97.180588
 21
47.27962
 31
0.0
  0
LINE
  5
6D1
330
6CF
100
AcDbEntity
  8
寸法
  6
Continuous
100
AcDbLine
 10
2.238023
 20
5.675755
 30
0.0
 11
97.180588
 21
5.675755
 31
0.0
  0
LINE
  5
6D2
330
6CF
100
AcDbEntity
  8
寸法
  6
Continuous
100
AcDbLine
 10
97.180588
 20
47.27962
 30
0.0
 11
97.180588
 21
5.675755
 31
0.0
  0
POINT
  5
6D3
330
6CF
100
AcDbEntity
  8
寸法
100
AcDbPoint
 10
97.180588
 20
5.675755
 30
0.0
  0
TEXT
  5
6D4
330
6CF
100
AcDbEntity
  8
寸法
  6
Continuous
100
AcDbText
 10
96.77500000000001
 20
22.1
 30
0.0
 40
4.0
  1
41.6
 50
90.0
  7
TextStyle03
 72
     5
 11
96.77500000000001
 21
30.85
 31
0.0
100
AcDbText
  0
ENDBLK
  5
6D5
330
6CF
100
AcDbEntity
  8
0
100
AcDbBlockEnd
  0
BLOCK
  5
6D6
330
6D7
100
AcDbEntity
  8
0
100
AcDbBlockBegin
  2
*U43
 70
     1
 71
     0
 10
0.0
 20
0.0
 30
0.0
  3
*U43
  1

  0
LINE
  5
6D8
330
6D7
100
AcDbEntity
  8
寸法
  6
Continuous
100
AcDbLine
 10
2.238023
 20
5.675755
 30
0.0
 11
97.180588
 21
5.675755
 31
0.0
  0
LINE
  5
6D9
330
6D7
100
AcDbEntity
  8
寸法
  6
Continuous
100
AcDbLine
 10
17.741152
 20
-25.520375
 30
0.0
 11
97.180588
 21
-25.520375
 31
0.0
  0
LINE
  5
6DA
330
6D7
100
AcDbEntity
  8
寸法
  6
Continuous
100
AcDbLine
 10
97.180588
 20
5.675755
 30
0.0
 11
97.180588
 21
-25.520375
 31
0.0
  0
POINT
  5
6DB
330
6D7
100
AcDbEntity
  8
寸法
100
AcDbPoint
 10
97.180588
 20
-25.520375
 30
0.0
  0
TEXT
  5
6DC
330
6D7
100
AcDbEntity
  8
寸法
  6
Continuous
100
AcDbText
 10
96.77500000000001
 20
-14.3
 30
0.0
 40
4.0
  1
31.2
 50
90.0
  7
TextStyle03
 72
     5
 11
96.77500000000001
 21
-5.55
 31
0.0
100
AcDbText
  0
ENDBLK
  5
6DD
330
6D7
100
AcDbEntity
  8
0
100
AcDbBlockEnd
  0
BLOCK
  5
6DE
330
6DF
100
AcDbEntity
  8
0
100
AcDbBlockBegin
  2
*U44
 70
     1
 71
     0
 10
0.0
 20
0.0
 30
0.0
  3
*U44
  1

  0
LINE
  5
6E0
330
6DF
100
AcDbEntity
  8
寸法
  6
Continuous
100
AcDbLine
 10
17.741152
 20
-25.520375
 30
0.0
 11
97.180588
 21
-25.520375
 31
0.0
  0
LINE
  5
6E1
330
6DF
100
AcDbEntity
  8
寸法
  6
Continuous
100
AcDbLine
 10
17.741152
 20
-36.020375
 30
0.0
 11
97.180588
 21
-36.020375
 31
0.0
  0
LINE
  5
6E2
330
6DF
100
AcDbEntity
  8
寸法
  6
Continuous
100
AcDbLine
 10
97.180588
 20
-25.520375
 30
0.0
 11
97.180588
 21
-36.020375
 31
0.0
  0
POINT
  5
6E3
330
6DF
100
AcDbEntity
  8
寸法
100
AcDbPoint
 10
97.180588
 20
-36.020375
 30
0.0
  0
TEXT
  5
6E4
330
6DF
100
AcDbEntity
  8
寸法
  6
Continuous
100
AcDbText
 10
96.77500000000001
 20
-35.15
 30
0.0
 40
4.0
  1
10.5
 50
90.0
  7
TextStyle03
 72
     5
 11
96.77500000000001
 21
-26.4
 31
0.0
100
AcDbText
  0
ENDBLK
  5
6E5
330
6DF
100
AcDbEntity
  8
0
100
AcDbBlockEnd
  0
BLOCK
  5
6E6
330
6E7
100
AcDbEntity
  8
0
100
AcDbBlockBegin
  2
*U45
 70
     1
 71
     0
 10
0.0
 20
0.0
 30
0.0
  3
*U45
  1

  0
LINE
  5
6E8
330
6E7
100
AcDbEntity
  8
寸法
  6
Continuous
100
AcDbLine
 10
17.741152
 20
-36.020375
 30
0.0
 11
97.180588
 21
-36.020375
 31
0.0
  0
LINE
  5
6E9
330
6E7
100
AcDbEntity
  8
寸法
  6
Continuous
100
AcDbLine
 10
-24.258847
 20
-78.820385
 30
0.0
 11
97.180588
 21
-78.820385
 31
0.0
  0
LINE
  5
6EA
330
6E7
100
AcDbEntity
  8
寸法
  6
Continuous
100
AcDbLine
 10
97.180588
 20
-36.020375
 30
0.0
 11
97.180588
 21
-78.820385
 31
0.0
  0
POINT
  5
6EB
330
6E7
100
AcDbEntity
  8
寸法
100
AcDbPoint
 10
97.180588
 20
-78.820385
 30
0.0
  0
TEXT
  5
6EC
330
6E7
100
AcDbEntity
  8
寸法
  6
Continuous
100
AcDbText
 10
96.77500000000001
 20
-61.8
 30
0.0
 40
4.0
  1
42.8
 50
90.0
  7
TextStyle03
 72
     5
 11
96.77500000000001
 21
-53.05
 31
0.0
100
AcDbText
  0
ENDBLK
  5
6ED
330
6E7
100
AcDbEntity
  8
0
100
AcDbBlockEnd
  0
BLOCK
  5
6EE
330
6EF
100
AcDbEntity
  8
0
100
AcDbBlockBegin
  2
*U46
 70
     1
 71
     0
 10
0.0
 20
0.0
 30
0.0
  3
*U46
  1

  0
LINE
  5
6F0
330
6EF
100
AcDbEntity
  8
寸法
  6
Continuous
100
AcDbLine
 10
4.54551
 20
47.27962
 30
0.0
 11
89.850898
 21
47.27962
 31
0.0
  0
LINE
  5
6F1
330
6EF
100
AcDbEntity
  8
寸法
  6
Continuous
100
AcDbLine
 10
51.714378
 20
38.475745
 30
0.0
 11
89.850898
 21
38.475745
 31
0.0
  0
LINE
  5
6F2
330
6EF
100
AcDbEntity
  8
寸法
  6
Continuous
100
AcDbLine
 10
89.850898
 20
47.27962
 30
0.0
 11
89.850898
 21
38.475745
 31
0.0
  0
POINT
  5
6F3
330
6EF
100
AcDbEntity
  8
寸法
100
AcDbPoint
 10
89.850898
 20
47.27962
 30
0.0
  0
POINT
  5
6F4
330
6EF
100
AcDbEntity
  8
寸法
100
AcDbPoint
 10
89.850898
 20
38.475745
 30
0.0
  0
TEXT
  5
6F5
330
6EF
100
AcDbEntity
  8
寸法
  6
Continuous
100
AcDbText
 10
89.45
 20
39.625
 30
0.0
 40
4.0
  1
8.8
 50
90.0
  7
TextStyle03
 72
     5
 11
89.45
 21
46.125
 31
0.0
100
AcDbText
  0
ENDBLK
  5
6F6
330
6EF
100
AcDbEntity
  8
0
100
AcDbBlockEnd
  0
BLOCK
  5
6F7
330
6F8
100
AcDbEntity
  8
0
100
AcDbBlockBegin
  2
*U47
 70
     1
 71
     0
 10
0.0
 20
0.0
 30
0.0
  3
*U47
  1

  0
LINE
  5
6F9
330
6F8
100
AcDbEntity
  8
寸法
  6
Continuous
100
AcDbLine
 10
51.714378
 20
38.475745
 30
0.0
 11
89.850898
 21
38.475745
 31
0.0
  0
LINE
  5
6FA
330
6F8
100
AcDbEntity
  8
寸法
  6
Continuous
100
AcDbLine
 10
51.714378
 20
20.67574
 30
0.0
 11
89.850898
 21
20.67574
 31
0.0
  0
LINE
  5
6FB
330
6F8
100
AcDbEntity
  8
寸法
  6
Continuous
100
AcDbLine
 10
89.850898
 20
38.475745
 30
0.0
 11
89.850898
 21
20.67574
 31
0.0
  0
POINT
  5
6FC
330
6F8
100
AcDbEntity
  8
寸法
100
AcDbPoint
 10
89.850898
 20
20.67574
 30
0.0
  0
TEXT
  5
6FD
330
6F8
100
AcDbEntity
  8
寸法
  6
Continuous
100
AcDbText
 10
89.45
 20
25.2
 30
0.0
 40
4.0
  1
17.8
 50
90.0
  7
TextStyle03
 72
     5
 11
89.45
 21
33.95
 31
0.0
100
AcDbText
  0
ENDBLK
  5
6FE
330
6F8
100
AcDbEntity
  8
0
100
AcDbBlockEnd
  0
BLOCK
  5
6FF
330
700
100
AcDbEntity
  8
0
100
AcDbBlockBegin
  2
*U48
 70
     1
 71
     0
 10
0.0
 20
0.0
 30
0.0
  3
*U48
  1

  0
LINE
  5
701
330
700
100
AcDbEntity
  8
寸法
  6
Continuous
100
AcDbLine
 10
51.714378
 20
20.67574
 30
0.0
 11
89.850898
 21
20.67574
 31
0.0
  0
LINE
  5
702
330
700
100
AcDbEntity
  8
寸法
  6
Continuous
100
AcDbLine
 10
2.238023
 20
5.675755
 30
0.0
 11
89.850898
 21
5.675755
 31
0.0
  0
LINE
  5
703
330
700
100
AcDbEntity
  8
寸法
  6
Continuous
100
AcDbLine
 10
89.850898
 20
20.67574
 30
0.0
 11
89.850898
 21
5.675755
 31
0.0
  0
POINT
  5
704
330
700
100
AcDbEntity
  8
寸法
100
AcDbPoint
 10
89.850898
 20
5.675755
 30
0.0
  0
TEXT
  5
705
330
700
100
AcDbEntity
  8
寸法
  6
Continuous
100
AcDbText
 10
89.45
 20
11.05
 30
0.0
 40
4.0
  1
15
 50
90.0
  7
TextStyle03
 72
     5
 11
89.45
 21
15.3
 31
0.0
100
AcDbText
  0
ENDBLK
  5
706
330
700
100
AcDbEntity
  8
0
100
AcDbBlockEnd
  0
BLOCK
  5
707
330
708
100
AcDbEntity
  8
0
100
AcDbBlockBegin
  2
*U49
 70
     1
 71
     0
 10
0.0
 20
0.0
 30
0.0
  3
*U49
  1

  0
LWPOLYLINE
  5
709
330
708
100
AcDbEntity
  8
寸法
  6
Continuous
100
AcDbPolyline
 90
        3
 70
     0
 43
0.0
 10
-50.458595
 20
17.847942
 10
-65.47969000000001
 20
-10.93281
 10
-68.71467800000001
 20
-10.93281
  0
ENDBLK
  5
70E
330
708
100
AcDbEntity
  8
0
100
AcDbBlockEnd
  0
BLOCK
  5
70F
330
710
100
AcDbEntity
  8
0
100
AcDbBlockBegin
  2
*U50
 70
     1
 71
     0
 10
0.0
 20
0.0
 30
0.0
  3
*U50
  1

  0
LINE
  5
711
330
710
100
AcDbEntity
  8
型材断面
  6
Continuous
100
AcDbLine
 10
-16.258847
 20
-48.520377
 30
0.0
 11
-17.008847
 21
-48.520377
 31
0.0
  0
LINE
  5
712
330
710
100
AcDbEntity
  8
型材断面
  6
Continuous
100
AcDbLine
 10
-17.008847
 20
-48.520377
 30
0.0
 11
-16.808845
 21
-47.52038
 31
0.0
  0
LINE
  5
713
330
710
100
AcDbEntity
  8
型材断面
  6
Continuous
100
AcDbLine
 10
-16.808845
 20
-47.52038
 30
0.0
 11
-11.758847
 21
-47.52038
 31
0.0
  0
LINE
  5
714
330
710
100
AcDbEntity
  8
型材断面
  6
Continuous
100
AcDbLine
 10
-11.758847
 20
-47.52038
 30
0.0
 11
-11.758847
 21
-52.02038
 31
0.0
  0
LINE
  5
715
330
710
100
AcDbEntity
  8
型材断面
  6
Continuous
100
AcDbLine
 10
-11.758847
 20
-52.02038
 30
0.0
 11
-12.958847
 21
-52.02038
 31
0.0
  0
LINE
  5
716
330
710
100
AcDbEntity
  8
型材断面
  6
Continuous
100
AcDbLine
 10
-12.958847
 20
-52.02038
 30
0.0
 11
-12.958847
 21
-49.020373
 31
0.0
  0
LINE
  5
717
330
710
100
AcDbEntity
  8
型材断面
  6
Continuous
100
AcDbLine
 10
-12.958847
 20
-49.020373
 30
0.0
 11
-14.758847
 21
-49.020373
 31
0.0
  0
LINE
  5
718
330
710
100
AcDbEntity
  8
型材断面
  6
Continuous
100
AcDbLine
 10
-14.758847
 20
-49.020373
 30
0.0
 11
-14.758847
 21
-52.02038
 31
0.0
  0
LINE
  5
719
330
710
100
AcDbEntity
  8
型材断面
  6
Continuous
100
AcDbLine
 10
-14.758847
 20
-52.02038
 30
0.0
 11
-19.45885
 21
-52.02038
 31
0.0
  0
LINE
  5
71A
330
710
100
AcDbEntity
  8
型材断面
  6
Continuous
100
AcDbLine
 10
-19.45885
 20
-52.02038
 30
0.0
 11
-19.75885
 21
-51.720373
 31
0.0
  0
LINE
  5
71B
330
710
100
AcDbEntity
  8
型材断面
  6
Continuous
100
AcDbLine
 10
-19.75885
 20
-51.720373
 30
0.0
 11
-20.058842
 21
-52.02038
 31
0.0
  0
LINE
  5
71C
330
710
100
AcDbEntity
  8
型材断面
  6
Continuous
100
AcDbLine
 10
-20.058842
 20
-52.02038
 30
0.0
 11
-25.258847
 21
-52.02038
 31
0.0
  0
LINE
  5
71D
330
710
100
AcDbEntity
  8
型材断面
  6
Continuous
100
AcDbLine
 10
-25.258847
 20
-52.02038
 30
0.0
 11
-25.258847
 21
-78.820385
 31
0.0
  0
LINE
  5
71E
330
710
100
AcDbEntity
  8
型材断面
  6
Continuous
100
AcDbLine
 10
-25.258847
 20
-78.820385
 30
0.0
 11
-29.958842
 21
-78.820385
 31
0.0
  0
LINE
  5
71F
330
710
100
AcDbEntity
  8
型材断面
  6
Continuous
100
AcDbLine
 10
-29.958842
 20
-78.820385
 30
0.0
 11
-30.25885
 21
-78.520377
 31
0.0
  0
LINE
  5
720
330
710
100
AcDbEntity
  8
型材断面
  6
Continuous
100
AcDbLine
 10
-30.25885
 20
-78.520377
 30
0.0
 11
-30.55885
 21
-78.820385
 31
0.0
  0
LINE
  5
721
330
710
100
AcDbEntity
  8
型材断面
  6
Continuous
100
AcDbLine
 10
-30.55885
 20
-78.820385
 30
0.0
 11
-35.258845
 21
-78.820385
 31
0.0
  0
LINE
  5
722
330
710
100
AcDbEntity
  8
型材断面
  6
Continuous
100
AcDbLine
 10
-35.258845
 20
-78.820385
 30
0.0
 11
-35.258845
 21
-76.820375
 31
0.0
  0
LINE
  5
723
330
710
100
AcDbEntity
  8
型材断面
  6
Continuous
100
AcDbLine
 10
-35.258845
 20
-76.820375
 30
0.0
 11
-26.95885
 21
-76.820375
 31
0.0
  0
LINE
  5
724
330
710
100
AcDbEntity
  8
型材断面
  6
Continuous
100
AcDbLine
 10
-26.95885
 20
-76.820375
 30
0.0
 11
-26.95885
 21
-60.220377
 31
0.0
  0
LINE
  5
725
330
710
100
AcDbEntity
  8
型材断面
  6
Continuous
100
AcDbLine
 10
-26.95885
 20
-60.220377
 30
0.0
 11
-58.18174
 21
-60.220377
 31
0.0
  0
LINE
  5
726
330
710
100
AcDbEntity
  8
型材断面
  6
Continuous
100
AcDbLine
 10
-58.18174
 20
-60.220377
 30
0.0
 11
-111.55885
 21
-65.07284
 31
0.0
  0
LINE
  5
727
330
710
100
AcDbEntity
  8
型材断面
  6
Continuous
100
AcDbLine
 10
-111.55885
 20
-65.07284
 30
0.0
 11
-111.55885
 21
-76.820375
 31
0.0
  0
LINE
  5
728
330
710
100
AcDbEntity
  8
型材断面
  6
Continuous
100
AcDbLine
 10
-111.55885
 20
-76.820375
 30
0.0
 11
-76.75885
 21
-76.820375
 31
0.0
  0
LINE
  5
729
330
710
100
AcDbEntity
  8
型材断面
  6
Continuous
100
AcDbLine
 10
-76.75885
 20
-76.820375
 30
0.0
 11
-76.75885
 21
-78.820385
 31
0.0
  0
LINE
  5
72A
330
710
100
AcDbEntity
  8
型材断面
  6
Continuous
100
AcDbLine
 10
-76.75885
 20
-78.820385
 30
0.0
 11
-81.458845
 21
-78.820385
 31
0.0
  0
LINE
  5
72B
330
710
100
AcDbEntity
  8
型材断面
  6
Continuous
100
AcDbLine
 10
-81.458845
 20
-78.820385
 30
0.0
 11
-81.75884499999999
 21
-78.520377
 31
0.0
  0
LINE
  5
72C
330
710
100
AcDbEntity
  8
型材断面
  6
Continuous
100
AcDbLine
 10
-81.75884499999999
 20
-78.520377
 30
0.0
 11
-82.058853
 21
-78.820385
 31
0.0
  0
LINE
  5
72D
330
710
100
AcDbEntity
  8
型材断面
  6
Continuous
100
AcDbLine
 10
-82.058853
 20
-78.820385
 30
0.0
 11
-86.758847
 21
-78.820385
 31
0.0
  0
LINE
  5
72E
330
710
100
AcDbEntity
  8
型材断面
  6
Continuous
100
AcDbLine
 10
-86.758847
 20
-78.820385
 30
0.0
 11
-86.758847
 21
-88.520375
 31
0.0
  0
LINE
  5
72F
330
710
100
AcDbEntity
  8
型材断面
  6
Continuous
100
AcDbLine
 10
-86.758847
 20
-88.520375
 30
0.0
 11
-88.258847
 21
-88.520375
 31
0.0
  0
LINE
  5
730
330
710
100
AcDbEntity
  8
型材断面
  6
Continuous
100
AcDbLine
 10
-88.258847
 20
-88.520375
 30
0.0
 11
-88.258847
 21
-78.520377
 31
0.0
  0
LINE
  5
731
330
710
100
AcDbEntity
  8
型材断面
  6
Continuous
100
AcDbLine
 10
-88.258847
 20
-78.520377
 30
0.0
 11
-113.258845
 21
-78.520377
 31
0.0
  0
LINE
  5
732
330
710
100
AcDbEntity
  8
型材断面
  6
Continuous
100
AcDbLine
 10
-113.258845
 20
-78.520377
 30
0.0
 11
-113.258845
 21
-63.520377
 31
0.0
  0
LINE
  5
733
330
710
100
AcDbEntity
  8
型材断面
  6
Continuous
100
AcDbLine
 10
-113.258845
 20
-63.520377
 30
0.0
 11
-58.258847
 21
-58.520375
 31
0.0
  0
LINE
  5
734
330
710
100
AcDbEntity
  8
型材断面
  6
Continuous
100
AcDbLine
 10
-58.258847
 20
-58.520375
 30
0.0
 11
-58.258847
 21
-54.820377
 31
0.0
  0
LINE
  5
735
330
710
100
AcDbEntity
  8
型材断面
  6
Continuous
100
AcDbLine
 10
-58.258847
 20
-54.820377
 30
0.0
 11
-57.958847
 21
-54.520385
 31
0.0
  0
LINE
  5
736
330
710
100
AcDbEntity
  8
型材断面
  6
Continuous
100
AcDbLine
 10
-57.958847
 20
-54.520385
 30
0.0
 11
-58.258847
 21
-54.220377
 31
0.0
  0
LINE
  5
737
330
710
100
AcDbEntity
  8
型材断面
  6
Continuous
100
AcDbLine
 10
-58.258847
 20
-54.220377
 30
0.0
 11
-58.258847
 21
-8.020363
 31
0.0
  0
LINE
  5
738
330
710
100
AcDbEntity
  8
型材断面
  6
Continuous
100
AcDbLine
 10
-58.258847
 20
-8.020363
 30
0.0
 11
-54.258842
 21
-4.020373
 31
0.0
  0
LINE
  5
739
330
710
100
AcDbEntity
  8
型材断面
  6
Continuous
100
AcDbLine
 10
-54.258842
 20
-4.020373
 30
0.0
 11
-54.258842
 21
20.679625
 31
0.0
  0
LINE
  5
73A
330
710
100
AcDbEntity
  8
型材断面
  6
Continuous
100
AcDbLine
 10
-54.258842
 20
20.679625
 30
0.0
 11
-53.95885
 21
20.979625
 31
0.0
  0
LINE
  5
73B
330
710
100
AcDbEntity
  8
型材断面
  6
Continuous
100
AcDbLine
 10
-53.95885
 20
20.979625
 30
0.0
 11
-54.258842
 21
21.279625
 31
0.0
  0
LINE
  5
73C
330
710
100
AcDbEntity
  8
型材断面
  6
Continuous
100
AcDbLine
 10
-54.258842
 20
21.279625
 30
0.0
 11
-54.258842
 21
25.979628
 31
0.0
  0
LINE
  5
73D
330
710
100
AcDbEntity
  8
型材断面
  6
Continuous
100
AcDbLine
 10
-54.258842
 20
25.979628
 30
0.0
 11
-52.558847
 21
25.979628
 31
0.0
  0
LINE
  5
73E
330
710
100
AcDbEntity
  8
型材断面
  6
Continuous
100
AcDbLine
 10
-52.558847
 20
25.979628
 30
0.0
 11
-52.558847
 21
-4.724525
 31
0.0
  0
LINE
  5
73F
330
710
100
AcDbEntity
  8
型材断面
  6
Continuous
100
AcDbLine
 10
-52.558847
 20
-4.724525
 30
0.0
 11
-56.558853
 21
-8.72453
 31
0.0
  0
LINE
  5
740
330
710
100
AcDbEntity
  8
型材断面
  6
Continuous
100
AcDbLine
 10
-56.558853
 20
-8.72453
 30
0.0
 11
-56.558853
 21
-58.520375
 31
0.0
  0
LINE
  5
741
330
710
100
AcDbEntity
  8
型材断面
  6
Continuous
100
AcDbLine
 10
-56.558853
 20
-58.520375
 30
0.0
 11
-26.95885
 21
-58.520375
 31
0.0
  0
LINE
  5
742
330
710
100
AcDbEntity
  8
型材断面
  6
Continuous
100
AcDbLine
 10
-26.95885
 20
-58.520375
 30
0.0
 11
-26.95885
 21
-47.52038
 31
0.0
  0
LINE
  5
743
330
710
100
AcDbEntity
  8
型材断面
  6
Continuous
100
AcDbLine
 10
-26.95885
 20
-47.52038
 30
0.0
 11
-22.708847
 21
-47.52038
 31
0.0
  0
LINE
  5
744
330
710
100
AcDbEntity
  8
型材断面
  6
Continuous
100
AcDbLine
 10
-22.708847
 20
-47.52038
 30
0.0
 11
-22.508853
 21
-48.520377
 31
0.0
  0
LINE
  5
745
330
710
100
AcDbEntity
  8
型材断面
  6
Continuous
100
AcDbLine
 10
-22.508853
 20
-48.520377
 30
0.0
 11
-25.258847
 21
-48.520377
 31
0.0
  0
LINE
  5
746
330
710
100
AcDbEntity
  8
型材断面
  6
Continuous
100
AcDbLine
 10
-25.258847
 20
-48.520377
 30
0.0
 11
-25.258847
 21
-50.520373
 31
0.0
  0
LINE
  5
747
330
710
100
AcDbEntity
  8
型材断面
  6
Continuous
100
AcDbLine
 10
-25.258847
 20
-50.520373
 30
0.0
 11
-16.258847
 21
-50.520373
 31
0.0
  0
LINE
  5
748
330
710
100
AcDbEntity
  8
型材断面
  6
Continuous
100
AcDbLine
 10
-16.258847
 20
-50.520373
 30
0.0
 11
-16.258847
 21
-48.520377
 31
0.0
  0
ENDBLK
  5
749
330
710
100
AcDbEntity
  8
0
100
AcDbBlockEnd
  0
BLOCK
  5
74A
330
74B
100
AcDbEntity
  8
0
100
AcDbBlockBegin
  2
*U51
 70
     1
 71
     0
 10
0.0
 20
0.0
 30
0.0
  3
*U51
  1

  0
LINE
  5
74C
330
74B
100
AcDbEntity
  8
型材断面
  6
Continuous
100
AcDbLine
 10
-16.258847
 20
-40.520375
 30
0.0
 11
-16.258847
 21
-36.020375
 31
0.0
  0
LINE
  5
74D
330
74B
100
AcDbEntity
  8
型材断面
  6
Continuous
100
AcDbLine
 10
-16.258847
 20
-36.020375
 30
0.0
 11
-45.55885
 21
-36.020375
 31
0.0
  0
LINE
  5
74E
330
74B
100
AcDbEntity
  8
型材断面
  6
Continuous
100
AcDbLine
 10
-45.55885
 20
-36.020375
 30
0.0
 11
-45.55885
 21
-42.52037
 31
0.0
  0
LINE
  5
74F
330
74B
100
AcDbEntity
  8
型材断面
  6
Continuous
100
AcDbLine
 10
-45.55885
 20
-42.52037
 30
0.0
 11
-49.058845
 21
-42.52037
 31
0.0
  0
LINE
  5
750
330
74B
100
AcDbEntity
  8
型材断面
  6
Continuous
100
AcDbLine
 10
-49.058845
 20
-42.52037
 30
0.0
 11
-49.058845
 21
-41.020377
 31
0.0
  0
LINE
  5
751
330
74B
100
AcDbEntity
  8
型材断面
  6
Continuous
100
AcDbLine
 10
-49.058845
 20
-41.020377
 30
0.0
 11
-47.558845
 21
-41.020377
 31
0.0
  0
LINE
  5
752
330
74B
100
AcDbEntity
  8
型材断面
  6
Continuous
100
AcDbLine
 10
-47.558845
 20
-41.020377
 30
0.0
 11
-47.558845
 21
-30.320375
 31
0.0
  0
LINE
  5
753
330
74B
100
AcDbEntity
  8
型材断面
  6
Continuous
100
AcDbLine
 10
-47.558845
 20
-30.320375
 30
0.0
 11
-47.258845
 21
-30.020375
 31
0.0
  0
LINE
  5
754
330
74B
100
AcDbEntity
  8
型材断面
  6
Continuous
100
AcDbLine
 10
-47.258845
 20
-30.020375
 30
0.0
 11
-47.558845
 21
-29.720382
 31
0.0
  0
LINE
  5
755
330
74B
100
AcDbEntity
  8
型材断面
  6
Continuous
100
AcDbLine
 10
-47.558845
 20
-29.720382
 30
0.0
 11
-47.558845
 21
8.979620000000001
 31
0.0
  0
LINE
  5
756
330
74B
100
AcDbEntity
  8
型材断面
  6
Continuous
100
AcDbLine
 10
-47.558845
 20
8.979620000000001
 30
0.0
 11
-49.058845
 21
8.979620000000001
 31
0.0
  0
LINE
  5
757
330
74B
100
AcDbEntity
  8
型材断面
  6
Continuous
100
AcDbLine
 10
-49.058845
 20
8.979620000000001
 30
0.0
 11
-49.058845
 21
10.479628
 31
0.0
  0
LINE
  5
758
330
74B
100
AcDbEntity
  8
型材断面
  6
Continuous
100
AcDbLine
 10
-49.058845
 20
10.479628
 30
0.0
 11
-47.558845
 21
10.479628
 31
0.0
  0
LINE
  5
759
330
74B
100
AcDbEntity
  8
型材断面
  6
Continuous
100
AcDbLine
 10
-47.558845
 20
10.479628
 30
0.0
 11
-47.558845
 21
20.679625
 31
0.0
  0
LINE
  5
75A
330
74B
100
AcDbEntity
  8
型材断面
  6
Continuous
100
AcDbLine
 10
-47.558845
 20
20.679625
 30
0.0
 11
-47.258845
 21
20.979625
 31
0.0
  0
LINE
  5
75B
330
74B
100
AcDbEntity
  8
型材断面
  6
Continuous
100
AcDbLine
 10
-47.258845
 20
20.979625
 30
0.0
 11
-47.558845
 21
21.279625
 31
0.0
  0
LINE
  5
75C
330
74B
100
AcDbEntity
  8
型材断面
  6
Continuous
100
AcDbLine
 10
-47.558845
 20
21.279625
 30
0.0
 11
-47.558845
 21
25.979628
 31
0.0
  0
LINE
  5
75D
330
74B
100
AcDbEntity
  8
型材断面
  6
Continuous
100
AcDbLine
 10
-47.558845
 20
25.979628
 30
0.0
 11
-38.558853
 21
25.979628
 31
0.0
  0
LINE
  5
75E
330
74B
100
AcDbEntity
  8
型材断面
  6
Continuous
100
AcDbLine
 10
-38.558853
 20
25.979628
 30
0.0
 11
-38.258853
 21
25.67962
 31
0.0
  0
LINE
  5
75F
330
74B
100
AcDbEntity
  8
型材断面
  6
Continuous
100
AcDbLine
 10
-38.258853
 20
25.67962
 30
0.0
 11
-37.958845
 21
25.979628
 31
0.0
  0
LINE
  5
760
330
74B
100
AcDbEntity
  8
型材断面
  6
Continuous
100
AcDbLine
 10
-37.958845
 20
25.979628
 30
0.0
 11
-29.258845
 21
25.979628
 31
0.0
  0
LINE
  5
761
330
74B
100
AcDbEntity
  8
型材断面
  6
Continuous
100
AcDbLine
 10
-29.258845
 20
25.979628
 30
0.0
 11
-29.258845
 21
-34.02038
 31
0.0
  0
LINE
  5
762
330
74B
100
AcDbEntity
  8
型材断面
  6
Continuous
100
AcDbLine
 10
-29.258845
 20
-34.02038
 30
0.0
 11
15.241152
 21
-34.02038
 31
0.0
  0
LINE
  5
763
330
74B
100
AcDbEntity
  8
型材断面
  6
Continuous
100
AcDbLine
 10
15.241152
 20
-34.02038
 30
0.0
 11
15.241152
 21
-25.520375
 31
0.0
  0
LINE
  5
764
330
74B
100
AcDbEntity
  8
型材断面
  6
Continuous
100
AcDbLine
 10
15.241152
 20
-25.520375
 30
0.0
 11
16.741152
 21
-25.520375
 31
0.0
  0
LINE
  5
765
330
74B
100
AcDbEntity
  8
型材断面
  6
Continuous
100
AcDbLine
 10
16.741152
 20
-25.520375
 30
0.0
 11
16.741152
 21
-36.020375
 31
0.0
  0
LINE
  5
766
330
74B
100
AcDbEntity
  8
型材断面
  6
Continuous
100
AcDbLine
 10
16.741152
 20
-36.020375
 30
0.0
 11
-14.758847
 21
-36.020375
 31
0.0
  0
LINE
  5
767
330
74B
100
AcDbEntity
  8
型材断面
  6
Continuous
100
AcDbLine
 10
-14.758847
 20
-36.020375
 30
0.0
 11
-14.758847
 21
-41.020377
 31
0.0
  0
LINE
  5
768
330
74B
100
AcDbEntity
  8
型材断面
  6
Continuous
100
AcDbLine
 10
-14.758847
 20
-41.020377
 30
0.0
 11
-11.758847
 21
-41.020377
 31
0.0
  0
LINE
  5
769
330
74B
100
AcDbEntity
  8
型材断面
  6
Continuous
100
AcDbLine
 10
-11.758847
 20
-41.020377
 30
0.0
 11
-11.758847
 21
-42.52037
 31
0.0
  0
LINE
  5
76A
330
74B
100
AcDbEntity
  8
型材断面
  6
Continuous
100
AcDbLine
 10
-11.758847
 20
-42.52037
 30
0.0
 11
-19.45885
 21
-42.52037
 31
0.0
  0
LINE
  5
76B
330
74B
100
AcDbEntity
  8
型材断面
  6
Continuous
100
AcDbLine
 10
-19.45885
 20
-42.52037
 30
0.0
 11
-19.75885
 21
-42.220377
 31
0.0
  0
LINE
  5
76C
330
74B
100
AcDbEntity
  8
型材断面
  6
Continuous
100
AcDbLine
 10
-19.75885
 20
-42.220377
 30
0.0
 11
-20.058842
 21
-42.52037
 31
0.0
  0
LINE
  5
76D
330
74B
100
AcDbEntity
  8
型材断面
  6
Continuous
100
AcDbLine
 10
-20.058842
 20
-42.52037
 30
0.0
 11
-26.95885
 21
-42.52037
 31
0.0
  0
LINE
  5
76E
330
74B
100
AcDbEntity
  8
型材断面
  6
Continuous
100
AcDbLine
 10
-26.95885
 20
-42.52037
 30
0.0
 11
-26.95885
 21
-40.520375
 31
0.0
  0
LINE
  5
76F
330
74B
100
AcDbEntity
  8
型材断面
  6
Continuous
100
AcDbLine
 10
-26.95885
 20
-40.520375
 30
0.0
 11
-16.258847
 21
-40.520375
 31
0.0
  0
LINE
  5
770
330
74B
100
AcDbEntity
  8
型材断面
  6
Continuous
100
AcDbLine
 10
-42.758845
 20
24.479628
 30
0.0
 11
-41.758847
 21
21.97963
 31
0.0
  0
LINE
  5
771
330
74B
100
AcDbEntity
  8
型材断面
  6
Continuous
100
AcDbLine
 10
-41.758847
 20
21.97963
 30
0.0
 11
-34.758842
 21
21.97963
 31
0.0
  0
LINE
  5
772
330
74B
100
AcDbEntity
  8
型材断面
  6
Continuous
100
AcDbLine
 10
-34.758842
 20
21.97963
 30
0.0
 11
-33.758853
 21
24.479628
 31
0.0
  0
LINE
  5
773
330
74B
100
AcDbEntity
  8
型材断面
  6
Continuous
100
AcDbLine
 10
-33.758853
 20
24.479628
 30
0.0
 11
-30.758845
 21
24.479628
 31
0.0
  0
LINE
  5
774
330
74B
100
AcDbEntity
  8
型材断面
  6
Continuous
100
AcDbLine
 10
-30.758845
 20
24.479628
 30
0.0
 11
-30.758845
 21
-34.02038
 31
0.0
  0
LINE
  5
775
330
74B
100
AcDbEntity
  8
型材断面
  6
Continuous
100
AcDbLine
 10
-30.758845
 20
-34.02038
 30
0.0
 11
-45.55885
 21
-34.02038
 31
0.0
  0
LINE
  5
776
330
74B
100
AcDbEntity
  8
型材断面
  6
Continuous
100
AcDbLine
 10
-45.55885
 20
-34.02038
 30
0.0
 11
-45.55885
 21
24.479628
 31
0.0
  0
LINE
  5
777
330
74B
100
AcDbEntity
  8
型材断面
  6
Continuous
100
AcDbLine
 10
-45.55885
 20
24.479628
 30
0.0
 11
-42.758845
 21
24.479628
 31
0.0
  0
ENDBLK
  5
778
330
74B
100
AcDbEntity
  8
0
100
AcDbBlockEnd
  0
BLOCK
  5
779
330
77A
100
AcDbEntity
  8
0
100
AcDbBlockBegin
  2
*U52
 70
     1
 71
     0
 10
0.0
 20
0.0
 30
0.0
  3
*U52
  1

  0
LINE
  5
77B
330
77A
100
AcDbEntity
  8
ボルト／ビス
  6
Continuous
 62
    64
100
AcDbLine
 10
-52.458842
 20
18.979617
 30
0.0
 11
-52.458842
 21
22.979617
 31
0.0
  0
LINE
  5
77C
330
77A
100
AcDbEntity
  8
ボルト／ビス
  6
Continuous
 62
    64
100
AcDbLine
 10
-42.758842
 20
18.979617
 30
0.0
 11
-42.258842
 21
19.479617
 31
0.0
  0
LINE
  5
77D
330
77A
100
AcDbEntity
  8
ボルト／ビス
  6
Continuous
 62
    64
100
AcDbLine
 10
-42.758842
 20
22.979617
 30
0.0
 11
-42.258842
 21
22.479617
 31
0.0
  0
LINE
  5
77E
330
77A
100
AcDbEntity
  8
ボルト／ビス
  6
Continuous
 62
    64
100
AcDbLine
 10
-42.258842
 20
19.479617
 30
0.0
 11
-42.258842
 21
22.479617
 31
0.0
  0
LINE
  5
77F
330
77A
100
AcDbEntity
  8
ボルト／ビス
  6
Continuous
 62
    64
100
AcDbLine
 10
-42.758842
 20
18.979617
 30
0.0
 11
-42.758842
 21
22.979617
 31
0.0
  0
LINE
  5
780
330
77A
100
AcDbEntity
  8
ボルト／ビス
  6
Continuous
 62
    64
100
AcDbLine
 10
-52.458842
 20
22.479617
 30
0.0
 11
-42.258842
 21
22.479617
 31
0.0
  0
LINE
  5
781
330
77A
100
AcDbEntity
  8
ボルト／ビス
  6
Continuous
 62
    64
100
AcDbLine
 10
-52.458842
 20
19.479617
 30
0.0
 11
-42.258842
 21
19.479617
 31
0.0
  0
LINE
  5
782
330
77A
100
AcDbEntity
  8
ボルト／ビス
  6
Continuous
 62
    64
100
AcDbLine
 10
-52.458842
 20
18.979617
 30
0.0
 11
-42.758842
 21
18.979617
 31
0.0
  0
LINE
  5
783
330
77A
100
AcDbEntity
  8
ボルト／ビス
  6
Continuous
 62
    64
100
AcDbLine
 10
-52.458842
 20
22.979617
 30
0.0
 11
-42.758842
 21
22.979617
 31
0.0
  0
LINE
  5
784
330
77A
100
AcDbEntity
  8
ボルト／ビス
  6
DASHDOT
 62
    64
100
AcDbLine
 10
-57.258842
 20
20.979617
 30
0.0
 11
-39.258842
 21
20.979617
 31
0.0
  0
LINE
  5
785
330
77A
100
AcDbEntity
  8
ボルト／ビス
  6
DOT
 62
    64
100
AcDbLine
 10
-54.258842
 20
17.979617
 30
0.0
 11
-52.458842
 21
18.979617
 31
0.0
  0
LINE
  5
786
330
77A
100
AcDbEntity
  8
ボルト／ビス
  6
DOT
 62
    64
100
AcDbLine
 10
-54.258842
 20
17.979617
 30
0.0
 11
-54.258842
 21
23.979617
 31
0.0
  0
LINE
  5
787
330
77A
100
AcDbEntity
  8
ボルト／ビス
  6
DOT
 62
    64
100
AcDbLine
 10
-54.258842
 20
23.979617
 30
0.0
 11
-52.458842
 21
22.979617
 31
0.0
  0
ENDBLK
  5
788
330
77A
100
AcDbEntity
  8
0
100
AcDbBlockEnd
  0
BLOCK
  5
789
330
78A
100
AcDbEntity
  8
0
100
AcDbBlockBegin
  2
*U53
 70
     1
 71
     0
 10
0.0
 20
0.0
 30
0.0
  3
*U53
  1

  0
LINE
  5
78B
330
78A
100
AcDbEntity
  8
型材断面
  6
Continuous
100
AcDbLine
 10
-67.45448500000001
 20
45.47965
 30
0.0
 11
-65.95448500000001
 21
45.47965
 31
0.0
  0
LINE
  5
78C
330
78A
100
AcDbEntity
  8
型材断面
  6
Continuous
100
AcDbLine
 10
-67.45448500000001
 20
47.479652
 30
0.0
 11
-67.45448500000001
 21
45.47965
 31
0.0
  0
ARC
  5
78D
330
78A
100
AcDbEntity
  8
型材断面
  6
Continuous
100
AcDbCircle
 10
-64.454487
 20
47.479663
 30
0.0
 40
3.0
100
AcDbArc
 50
90.0
 51
180.0
  0
LINE
  5
78E
330
78A
100
AcDbEntity
  8
型材断面
  6
Continuous
100
AcDbLine
 10
-65.95448500000001
 20
47.479652
 30
0.0
 11
-65.95448500000001
 21
45.47965
 31
0.0
  0
ARC
  5
78F
330
78A
100
AcDbEntity
  8
型材断面
  6
Continuous
100
AcDbCircle
 10
-64.454487
 20
47.479663
 30
0.0
 40
1.5
100
AcDbArc
 50
90.0
 51
180.0
  0
LINE
  5
790
330
78A
100
AcDbEntity
  8
型材断面
  6
Continuous
100
AcDbLine
 10
-64.45448500000001
 20
48.979652
 30
0.0
 11
-62.75884
 21
48.979652
 31
0.0
  0
LINE
  5
791
330
78A
100
AcDbEntity
  8
型材断面
  6
Continuous
100
AcDbLine
 10
-0.454487
 20
47.27965
 30
0.0
 11
-0.454487
 21
48.47965
 31
0.0
  0
LINE
  5
792
330
78A
100
AcDbEntity
  8
型材断面
  6
Continuous
100
AcDbLine
 10
7.545515
 20
49.479655
 30
0.0
 11
7.545515
 21
47.27965
 31
0.0
  0
ARC
  5
793
330
78A
100
AcDbEntity
  8
型材断面
  6
Continuous
100
AcDbCircle
 10
6.545513
 20
49.479663
 30
0.0
 40
1.0
100
AcDbArc
 50
0.0
 51
90.0
  0
LINE
  5
794
330
78A
100
AcDbEntity
  8
型材断面
  6
Continuous
100
AcDbLine
 10
7.545515
 20
47.27965
 30
0.0
 11
-0.454487
 21
47.27965
 31
0.0
  0
LINE
  5
795
330
78A
100
AcDbEntity
  8
型材断面
  6
Continuous
100
AcDbLine
 10
-64.45448500000001
 20
50.479652
 30
0.0
 11
6.545517
 21
50.479652
 31
0.0
  0
LINE
  5
796
330
78A
100
AcDbEntity
  8
型材断面
  6
Continuous
100
AcDbLine
 10
-20.258838
 20
48.47965
 30
0.0
 11
-0.454487
 21
48.47965
 31
0.0
  0
ARC
  5
797
330
78A
100
AcDbEntity
  8
型材断面
  6
Continuous
100
AcDbCircle
 10
-20.258844
 20
45.479653
 30
0.0
 40
3.0
100
AcDbArc
 50
90.0
 51
180.0
  0
LINE
  5
798
330
78A
100
AcDbEntity
  8
型材断面
  6
Continuous
100
AcDbLine
 10
-23.558838
 20
37.479632
 30
0.0
 11
-23.258838
 21
37.779632
 31
0.0
  0
LINE
  5
799
330
78A
100
AcDbEntity
  8
型材断面
  6
Continuous
100
AcDbLine
 10
-23.558838
 20
37.479632
 30
0.0
 11
-23.258838
 21
37.179632
 31
0.0
  0
LINE
  5
79A
330
78A
100
AcDbEntity
  8
型材断面
  6
Continuous
100
AcDbLine
 10
-23.258838
 20
45.47965
 30
0.0
 11
-23.258838
 21
37.779632
 31
0.0
  0
LINE
  5
79B
330
78A
100
AcDbEntity
  8
型材断面
  6
Continuous
100
AcDbLine
 10
-23.258838
 20
37.179632
 30
0.0
 11
-23.258838
 21
30.97963
 31
0.0
  0
LINE
  5
79C
330
78A
100
AcDbEntity
  8
型材断面
  6
Continuous
100
AcDbLine
 10
-62.45884
 20
13.979628
 30
0.0
 11
-62.75884
 21
14.279628
 31
0.0
  0
LINE
  5
79D
330
78A
100
AcDbEntity
  8
型材断面
  6
Continuous
100
AcDbLine
 10
-62.45884
 20
13.979628
 30
0.0
 11
-62.75884
 21
13.679628
 31
0.0
  0
LINE
  5
79E
330
78A
100
AcDbEntity
  8
型材断面
  6
Continuous
100
AcDbLine
 10
-62.75884
 20
48.979652
 30
0.0
 11
-62.75884
 21
14.279628
 31
0.0
  0
LINE
  5
79F
330
78A
100
AcDbEntity
  8
型材断面
  6
Continuous
100
AcDbLine
 10
-62.75884
 20
13.679628
 30
0.0
 11
-62.75884
 21
0.47965
 31
0.0
  0
LINE
  5
7A0
330
78A
100
AcDbEntity
  8
型材断面
  6
Continuous
100
AcDbLine
 10
-54.258842
 20
25.979628
 30
0.0
 11
-54.258842
 21
8.979625
 31
0.0
  0
LINE
  5
7A1
330
78A
100
AcDbEntity
  8
型材断面
  6
Continuous
100
AcDbLine
 10
-55.758842
 20
8.979625
 30
0.0
 11
-54.258842
 21
8.979625
 31
0.0
  0
LINE
  5
7A2
330
78A
100
AcDbEntity
  8
型材断面
  6
Continuous
100
AcDbLine
 10
-62.75884
 20
0.47965
 30
0.0
 11
-61.25884
 21
0.47965
 31
0.0
  0
LINE
  5
7A3
330
78A
100
AcDbEntity
  8
型材断面
  6
Continuous
100
AcDbLine
 10
-54.258842
 20
25.979628
 30
0.0
 11
-61.25884
 21
25.979628
 31
0.0
  0
LINE
  5
7A4
330
78A
100
AcDbEntity
  8
型材断面
  6
Continuous
100
AcDbLine
 10
-55.758842
 20
24.479628
 30
0.0
 11
-61.25884
 21
24.479628
 31
0.0
  0
LINE
  5
7A5
330
78A
100
AcDbEntity
  8
型材断面
  6
Continuous
100
AcDbLine
 10
-61.25884
 20
24.479628
 30
0.0
 11
-61.25884
 21
0.47965
 31
0.0
  0
LINE
  5
7A6
330
78A
100
AcDbEntity
  8
型材断面
  6
Continuous
100
AcDbLine
 10
-61.25884
 20
30.97963
 30
0.0
 11
-61.25884
 21
25.979628
 31
0.0
  0
LINE
  5
7A7
330
78A
100
AcDbEntity
  8
型材断面
  6
Continuous
100
AcDbLine
 10
-55.458842
 20
13.979628
 30
0.0
 11
-55.758842
 21
14.279628
 31
0.0
  0
LINE
  5
7A8
330
78A
100
AcDbEntity
  8
型材断面
  6
Continuous
100
AcDbLine
 10
-55.458842
 20
13.979628
 30
0.0
 11
-55.758842
 21
13.679628
 31
0.0
  0
LINE
  5
7A9
330
78A
100
AcDbEntity
  8
型材断面
  6
Continuous
100
AcDbLine
 10
-55.758842
 20
24.479628
 30
0.0
 11
-55.758842
 21
14.279628
 31
0.0
  0
LINE
  5
7AA
330
78A
100
AcDbEntity
  8
型材断面
  6
Continuous
100
AcDbLine
 10
-55.758842
 20
13.679628
 30
0.0
 11
-55.758842
 21
8.979625
 31
0.0
  0
LINE
  5
7AB
330
78A
100
AcDbEntity
  8
型材断面
  6
Continuous
100
AcDbLine
 10
-61.25884
 20
48.979652
 30
0.0
 11
-24.758838
 21
48.979652
 31
0.0
  0
LINE
  5
7AC
330
78A
100
AcDbEntity
  8
型材断面
  6
Continuous
100
AcDbLine
 10
-24.758838
 20
48.979652
 30
0.0
 11
-24.758838
 21
32.47963
 31
0.0
  0
LINE
  5
7AD
330
78A
100
AcDbEntity
  8
型材断面
  6
Continuous
100
AcDbLine
 10
-61.25884
 20
48.979652
 30
0.0
 11
-61.25884
 21
32.47963
 31
0.0
  0
LINE
  5
7AE
330
78A
100
AcDbEntity
  8
型材断面
  6
Continuous
100
AcDbLine
 10
-24.758838
 20
32.47963
 30
0.0
 11
-61.25884
 21
32.47963
 31
0.0
  0
LINE
  5
7AF
330
78A
100
AcDbEntity
  8
型材断面
  6
Continuous
100
AcDbLine
 10
-46.508845
 20
31.27963
 30
0.0
 11
-46.208845
 21
30.97963
 31
0.0
  0
LINE
  5
7B0
330
78A
100
AcDbEntity
  8
型材断面
  6
Continuous
100
AcDbLine
 10
-46.508845
 20
31.27963
 30
0.0
 11
-46.808845
 21
30.97963
 31
0.0
  0
LINE
  5
7B1
330
78A
100
AcDbEntity
  8
型材断面
  6
Continuous
100
AcDbLine
 10
-34.008842
 20
31.27963
 30
0.0
 11
-33.708842
 21
30.97963
 31
0.0
  0
LINE
  5
7B2
330
78A
100
AcDbEntity
  8
型材断面
  6
Continuous
100
AcDbLine
 10
-34.008842
 20
31.27963
 30
0.0
 11
-34.308842
 21
30.97963
 31
0.0
  0
LINE
  5
7B3
330
78A
100
AcDbEntity
  8
型材断面
  6
Continuous
100
AcDbLine
 10
-46.208845
 20
30.97963
 30
0.0
 11
-34.308842
 21
30.97963
 31
0.0
  0
LINE
  5
7B4
330
78A
100
AcDbEntity
  8
型材断面
  6
Continuous
100
AcDbLine
 10
-23.258838
 20
30.97963
 30
0.0
 11
-33.708842
 21
30.97963
 31
0.0
  0
LINE
  5
7B5
330
78A
100
AcDbEntity
  8
型材断面
  6
Continuous
100
AcDbLine
 10
-61.25884
 20
30.97963
 30
0.0
 11
-46.808845
 21
30.97963
 31
0.0
  0
LINE
  5
7B6
330
78A
100
AcDbEntity
  8
型材断面
  6
DOT
100
AcDbLine
 10
-62.75884
 20
24.479628
 30
0.0
 11
-61.25884
 21
24.479628
 31
0.0
  0
LINE
  5
7B7
330
78A
100
AcDbEntity
  8
型材断面
  6
DOT
100
AcDbLine
 10
-62.75884
 20
14.479623
 30
0.0
 11
-61.25884
 21
14.479623
 31
0.0
  0
LINE
  5
7B8
330
78A
100
AcDbEntity
  8
型材断面
  6
DOT
100
AcDbLine
 10
-62.38384
 20
24.479628
 30
0.0
 11
-62.38384
 21
14.479623
 31
0.0
  0
LINE
  5
7B9
330
78A
100
AcDbEntity
  8
型材断面
  6
DOT
100
AcDbLine
 10
-62.00884
 20
24.479628
 30
0.0
 11
-62.00884
 21
14.479623
 31
0.0
  0
LINE
  5
7BA
330
78A
100
AcDbEntity
  8
型材断面
  6
DOT
100
AcDbLine
 10
-61.63384
 20
24.479628
 30
0.0
 11
-61.63384
 21
14.479623
 31
0.0
  0
ENDBLK
  5
7BB
330
78A
100
AcDbEntity
  8
0
100
AcDbBlockEnd
  0
BLOCK
  5
7BC
330
7BD
100
AcDbEntity
  8
0
100
AcDbBlockBegin
  2
*U54
 70
     1
 71
     0
 10
0.0
 20
0.0
 30
0.0
  3
*U54
  1

  0
LINE
  5
7BE
330
7BD
100
AcDbEntity
  8
ボルト／ビス
  6
Continuous
 62
    64
100
AcDbLine
 10
-55.758842
 20
24.47965
 30
0.0
 11
-56.807013
 21
24.387947
 31
0.0
  0
ARC
  5
7BF
330
7BD
100
AcDbEntity
  8
ボルト／ビス
  6
Continuous
 62
    64
100
AcDbCircle
 10
-56.658844
 20
22.694414
 30
0.0
 40
1.7
100
AcDbArc
 50
94.999989
 51
180.0
  0
LINE
  5
7C0
330
7BD
100
AcDbEntity
  8
ボルト／ビス
  6
Continuous
 62
    64
100
AcDbLine
 10
-58.358845
 20
22.694418
 30
0.0
 11
-58.358845
 21
20.979647
 31
0.0
  0
LINE
  5
7C1
330
7BD
100
AcDbEntity
  8
ボルト／ビス
  6
Continuous
 62
    64
100
AcDbLine
 10
-55.758842
 20
17.479645
 30
0.0
 11
-56.807013
 21
17.571348
 31
0.0
  0
ARC
  5
7C2
330
7BD
100
AcDbEntity
  8
ボルト／ビス
  6
Continuous
 62
    64
100
AcDbCircle
 10
-56.658844
 20
19.264881
 30
0.0
 40
1.7
100
AcDbArc
 50
180.0
 51
265.000011
  0
LINE
  5
7C3
330
7BD
100
AcDbEntity
  8
ボルト／ビス
  6
Continuous
 62
    64
100
AcDbLine
 10
-58.358845
 20
19.264877
 30
0.0
 11
-58.358845
 21
20.979647
 31
0.0
  0
LINE
  5
7C4
330
7BD
100
AcDbEntity
  8
ボルト／ビス
  6
Continuous
 62
    64
100
AcDbLine
 10
-57.973938
 20
23.376288
 30
0.0
 11
-58.216105
 21
23.376288
 31
0.0
  0
LINE
  5
7C5
330
7BD
100
AcDbEntity
  8
ボルト／ビス
  6
Continuous
 62
    64
100
AcDbLine
 10
-57.32386
 20
21.679645
 30
0.0
 11
-57.32386
 21
20.979647
 31
0.0
  0
LINE
  5
7C6
330
7BD
100
AcDbEntity
  8
ボルト／ビス
  6
Continuous
 62
    64
100
AcDbLine
 10
-57.973938
 20
22.07965
 30
0.0
 11
-57.973938
 21
23.376288
 31
0.0
  0
LINE
  5
7C7
330
7BD
100
AcDbEntity
  8
ボルト／ビス
  6
Continuous
 62
    64
100
AcDbLine
 10
-57.32386
 20
21.679645
 30
0.0
 11
-57.57394
 21
21.679645
 31
0.0
  0
ARC
  5
7C8
330
7BD
100
AcDbEntity
  8
ボルト／ビス
  6
Continuous
 62
    64
100
AcDbCircle
 10
-57.573939
 20
22.079648
 30
0.0
 40
0.4
100
AcDbArc
 50
180.0
 51
270.0
  0
LINE
  5
7C9
330
7BD
100
AcDbEntity
  8
ボルト／ビス
  6
Continuous
 62
    64
100
AcDbLine
 10
-57.973938
 20
18.583007
 30
0.0
 11
-58.216105
 21
18.583007
 31
0.0
  0
LINE
  5
7CA
330
7BD
100
AcDbEntity
  8
ボルト／ビス
  6
Continuous
 62
    64
100
AcDbLine
 10
-57.32386
 20
20.27965
 30
0.0
 11
-57.32386
 21
20.979647
 31
0.0
  0
LINE
  5
7CB
330
7BD
100
AcDbEntity
  8
ボルト／ビス
  6
Continuous
 62
    64
100
AcDbLine
 10
-57.973938
 20
19.879645
 30
0.0
 11
-57.973938
 21
18.583007
 31
0.0
  0
LINE
  5
7CC
330
7BD
100
AcDbEntity
  8
ボルト／ビス
  6
Continuous
 62
    64
100
AcDbLine
 10
-57.32386
 20
20.27965
 30
0.0
 11
-57.57394
 21
20.27965
 31
0.0
  0
ARC
  5
7CD
330
7BD
100
AcDbEntity
  8
ボルト／ビス
  6
Continuous
 62
    64
100
AcDbCircle
 10
-57.573939
 20
19.879648
 30
0.0
 40
0.4
100
AcDbArc
 50
90.0
 51
180.0
  0
LINE
  5
7CE
330
7BD
100
AcDbEntity
  8
ボルト／ビス
  6
Continuous
 62
    64
100
AcDbLine
 10
-55.758842
 20
24.47965
 30
0.0
 11
-55.758842
 21
17.479645
 31
0.0
  0
LINE
  5
7CF
330
7BD
100
AcDbEntity
  8
ボルト／ビス
  6
Continuous
 62
    64
100
AcDbLine
 10
-46.258847
 20
22.97965
 30
0.0
 11
-45.758845
 21
22.479647
 31
0.0
  0
LINE
  5
7D0
330
7BD
100
AcDbEntity
  8
ボルト／ビス
  6
Continuous
 62
    64
100
AcDbLine
 10
-46.258847
 20
18.979645
 30
0.0
 11
-45.758845
 21
19.479647
 31
0.0
  0
LINE
  5
7D1
330
7BD
100
AcDbEntity
  8
ボルト／ビス
  6
Continuous
 62
    64
100
AcDbLine
 10
-46.258847
 20
22.97965
 30
0.0
 11
-46.258847
 21
18.979645
 31
0.0
  0
LINE
  5
7D2
330
7BD
100
AcDbEntity
  8
ボルト／ビス
  6
Continuous
 62
    64
100
AcDbLine
 10
-45.758845
 20
22.479647
 30
0.0
 11
-45.758845
 21
19.479647
 31
0.0
  0
LINE
  5
7D3
330
7BD
100
AcDbEntity
  8
ボルト／ビス
  6
Continuous
 62
    64
100
AcDbLine
 10
-55.758842
 20
22.97965
 30
0.0
 11
-46.258847
 21
22.97965
 31
0.0
  0
LINE
  5
7D4
330
7BD
100
AcDbEntity
  8
ボルト／ビス
  6
Continuous
 62
    64
100
AcDbLine
 10
-55.758842
 20
18.979645
 30
0.0
 11
-46.258847
 21
18.979645
 31
0.0
  0
LINE
  5
7D5
330
7BD
100
AcDbEntity
  8
ボルト／ビス
  6
Continuous
 62
    64
100
AcDbLine
 10
-55.758842
 20
19.479647
 30
0.0
 11
-45.758845
 21
19.479647
 31
0.0
  0
LINE
  5
7D6
330
7BD
100
AcDbEntity
  8
ボルト／ビス
  6
Continuous
 62
    64
100
AcDbLine
 10
-55.758842
 20
22.479647
 30
0.0
 11
-45.758845
 21
22.479647
 31
0.0
  0
LINE
  5
7D7
330
7BD
100
AcDbEntity
  8
ボルト／ビス
  6
DASHDOT
 62
    64
100
AcDbLine
 10
-61.358845
 20
20.979647
 30
0.0
 11
-42.758845
 21
20.979647
 31
0.0
  0
ENDBLK
  5
7D8
330
7BD
100
AcDbEntity
  8
0
100
AcDbBlockEnd
  0
BLOCK
  5
7D9
330
7DA
100
AcDbEntity
  8
0
100
AcDbBlockBegin
  2
*U55
 70
     1
 71
     0
 10
0.0
 20
0.0
 30
0.0
  3
*U55
  1

  0
LINE
  5
7DB
330
7DA
100
AcDbEntity
  8
寸法
  6
ByBlock
 62
     0
100
AcDbLine
 10
7.545515
 20
52.479655
 30
0.0
 11
7.545515
 21
90.54432300000001
 31
0.0
  0
LINE
  5
7DC
330
7DA
100
AcDbEntity
  8
寸法
  6
ByBlock
 62
     0
100
AcDbLine
 10
-67.45448500000001
 20
50.479652
 30
0.0
 11
-67.45448500000001
 21
90.54432300000001
 31
0.0
  0
LINE
  5
7DD
330
7DA
100
AcDbEntity
  8
寸法
  6
ByBlock
 62
     0
100
AcDbLine
 10
7.545515
 20
90.54432300000001
 30
0.0
 11
-67.45448500000001
 21
90.54432300000001
 31
0.0
  0
POINT
  5
7DE
330
7DA
100
AcDbEntity
  8
寸法
 62
     0
100
AcDbPoint
 10
7.545515
 20
90.54432300000001
 30
0.0
  0
POINT
  5
7DF
330
7DA
100
AcDbEntity
  8
寸法
 62
     0
100
AcDbPoint
 10
-67.45448500000001
 20
90.54432300000001
 30
0.0
  0
TEXT
  5
7E0
330
7DA
100
AcDbEntity
  8
寸法
  6
Continuous
 62
     0
100
AcDbText
 10
-32.1
 20
90.90000000000001
 30
0.0
 40
4.0
  1
75
  7
TextStyle03
 72
     5
 11
-27.85
 21
90.90000000000001
 31
0.0
100
AcDbText
  0
ENDBLK
  5
7E1
330
7DA
100
AcDbEntity
  8
0
100
AcDbBlockEnd
  0
BLOCK
  5
7E2
330
7E3
100
AcDbEntity
  8
0
100
AcDbBlockBegin
  2
*U56
 70
     1
 71
     0
 10
0.0
 20
0.0
 30
0.0
  3
*U56
  1

  0
LINE
  5
7E4
330
7E3
100
AcDbEntity
  8
寸法
  6
ByBlock
 62
     0
100
AcDbLine
 10
-113.258845
 20
-60.520377
 30
0.0
 11
-113.258845
 21
90.54432300000001
 31
0.0
  0
LINE
  5
7E5
330
7E3
100
AcDbEntity
  8
寸法
  6
ByBlock
 62
     0
100
AcDbLine
 10
-67.45448500000001
 20
90.54432300000001
 30
0.0
 11
-113.258845
 21
90.54432300000001
 31
0.0
  0
POINT
  5
7E6
330
7E3
100
AcDbEntity
  8
寸法
 62
     0
100
AcDbPoint
 10
-113.258845
 20
90.54432300000001
 30
0.0
  0
TEXT
  5
7E7
330
7E3
100
AcDbEntity
  8
寸法
  6
Continuous
 62
     0
100
AcDbText
 10
-94.75
 20
90.90000000000001
 30
0.0
 40
4.0
  1
45.8
  7
TextStyle03
 72
     5
 11
-86.0
 21
90.90000000000001
 31
0.0
100
AcDbText
  0
ENDBLK
  5
7E8
330
7E3
100
AcDbEntity
  8
0
100
AcDbBlockEnd
  0
ENDSEC
  0
SECTION
  2
ENTITIES
  0
LWPOLYLINE
  5
7E9
330
1D
100
AcDbEntity
  8
通り芯
  6
Continuous
100
AcDbPolyline
 90
        4
 70
     1
 43
0.0
 10
-210.0
 20
-148.5
 10
210.0
 20
-148.5
 10
210.0
 20
148.5
 10
-210.0
 20
148.5
  0
INSERT
  5
7EF
330
1D
100
AcDbEntity
  8
型材断面
  6
Continuous
100
AcDbBlockReference
  2
*U1
 10
0.0
 20
0.0
 30
0.0
  0
LINE
  5
7F0
330
1D
100
AcDbEntity
  8
型材断面
  6
DOT
100
AcDbLine
 10
-56.558853
 20
-58.520375
 30
0.0
 11
-58.258847
 21
-58.520375
 31
0.0
  0
LINE
  5
7F1
330
1D
100
AcDbEntity
  8
型材断面
  6
DOT
100
AcDbLine
 10
-56.558853
 20
-50.520373
 30
0.0
 11
-58.258847
 21
-50.520373
 31
0.0
  0
LINE
  5
7F2
330
1D
100
AcDbEntity
  8
型材断面
  6
DOT
100
AcDbLine
 10
-57.833845
 20
-58.520375
 30
0.0
 11
-57.833845
 21
-50.520373
 31
0.0
  0
LINE
  5
7F3
330
1D
100
AcDbEntity
  8
型材断面
  6
DOT
100
AcDbLine
 10
-57.40885
 20
-58.520375
 30
0.0
 11
-57.40885
 21
-50.520373
 31
0.0
  0
LINE
  5
7F4
330
1D
100
AcDbEntity
  8
型材断面
  6
DOT
100
AcDbLine
 10
-56.983847
 20
-58.520375
 30
0.0
 11
-56.983847
 21
-50.520373
 31
0.0
  0
LINE
  5
7F5
330
1D
100
AcDbEntity
  8
型材断面
  6
DOT
100
AcDbLine
 10
-29.258845
 20
-26.020377
 30
0.0
 11
-30.758845
 21
-26.020377
 31
0.0
  0
LINE
  5
7F6
330
1D
100
AcDbEntity
  8
型材断面
  6
DOT
100
AcDbLine
 10
-29.258845
 20
-34.02038
 30
0.0
 11
-30.758845
 21
-34.02038
 31
0.0
  0
LINE
  5
7F7
330
1D
100
AcDbEntity
  8
型材断面
  6
DOT
100
AcDbLine
 10
-30.383845
 20
-34.02038
 30
0.0
 11
-30.383845
 21
-26.020377
 31
0.0
  0
LINE
  5
7F8
330
1D
100
AcDbEntity
  8
型材断面
  6
DOT
100
AcDbLine
 10
-30.008845
 20
-34.02038
 30
0.0
 11
-30.008845
 21
-26.020377
 31
0.0
  0
LINE
  5
7F9
330
1D
100
AcDbEntity
  8
型材断面
  6
DOT
100
AcDbLine
 10
-29.633845
 20
-34.02038
 30
0.0
 11
-29.633845
 21
-26.020377
 31
0.0
  0
LINE
  5
7FA
330
1D
100
AcDbEntity
  8
型材断面
  6
DOT
100
AcDbLine
 10
-45.55885
 20
-34.02038
 30
0.0
 11
-47.558845
 21
-34.02038
 31
0.0
  0
LINE
  5
7FB
330
1D
100
AcDbEntity
  8
型材断面
  6
DOT
100
AcDbLine
 10
-47.058842
 20
-34.02038
 30
0.0
 11
-47.058842
 21
-26.020377
 31
0.0
  0
LINE
  5
7FC
330
1D
100
AcDbEntity
  8
型材断面
  6
DOT
100
AcDbLine
 10
-46.558847
 20
-34.02038
 30
0.0
 11
-46.558847
 21
-26.020377
 31
0.0
  0
LINE
  5
7FD
330
1D
100
AcDbEntity
  8
型材断面
  6
DOT
100
AcDbLine
 10
-46.058845
 20
-34.02038
 30
0.0
 11
-46.058845
 21
-26.020377
 31
0.0
  0
LINE
  5
7FE
330
1D
100
AcDbEntity
  8
型材断面
  6
DOT
100
AcDbLine
 10
-45.55885
 20
-26.020377
 30
0.0
 11
-47.558845
 21
-26.020377
 31
0.0
  0
INSERT
  5
7FF
330
1D
100
AcDbEntity
  8
型材断面
  6
Continuous
100
AcDbBlockReference
  2
*U2
 10
0.0
 20
0.0
 30
0.0
  0
INSERT
  5
800
330
1D
100
AcDbEntity
  8
型材断面
  6
Continuous
 62
    47
100
AcDbBlockReference
  2
*U3
 10
0.0
 20
0.0
 30
0.0
  0
INSERT
  5
801
330
1D
100
AcDbEntity
  8
型材断面
  6
DOT
100
AcDbBlockReference
  2
*U50
 10
0.0
 20
0.0
 30
0.0
  0
INSERT
  5
802
330
1D
100
AcDbEntity
  8
型材断面
  6
DOT
100
AcDbBlockReference
  2
*U51
 10
0.0
 20
0.0
 30
0.0
  0
INSERT
  5
803
330
1D
100
AcDbEntity
  8
型材断面
  6
Continuous
100
AcDbBlockReference
  2
*U53
 10
0.0
 20
0.0
 30
0.0
  0
INSERT
  5
804
330
1D
100
AcDbEntity
  8
ガラス
  6
DOT
100
AcDbBlockReference
  2
*U4
 10
0.0
 20
0.0
 30
0.0
  0
INSERT
  5
805
330
1D
100
AcDbEntity
  8
ガラス
  6
DOT
100
AcDbBlockReference
  2
*U5
 10
0.0
 20
0.0
 30
0.0
  0
INSERT
  5
806
330
1D
100
AcDbEntity
  8
ガラス
  6
DOT
100
AcDbBlockReference
  2
*U6
 10
0.0
 20
0.0
 30
0.0
  0
INSERT
  5
807
330
1D
100
AcDbEntity
  8
ガラス
  6
DOT
100
AcDbBlockReference
  2
*U7
 10
0.0
 20
0.0
 30
0.0
  0
INSERT
  5
808
330
1D
100
AcDbEntity
  8
ガラス
  6
DOT
100
AcDbBlockReference
  2
*U8
 10
0.0
 20
0.0
 30
0.0
  0
INSERT
  5
809
330
1D
100
AcDbEntity
  8
ガラス
  6
DOT
100
AcDbBlockReference
  2
*U9
 10
0.0
 20
0.0
 30
0.0
  0
INSERT
  5
80A
330
1D
100
AcDbEntity
  8
ガラス
  6
DOT
100
AcDbBlockReference
  2
*U10
 10
0.0
 20
0.0
 30
0.0
  0
INSERT
  5
80B
330
1D
100
AcDbEntity
  8
ガラス
  6
DOT
100
AcDbBlockReference
  2
*U11
 10
0.0
 20
0.0
 30
0.0
  0
INSERT
  5
80C
330
1D
100
AcDbEntity
  8
ガラス
  6
DOT
100
AcDbBlockReference
  2
*U12
 10
0.0
 20
0.0
 30
0.0
  0
INSERT
  5
80D
330
1D
100
AcDbEntity
  8
ガラス
  6
DOT
100
AcDbBlockReference
  2
*U13
 10
0.0
 20
0.0
 30
0.0
  0
INSERT
  5
80E
330
1D
100
AcDbEntity
  8
ガラス
  6
DOT
100
AcDbBlockReference
  2
*U14
 10
0.0
 20
0.0
 30
0.0
  0
INSERT
  5
80F
330
1D
100
AcDbEntity
  8
ガラス
  6
DOT
100
AcDbBlockReference
  2
*U15
 10
0.0
 20
0.0
 30
0.0
  0
INSERT
  5
810
330
1D
100
AcDbEntity
  8
ガラス
  6
DOT
100
AcDbBlockReference
  2
*U16
 10
0.0
 20
0.0
 30
0.0
  0
LINE
  5
811
330
1D
100
AcDbEntity
  8
ガラス
  6
Continuous
100
AcDbLine
 10
-13.258847
 20
36.17575
 30
0.0
 11
-13.258847
 21
29.375748
 31
0.0
  0
LINE
  5
812
330
1D
100
AcDbEntity
  8
ガラス
  6
Continuous
100
AcDbLine
 10
-13.25551
 20
20.67574
 30
0.0
 11
-13.25551
 21
38.475745
 31
0.0
  0
LINE
  5
813
330
1D
100
AcDbEntity
  8
ガラス
  6
Continuous
100
AcDbLine
 10
-7.25551
 20
33.475742
 30
0.0
 11
-7.25551
 21
27.475742
 31
0.0
  0
LINE
  5
814
330
1D
100
AcDbEntity
  8
ガラス
  6
Continuous
100
AcDbLine
 10
-13.252165
 20
27.475742
 30
0.0
 11
-7.25551
 21
33.475742
 31
0.0
  0
LINE
  5
815
330
1D
100
AcDbEntity
  8
ガラス
  6
Continuous
100
AcDbLine
 10
-13.252165
 20
33.475742
 30
0.0
 11
-7.25551
 21
27.475742
 31
0.0
  0
LINE
  5
816
330
1D
100
AcDbEntity
  8
ガラス
  6
Continuous
100
AcDbLine
 10
-13.258855
 20
21.175742
 30
0.0
 11
50.714378
 21
21.175742
 31
0.0
  0
LINE
  5
817
330
1D
100
AcDbEntity
  8
ガラス
  6
Continuous
100
AcDbLine
 10
-13.258855
 20
20.67574
 30
0.0
 11
50.714378
 21
20.67574
 31
0.0
  0
LINE
  5
818
330
1D
100
AcDbEntity
  8
ガラス
  6
Continuous
100
AcDbLine
 10
-13.258855
 20
27.475742
 30
0.0
 11
50.714378
 21
27.475742
 31
0.0
  0
LINE
  5
819
330
1D
100
AcDbEntity
  8
ガラス
  6
Continuous
100
AcDbLine
 10
-13.258855
 20
26.97574
 30
0.0
 11
50.714378
 21
26.97574
 31
0.0
  0
LINE
  5
81A
330
1D
100
AcDbEntity
  8
ガラス
  6
Continuous
100
AcDbLine
 10
-13.258855
 20
33.975745
 30
0.0
 11
50.714378
 21
33.975745
 31
0.0
  0
LINE
  5
81B
330
1D
100
AcDbEntity
  8
ガラス
  6
Continuous
100
AcDbLine
 10
-13.258855
 20
33.475742
 30
0.0
 11
50.714378
 21
33.475742
 31
0.0
  0
LINE
  5
81C
330
1D
100
AcDbEntity
  8
ガラス
  6
Continuous
100
AcDbLine
 10
-13.258855
 20
38.475745
 30
0.0
 11
50.714378
 21
38.475745
 31
0.0
  0
LINE
  5
81D
330
1D
100
AcDbEntity
  8
ガラス
  6
Continuous
100
AcDbLine
 10
-13.258855
 20
37.975742
 30
0.0
 11
50.714378
 21
37.975742
 31
0.0
  0
INSERT
  5
81E
330
1D
100
AcDbEntity
  8
ゴム等
  6
DOT
100
AcDbBlockReference
  2
*U17
 10
0.0
 20
0.0
 30
0.0
  0
INSERT
  5
81F
330
1D
100
AcDbEntity
  8
ゴム等
  6
Continuous
100
AcDbBlockReference
  2
*U18
 10
0.0
 20
0.0
 30
0.0
  0
INSERT
  5
820
330
1D
100
AcDbEntity
  8
ゴム等
  6
Continuous
100
AcDbBlockReference
  2
*U19
 10
0.0
 20
0.0
 30
0.0
  0
INSERT
  5
821
330
1D
100
AcDbEntity
  8
ゴム等
  6
Continuous
100
AcDbBlockReference
  2
*U20
 10
0.0
 20
0.0
 30
0.0
  0
INSERT
  5
822
330
1D
100
AcDbEntity
  8
ゴム等
  6
Continuous
100
AcDbBlockReference
  2
*U21
 10
0.0
 20
0.0
 30
0.0
  0
INSERT
  5
823
330
1D
100
AcDbEntity
  8
ボルト／ビス
  6
Continuous
 62
    64
100
AcDbBlockReference
  2
*U22
 10
0.0
 20
0.0
 30
0.0
  0
INSERT
  5
824
330
1D
100
AcDbEntity
  8
ボルト／ビス
  6
Continuous
 62
    64
100
AcDbBlockReference
  2
*U23
 10
0.0
 20
0.0
 30
0.0
  0
INSERT
  5
825
330
1D
100
AcDbEntity
  8
ボルト／ビス
  6
Continuous
 62
    64
100
AcDbBlockReference
  2
*U24
 10
0.0
 20
0.0
 30
0.0
  0
INSERT
  5
826
330
1D
100
AcDbEntity
  8
ボルト／ビス
  6
Continuous
 62
    64
100
AcDbBlockReference
  2
*U25
 10
0.0
 20
0.0
 30
0.0
  0
INSERT
  5
827
330
1D
100
AcDbEntity
  8
ボルト／ビス
  6
Continuous
100
AcDbBlockReference
  2
*U26
 10
0.0
 20
0.0
 30
0.0
  0
INSERT
  5
828
330
1D
100
AcDbEntity
  8
ボルト／ビス
  6
Continuous
100
AcDbBlockReference
  2
*U52
 10
0.0
 20
0.0
 30
0.0
  0
INSERT
  5
829
330
1D
100
AcDbEntity
  8
ボルト／ビス
  6
Continuous
100
AcDbBlockReference
  2
*U54
 10
0.0
 20
0.0
 30
0.0
  0
TEXT
  5
82A
330
1D
100
AcDbEntity
  8
文字
  6
Continuous
100
AcDbText
 10
64.25
 20
123.9
 30
0.0
 40
5.0
  1
シリーズ：ＴＦＦＫ
  7
TextStyle03
 72
     5
 11
114.25
 21
123.9
 31
0.0
100
AcDbText
  0
TEXT
  5
82B
330
1D
100
AcDbEntity
  8
文字
  6
Continuous
100
AcDbText
 10
64.25
 20
118.275
 30
0.0
 40
5.0
  1
　　　　　（固定）
  7
TextStyle03
 72
     5
 11
114.25
 21
118.275
 31
0.0
100
AcDbText
  0
TEXT
  5
82C
330
1D
100
AcDbEntity
  8
文字
  6
Continuous
100
AcDbText
 10
64.25
 20
112.65
 30
0.0
 40
5.0
  1
図面名　：下枠断面詳細図
  7
TextStyle03
 72
     5
 11
131.125
 21
112.65
 31
0.0
100
AcDbText
  0
INSERT
  5
82D
330
1D
100
AcDbEntity
  8
文字
  6
Continuous
100
AcDbBlockReference
  2
*U27
 10
0.0
 20
0.0
 30
0.0
  0
LINE
  5
82E
330
1D
100
AcDbEntity
  8
文字
  6
DASHDOT
100
AcDbLine
 10
-18.258847
 20
-25.520375
 30
0.0
 11
-18.258847
 21
107.132187
 31
0.0
  0
TEXT
  5
82F
330
1D
100
AcDbEntity
  8
文字
  6
Continuous
100
AcDbText
 10
-2.6
 20
107.575
 30
0.0
 40
4.0
  1
呼称寸法
  7
TextStyle03
 72
     5
 11
14.9
 21
107.575
 31
0.0
100
AcDbText
  0
TEXT
  5
830
330
1D
100
AcDbEntity
  8
文字
  6
Continuous
100
AcDbText
 10
-116.475
 20
-52.75
 30
0.0
 40
4.0
  1
φ8排水穴(ﾊﾞｯﾌﾙ材付)
  7
TextStyle03
 72
     5
 11
-71.72499999999999
 21
-52.75
 31
0.0
100
AcDbText
  0
TEXT
  5
831
330
1D
100
AcDbEntity
  8
文字
  6
Continuous
100
AcDbText
 10
17.475
 20
-65.77500000000001
 30
0.0
 40
4.0
  1
断熱材(PVC)
  7
TextStyle03
 72
     5
 11
41.975
 21
-65.77500000000001
 31
0.0
100
AcDbText
  0
TEXT
  5
832
330
1D
100
AcDbEntity
  8
文字
  6
Continuous
100
AcDbText
 10
26.7
 20
-15.05
 30
0.0
 40
4.0
  1
耐火材：
  7
TextStyle03
 72
     5
 11
44.2
 21
-15.05
 31
0.0
100
AcDbText
  0
TEXT
  5
833
330
1D
100
AcDbEntity
  8
文字
  6
Continuous
100
AcDbText
 10
26.7
 20
-19.55
 30
0.0
 40
4.0
  1
St-1.6t(ｶﾞﾙﾊﾞﾘｳﾑ鋼板)
  7
TextStyle03
 72
     5
 11
73.7
 21
-19.55
 31
0.0
100
AcDbText
  0
TEXT
  5
834
330
1D
100
AcDbEntity
  8
文字
  6
Continuous
100
AcDbText
 10
17.8
 20
-85.5
 30
0.0
 40
4.0
  1
耐火材：
  7
TextStyle03
 72
     5
 11
35.3
 21
-85.5
 31
0.0
100
AcDbText
  0
TEXT
  5
835
330
1D
100
AcDbEntity
  8
文字
  6
Continuous
100
AcDbText
 10
17.8
 20
-90.0
 30
0.0
 40
4.0
  1
St-1.6t(アロイ鋼板)
  7
TextStyle03
 72
     5
 11
60.3
 21
-90.0
 31
0.0
100
AcDbText
  0
TEXT
  5
836
330
1D
100
AcDbEntity
  8
文字
  6
Continuous
100
AcDbText
 10
13.5
 20
-121.35
 30
0.0
 40
4.0
  1
※型材コーナーは工場溶接
  7
TextStyle03
 72
     5
 11
67.0
 21
-121.35
 31
0.0
100
AcDbText
  0
TEXT
  5
837
330
1D
100
AcDbEntity
  8
文字
  6
Continuous
100
AcDbText
 10
-94.40000000000001
 20
-12.825
 30
0.0
 40
4.0
  1
断熱材(PVC)
  7
TextStyle03
 72
     5
 11
-69.90000000000001
 21
-12.825
 31
0.0
100
AcDbText
  0
INSERT
  5
838
330
1D
100
AcDbEntity
  8
寸法
  6
Continuous
100
AcDbBlockReference
  2
*U28
 10
0.0
 20
0.0
 30
0.0
  0
INSERT
  5
839
330
1D
100
AcDbEntity
  8
寸法
  6
Continuous
100
AcDbBlockReference
  2
*U29
 10
0.0
 20
0.0
 30
0.0
  0
INSERT
  5
83A
330
1D
100
AcDbEntity
  8
寸法
  6
Continuous
100
AcDbBlockReference
  2
*U30
 10
0.0
 20
0.0
 30
0.0
  0
INSERT
  5
83B
330
1D
100
AcDbEntity
  8
寸法
  6
Continuous
100
AcDbBlockReference
  2
*U31
 10
0.0
 20
0.0
 30
0.0
  0
INSERT
  5
83C
330
1D
100
AcDbEntity
  8
寸法
  6
Continuous
100
AcDbBlockReference
  2
*U32
 10
0.0
 20
0.0
 30
0.0
  0
INSERT
  5
83D
330
1D
100
AcDbEntity
  8
寸法
  6
Continuous
100
AcDbBlockReference
  2
*U33
 10
0.0
 20
0.0
 30
0.0
  0
LINE
  5
83E
330
1D
100
AcDbEntity
  8
寸法
  6
Continuous
100
AcDbLine
 10
48.68976
 20
107.132187
 30
0.0
 11
-18.258847
 21
107.132187
 31
0.0
  0
INSERT
  5
83F
330
1D
100
AcDbEntity
  8
寸法
  6
Continuous
100
AcDbBlockReference
  2
*U34
 10
0.0
 20
0.0
 30
0.0
  0
INSERT
  5
840
330
1D
100
AcDbEntity
  8
寸法
  6
Continuous
100
AcDbBlockReference
  2
*U35
 10
0.0
 20
0.0
 30
0.0
  0
INSERT
  5
841
330
1D
100
AcDbEntity
  8
寸法
  6
Continuous
100
AcDbBlockReference
  2
*U36
 10
0.0
 20
0.0
 30
0.0
  0
INSERT
  5
842
330
1D
100
AcDbEntity
  8
寸法
  6
Continuous
100
AcDbBlockReference
  2
*U37
 10
0.0
 20
0.0
 30
0.0
  0
INSERT
  5
843
330
1D
100
AcDbEntity
  8
寸法
  6
Continuous
100
AcDbBlockReference
  2
*U38
 10
0.0
 20
0.0
 30
0.0
  0
INSERT
  5
844
330
1D
100
AcDbEntity
  8
寸法
  6
Continuous
100
AcDbBlockReference
  2
*U39
 10
0.0
 20
0.0
 30
0.0
  0
INSERT
  5
845
330
1D
100
AcDbEntity
  8
寸法
  6
Continuous
100
AcDbBlockReference
  2
*U40
 10
0.0
 20
0.0
 30
0.0
  0
INSERT
  5
846
330
1D
100
AcDbEntity
  8
寸法
  6
Continuous
100
AcDbBlockReference
  2
*U41
 10
0.0
 20
0.0
 30
0.0
  0
INSERT
  5
847
330
1D
100
AcDbEntity
  8
寸法
  6
Continuous
100
AcDbBlockReference
  2
*U42
 10
0.0
 20
0.0
 30
0.0
  0
INSERT
  5
848
330
1D
100
AcDbEntity
  8
寸法
  6
Continuous
100
AcDbBlockReference
  2
*U43
 10
0.0
 20
0.0
 30
0.0
  0
INSERT
  5
849
330
1D
100
AcDbEntity
  8
寸法
  6
Continuous
100
AcDbBlockReference
  2
*U44
 10
0.0
 20
0.0
 30
0.0
  0
INSERT
  5
84A
330
1D
100
AcDbEntity
  8
寸法
  6
Continuous
100
AcDbBlockReference
  2
*U45
 10
0.0
 20
0.0
 30
0.0
  0
INSERT
  5
84B
330
1D
100
AcDbEntity
  8
寸法
  6
Continuous
100
AcDbBlockReference
  2
*U46
 10
0.0
 20
0.0
 30
0.0
  0
INSERT
  5
84C
330
1D
100
AcDbEntity
  8
寸法
  6
Continuous
100
AcDbBlockReference
  2
*U47
 10
0.0
 20
0.0
 30
0.0
  0
INSERT
  5
84D
330
1D
100
AcDbEntity
  8
寸法
  6
Continuous
100
AcDbBlockReference
  2
*U48
 10
0.0
 20
0.0
 30
0.0
  0
INSERT
  5
84E
330
1D
100
AcDbEntity
  8
寸法
  6
Continuous
100
AcDbBlockReference
  2
*U49
 10
0.0
 20
0.0
 30
0.0
  0
INSERT
  5
84F
330
1D
100
AcDbEntity
  8
寸法
  6
Continuous
100
AcDbBlockReference
  2
*U55
 10
0.0
 20
0.0
 30
0.0
  0
INSERT
  5
850
330
1D
100
AcDbEntity
  8
寸法
  6
Continuous
100
AcDbBlockReference
  2
*U56
 10
0.0
 20
0.0
 30
0.0
  0
LINE
  5
851
330
1D
100
AcDbEntity
  8
St
  6
Continuous
100
AcDbLine
 10
-20.80207
 20
-83.62025800000001
 30
0.0
 11
-19.202073
 21
-82.02025999999999
 31
0.0
  0
LINE
  5
852
330
1D
100
AcDbEntity
  8
St
  6
Continuous
100
AcDbLine
 10
-20.09497
 20
-83.62025800000001
 30
0.0
 11
-18.494973
 21
-82.02025999999999
 31
0.0
  0
ARC
  5
853
330
1D
100
AcDbEntity
  8
St
  6
Continuous
100
AcDbCircle
 10
-14.758851
 20
-82.020256
 30
0.0
 40
1.6
100
AcDbArc
 50
270.0
 51
0.0
  0
LINE
  5
854
330
1D
100
AcDbEntity
  8
St
  6
Continuous
100
AcDbLine
 10
-14.758847
 20
-75.57711500000001
 30
0.0
 11
-13.15885
 21
-73.97711700000001
 31
0.0
  0
LINE
  5
855
330
1D
100
AcDbEntity
  8
St
  6
Continuous
100
AcDbLine
 10
-14.758847
 20
-76.284215
 30
0.0
 11
-13.15885
 21
-74.684217
 31
0.0
  0
LINE
  5
856
330
1D
100
AcDbEntity
  8
St
  6
Continuous
100
AcDbLine
 10
-14.758847
 20
-57.589362
 30
0.0
 11
-13.15885
 21
-55.989365
 31
0.0
  0
LINE
  5
857
330
1D
100
AcDbEntity
  8
St
  6
Continuous
100
AcDbLine
 10
-14.758847
 20
-58.296462
 30
0.0
 11
-13.15885
 21
-56.696465
 31
0.0
  0
LINE
  5
858
330
1D
100
AcDbEntity
  8
St
  6
Continuous
100
AcDbLine
 10
-14.758847
 20
-49.520375
 30
0.0
 11
-13.15885
 21
-49.520375
 31
0.0
  0
LINE
  5
859
330
1D
100
AcDbEntity
  8
St
  6
Continuous
100
AcDbLine
 10
-13.15885
 20
-82.02025999999999
 30
0.0
 11
-13.15885
 21
-49.520375
 31
0.0
  0
LINE
  5
85A
330
1D
100
AcDbEntity
  8
St
  6
Continuous
100
AcDbLine
 10
-14.758847
 20
-49.520375
 30
0.0
 11
-14.758847
 21
-82.02025999999999
 31
0.0
  0
LINE
  5
85B
330
1D
100
AcDbEntity
  8
St
  6
Continuous
100
AcDbLine
 10
-34.258803
 20
-83.62025800000001
 30
0.0
 11
-34.258803
 21
-82.02025999999999
 31
0.0
  0
LINE
  5
85C
330
1D
100
AcDbEntity
  8
St
  6
Continuous
100
AcDbLine
 10
-34.258803
 20
-82.02025999999999
 30
0.0
 11
-14.758847
 21
-82.02025999999999
 31
0.0
  0
LINE
  5
85D
330
1D
100
AcDbEntity
  8
St
  6
Continuous
100
AcDbLine
 10
-34.258803
 20
-83.62025800000001
 30
0.0
 11
-14.758855
 21
-83.62025800000001
 31
0.0
  0
LINE
  5
85E
330
1D
100
AcDbEntity
  8
St
  6
Continuous
100
AcDbLine
 10
-29.258845
 20
-26.020265
 30
0.0
 11
-27.658847
 21
-26.020265
 31
0.0
  0
ARC
  5
85F
330
1D
100
AcDbEntity
  8
St
  6
Continuous
100
AcDbCircle
 10
-27.658846
 20
-12.124168
 30
0.0
 40
1.6
100
AcDbArc
 50
90.0
 51
180.0
  0
LINE
  5
860
330
1D
100
AcDbEntity
  8
St
  6
Continuous
100
AcDbLine
 10
-14.41792
 20
-10.52417
 30
0.0
 11
-16.017918
 21
-12.124168
 31
0.0
  0
LINE
  5
861
330
1D
100
AcDbEntity
  8
St
  6
Continuous
100
AcDbLine
 10
-13.71082
 20
-10.52417
 30
0.0
 11
-15.310818
 21
-12.124168
 31
0.0
  0
LINE
  5
862
330
1D
100
AcDbEntity
  8
St
  6
Continuous
100
AcDbLine
 10
0.04115
 20
-12.124145
 30
0.0
 11
-27.658847
 21
-12.124168
 31
0.0
  0
LINE
  5
863
330
1D
100
AcDbEntity
  8
St
  6
Continuous
100
AcDbLine
 10
0.04115
 20
-10.524147
 30
0.0
 11
0.04115
 21
-12.124145
 31
0.0
  0
LINE
  5
864
330
1D
100
AcDbEntity
  8
St
  6
Continuous
100
AcDbLine
 10
0.04115
 20
-10.524147
 30
0.0
 11
-27.658847
 21
-10.52417
 31
0.0
  0
LINE
  5
865
330
1D
100
AcDbEntity
  8
St
  6
Continuous
100
AcDbLine
 10
-27.658847
 20
-26.020265
 30
0.0
 11
-27.658847
 21
-12.124168
 31
0.0
  0
LINE
  5
866
330
1D
100
AcDbEntity
  8
St
  6
Continuous
100
AcDbLine
 10
-29.258845
 20
-26.020265
 30
0.0
 11
-29.258845
 21
-12.124168
 31
0.0
  0
LINE
  5
867
330
1D
100
AcDbEntity
  8
St
  6
Continuous
100
AcDbLine
 10
-27.658847
 20
-20.458235
 30
0.0
 11
-29.258845
 21
-22.058233
 31
0.0
  0
LINE
  5
868
330
1D
100
AcDbEntity
  8
St
  6
Continuous
100
AcDbLine
 10
-27.658847
 20
-21.165335
 30
0.0
 11
-29.258845
 21
-22.765333
 31
0.0
  0
LWPOLYLINE
  5
869
330
1D
100
AcDbEntity
  8
St
  6
Continuous
 62
    47
100
AcDbPolyline
 90
        3
 70
     0
 43
0.0
 10
48.68976
 20
107.132187
 10
43.349102
 20
108.495867
 10
43.34863
 20
107.132187
  0
LWPOLYLINE
  5
86E
330
1D
100
AcDbEntity
  8
St
  6
Continuous
 62
    47
100
AcDbPolyline
 90
        3
 70
     0
 43
0.0
 10
46.795235
 20
107.132187
 10
41.454578
 20
108.495867
 10
41.454105
 20
107.132187
  0
LINE
  5
873
330
1D
100
AcDbEntity
  8
その他部品等
  6
Continuous
100
AcDbLine
 10
7.545515
 20
47.27965
 30
0.0
 11
7.545515
 21
38.475775
 31
0.0
  0
LINE
  5
874
330
1D
100
AcDbEntity
  8
その他部品等
  6
Continuous
100
AcDbLine
 10
-0.454487
 20
47.27965
 30
0.0
 11
-0.454487
 21
38.475775
 31
0.0
  0
LINE
  5
875
330
1D
100
AcDbEntity
  8
その他部品等
  6
Continuous
100
AcDbLine
 10
-5.45449
 20
38.475775
 30
0.0
 11
-5.45449
 21
48.47965
 31
0.0
  0
LINE
  5
876
330
1D
100
AcDbEntity
  8
その他部品等
  6
Continuous
100
AcDbLine
 10
-0.454487
 20
38.475775
 30
0.0
 11
-5.45449
 21
48.47965
 31
0.0
  0
INSERT
  5
877
330
1D
100
AcDbEntity
  8
その他部品等
100
AcDbBlockReference
  2
*U0
 10
0.0
 20
0.0
 30
0.0
  0
ENDSEC
  0
SECTION
  2
OBJECTS
  0
DICTIONARY
  5
C
330
0
100
AcDbDictionary
281
     1
  3
ACAD_GROUP
350
D
  3
ACAD_LAYOUT
350
1A
  3
ACAD_MLINESTYLE
350
17
  3
ACAD_PLOTSETTINGS
350
19
  3
ACAD_PLOTSTYLENAME
350
E
  0
DICTIONARY
  5
D
102
{ACAD_REACTORS
330
C
102
}
330
C
100
AcDbDictionary
281
     1
  0
DICTIONARY
  5
1A
102
{ACAD_REACTORS
330
C
102
}
330
C
100
AcDbDictionary
281
     1
  3
Layout1
350
1C
  3
Model
350
1E
  0
DICTIONARY
  5
17
102
{ACAD_REACTORS
330
C
102
}
330
C
100
AcDbDictionary
281
     1
  3
Standard
350
18
  0
DICTIONARY
  5
19
102
{ACAD_REACTORS
330
C
102
}
330
C
100
AcDbDictionary
281
     1
  0
ACDBDICTIONARYWDFLT
  5
E
102
{ACAD_REACTORS
330
C
102
}
330
C
100
AcDbDictionary
281
     1
  3
Normal
350
F
100
AcDbDictionaryWithDefault
340
F
  0
LAYOUT
  5
1C
102
{ACAD_REACTORS
330
1A
102
}
330
1A
100
AcDbPlotSettings
  1

  2

  4

  6

 40
0.0
 41
0.0
 42
0.0
 43
0.0
 44
0.0
 45
0.0
 46
0.0
 47
0.0
 48
0.0
 49
0.0
140
0.0
141
0.0
142
1.0
143
1.0
 70
   688
 72
     0
 73
     0
 74
     5
  7

 75
    16
 76
     0
 77
     2
 78
   300
147
1.0
148
0.0
149
0.0
100
AcDbLayout
  1
Layout1
 70
     1
 71
     1
 10
0.0
 20
0.0
 11
12.0
 21
9.0
 12
0.0
 22
0.0
 32
0.0
 14
1.000000000000000E+20
 24
1.000000000000000E+20
 34
1.000000000000000E+20
 15
-1.000000000000000E+20
 25
-1.000000000000000E+20
 35
-1.000000000000000E+20
146
0.0
 13
0.0
 23
0.0
 33
0.0
 16
1.0
 26
0.0
 36
0.0
 17
0.0
 27
1.0
 37
0.0
 76
     0
330
1B
  0
LAYOUT
  5
1E
102
{ACAD_REACTORS
330
1A
102
}
330
1A
100
AcDbPlotSettings
  1

  2

  4

  6

 40
0.0
 41
0.0
 42
0.0
 43
0.0
 44
0.0
 45
0.0
 46
0.0
 47
0.0
 48
0.0
 49
0.0
140
0.0
141
0.0
142
1.0
143
1.0
 70
  1712
 72
     0
 73
     0
 74
     0
  7

 75
     0
 76
     0
 77
     2
 78
   300
147
1.0
148
0.0
149
0.0
100
AcDbLayout
  1
Model
 70
     1
 71
     0
 10
0.0
 20
0.0
 11
0.0
 21
0.0
 12
0.0
 22
0.0
 32
0.0
 14
-210.0
 24
-148.5
 34
0.0
 15
210.0
 25
148.5
 35
0.0
146
0.0
 13
0.0
 23
0.0
 33
0.0
 16
1.0
 26
0.0
 36
0.0
 17
0.0
 27
1.0
 37
0.0
 76
     0
330
1D
  0
MLINESTYLE
  5
18
102
{ACAD_REACTORS
330
17
102
}
330
17
100
AcDbMlineStyle
  2
Standard
 70
     0
  3

 62
   256
 51
90.0
 52
90.0
 71
     2
 49
0.5
 62
   256
  6
BYLAYER
 49
-0.5
 62
   256
  6
BYLAYER
  0
ACDBPLACEHOLDER
  5
F
102
{ACAD_REACTORS
330
E
102
}
330
E
  0
ENDSEC
  0
EOF
