  0
SECTION
  2
HEADER
  9
$EXTMIN
 10
-210.0
 20
-148.5
  9
$EXTMAX
 10
210.0
 20
148.5
  9
$PDMODE
 70
    32
  9
$PDSIZE
 40
1.5
  9
$LTSCALE
 40
10.0
  0
ENDSEC
  0
SECTION
  2
TABLES
  0
TABLE
  2
LTYPE
 70
    15
  0
LTYPE
  2
CONTINUOUS
 70
    64
  3
実線
 72
    65
 73
     0
 40
0.0
  0
LTYPE
  2
DASHED
 70
    64
  3
破線A
 72
    65
 73
     2
 40
0.6
 49
0.4
 49
-0.2
  0
LTYPE
  2
DASHEDX2
 70
    64
  3
破線B
 72
    65
 73
     2
 40
1.3
 49
0.9
 49
-0.4
  0
LTYPE
  2
DASHDOT
 70
    64
  3
１点鎖線A
 72
    65
 73
     4
 40
0.5375
 49
0.375
 49
-0.05
 49
0.0625
 49
-0.05
  0
LTYPE
  2
DASHDOTX2
 70
    64
  3
１点鎖線B
 72
    65
 73
     4
 40
1.075
 49
0.75
 49
-0.1
 49
0.125
 49
-0.1
  0
LTYPE
  2
DIVIDE2
 70
    64
  3
２点鎖線A
 72
    65
 73
     6
 40
0.5125
 49
0.3
 49
-0.0375
 49
0.05
 49
-0.0375
 49
0.05
 49
-0.0375
  0
LTYPE
  2
DIVIDE
 70
    64
  3
２点鎖線B
 72
    65
 73
     6
 40
1.05
 49
0.55
 49
-0.1
 49
0.1
 49
-0.1
 49
0.1
 49
-0.1
  0
LTYPE
  2
DOT
 70
    64
  3
点線A
 72
    65
 73
     2
 40
0.1125
 49
0.0625
 49
-0.05
  0
LTYPE
  2
DOTX2
 70
    64
  3
点線B
 72
    65
 73
     2
 40
0.275
 49
0.15
 49
-0.125
  0
LTYPE
  2
CONTINUOUS
 70
    64
  3
実線
 72
    65
 73
     0
 40
0.0
  0
LTYPE
  2
CONTINUOUS
 70
    64
  3
実線
 72
    65
 73
     0
 40
0.0
  0
LTYPE
  2
CONTINUOUS
 70
    64
  3
実線
 72
    65
 73
     0
 40
0.0
  0
LTYPE
  2
CONTINUOUS
 70
    64
  3
実線
 72
    65
 73
     0
 40
0.0
  0
LTYPE
  2
CONTINUOUS
 70
    64
  3
実線
 72
    65
 73
     0
 40
0.0
  0
LTYPE
  2
CONTINUOUS
 70
    64
  3
実線
 72
    65
 73
     0
 40
0.0
  0
ENDTAB
  0
TABLE
  2
LAYER
 70
    34
  0
LAYER
  2
通り芯
 70
     0
 62
    15
  6
CONTINUOUS
  0
LAYER
  2
補助線
 70
     0
 62
    16
  6
DOT
  0
LAYER
  2
躯体
 70
     0
 62
    31
  6
CONTINUOUS
  0
LAYER
  2
型材
 70
     0
 62
    32
  6
CONTINUOUS
  0
LAYER
  2
型材断面
 70
     0
 62
    47
  6
CONTINUOUS
  0
LAYER
  2
ガラス
 70
     0
 62
    48
  6
CONTINUOUS
  0
LAYER
  2
ゴム等
 70
     0
 62
    63
  6
CONTINUOUS
  0
LAYER
  2
ボルト／ビス
 70
     0
 62
    64
  6
CONTINUOUS
  0
LAYER
  2
文字
 70
     0
 62
    79
  6
CONTINUOUS
  0
LAYER
  2
寸法
 70
     0
 62
    80
  6
CONTINUOUS
  0
LAYER
  2
ﾊｯﾁﾝｸﾞ
 70
     0
 62
    95
  6
CONTINUOUS
  0
LAYER
  2
別途部材
 70
     0
 62
    96
  6
CONTINUOUS
  0
LAYER
  2
曲げ物
 70
     0
 62
   111
  6
CONTINUOUS
  0
LAYER
  2
鉄骨等
 70
     0
 62
   112
  6
CONTINUOUS
  0
LAYER
  2
St
 70
     0
 62
   127
  6
CONTINUOUS
  0
LAYER
  2
その他部品等
 70
     0
 62
   128
  6
CONTINUOUS
  0
LAYER
  2
ｶﾞｽｹｯﾄ
 70
     0
 62
   143
  6
CONTINUOUS
  0
LAYER
  2
ｽｹｯﾁ
 70
     0
 62
    14
  6
CONTINUOUS
  0
LAYER
  2
0
 70
     0
 62
    17
  6
CONTINUOUS
  0
LAYER
  2
1
 70
     0
 62
    30
  6
CONTINUOUS
  0
LAYER
  2
4
 70
     0
 62
    33
  6
CONTINUOUS
  0
LAYER
  2
ﾚｲﾔ3
 70
     0
 62
    46
  6
CONTINUOUS
  0
LAYER
  2
外形線
 70
     0
 62
    49
  6
CONTINUOUS
  0
LAYER
  2
部品
 70
     0
 62
    14
  6
CONTINUOUS
  0
LAYER
  2
サッシ芯
 70
     0
 62
    17
  6
DASHDOTX2
  0
LAYER
  2
寸法線
 70
     0
 62
    62
  6
CONTINUOUS
  0
LAYER
  2
姿図外形線
 70
     0
 62
    65
  6
CONTINUOUS
  0
LAYER
  2
姿補助線
 70
     0
 62
    30
  6
CONTINUOUS
  0
LAYER
  2
透視線
 70
     0
 62
    78
  6
DOT
  0
LAYER
  2
用紙
 70
     0
 62
    81
  6
CONTINUOUS
  0
LAYER
  2
実線図枠
 70
     0
 62
    94
  6
CONTINUOUS
  0
LAYER
  2
補助図枠
 70
     0
 62
    97
  6
CONTINUOUS
  0
LAYER
  2
建具記号
 70
     0
 62
   110
  6
CONTINUOUS
  0
LAYER
  2
補助文字
 70
     0
 62
   113
  6
CONTINUOUS
  0
ENDTAB
  0
TABLE
  2
STYLE
 70
    10
  0
STYLE
  2
STANDARD
 70
     0
 40
1.0
 41
1.0
 42
1.0
 50
0.0
 71
     0
  3
TXT
  4
BIGFONT
  0
STYLE
  2
TATE
 70
     4
 40
1.0
 41
1.0
 42
1.0
 50
0.0
 71
     0
  3
TXT
  4
BIGFONT
  0
STYLE
  2
TextStyle03
 70
     0
 40
1.0
 41
1.0
 42
1.0
 50
0.0
 71
     0
  3
MONOTXT
  4
BIGFONT
  0
STYLE
  2
TextStyle04
 70
     0
 40
1.0
 41
1.0
 42
1.0
 50
0.0
 71
     0
  3
MONOTXT
  4
BIGFONT
  0
STYLE
  2
TextStyle05
 70
     0
 40
1.0
 41
1.0
 42
1.0
 50
0.0
 71
     0
  3
MONOTXT
  4
BIGFONT
  0
STYLE
  2
TextStyle06
 70
     0
 40
1.0
 41
1.0
 42
1.0
 50
0.0
 71
     0
  3
MONOTXT
  4
BIGFONT
  0
STYLE
  2
TextStyle07
 70
     0
 40
1.0
 41
1.0
 42
1.0
 50
0.0
 71
     0
  3
MONOTXT
  4
BIGFONT
  0
STYLE
  2
TextStyle08
 70
     0
 40
1.0
 41
1.0
 42
1.0
 50
0.0
 71
     0
  3
MONOTXT
  4
BIGFONT
  0
STYLE
  2
TextStyle09
 70
     0
 40
1.0
 41
1.0
 42
1.0
 50
0.0
 71
     0
  3
MONOTXT
  4
BIGFONT
  0
STYLE
  2
TextStyle10
 70
     0
 40
1.0
 41
1.0
 42
1.0
 50
0.0
 71
     0
  3
MONOTXT
  4
BIGFONT
  0
ENDTAB
  0
ENDSEC
  0
SECTION
  2
BLOCKS
  0
BLOCK
  2
*HAT_0001
 70
    65
 10
0.0
 20
0.0
  0
LINE
  8
ﾊｯﾁﾝｸﾞ
 10
-3.95
 20
60.9
 11
-2.975
 21
61.875
  0
LINE
  8
ﾊｯﾁﾝｸﾞ
 10
-6.8
 20
60.9
 11
-2.975
 21
64.725
  0
LINE
  8
ﾊｯﾁﾝｸﾞ
 10
-9.575
 20
60.9
 11
-2.975
 21
67.5
  0
LINE
  8
ﾊｯﾁﾝｸﾞ
 10
-11.0
 20
62.325
 11
-2.975
 21
70.35
  0
LINE
  8
ﾊｯﾁﾝｸﾞ
 10
-11.0
 20
65.175
 11
-4.25
 21
71.925
  0
LINE
  8
ﾊｯﾁﾝｸﾞ
 10
-11.0
 20
68.025
 11
-7.1
 21
71.925
  0
LINE
  8
ﾊｯﾁﾝｸﾞ
 10
-11.0
 20
70.8
 11
-9.875
 21
71.925
  0
LINE
  8
ﾊｯﾁﾝｸﾞ
 10
-11.0
 20
61.35
 11
-10.625
 21
60.9
  0
LINE
  8
ﾊｯﾁﾝｸﾞ
 10
-11.0
 20
64.125
 11
-7.775
 21
60.9
  0
LINE
  8
ﾊｯﾁﾝｸﾞ
 10
-11.0
 20
66.975
 11
-5.0
 21
60.9
  0
LINE
  8
ﾊｯﾁﾝｸﾞ
 10
-11.0
 20
69.825
 11
-2.975
 21
61.8
  0
LINE
  8
ﾊｯﾁﾝｸﾞ
 10
-10.325
 20
71.925
 11
-2.975
 21
64.65
  0
LINE
  8
ﾊｯﾁﾝｸﾞ
 10
-7.475
 20
71.925
 11
-2.975
 21
67.425
  0
LINE
  8
ﾊｯﾁﾝｸﾞ
 10
-4.625
 20
71.925
 11
-2.975
 21
70.275
  0
ENDBLK
  0
BLOCK
  2
*HAT_0002
 70
    65
 10
0.0
 20
0.0
  0
LINE
  8
別途部材
  6
DOT
 10
-51.2
 20
-33.9
 11
-50.975
 21
-33.675
  0
LINE
  8
別途部材
  6
DOT
 10
-53.675
 20
-33.9
 11
-50.975
 21
-31.125
  0
LINE
  8
別途部材
  6
DOT
 10
-56.225
 20
-33.9
 11
-50.975
 21
-28.575
  0
LINE
  8
別途部材
  6
DOT
 10
-58.775
 20
-33.9
 11
-50.975
 21
-26.025
  0
LINE
  8
別途部材
  6
DOT
 10
-60.95
 20
-33.525
 11
-51.35
 21
-23.85
  0
LINE
  8
別途部材
  6
DOT
 10
-60.95
 20
-30.975
 11
-53.9
 21
-23.85
  0
LINE
  8
別途部材
  6
DOT
 10
-60.95
 20
-28.425
 11
-56.375
 21
-23.85
  0
LINE
  8
別途部材
  6
DOT
 10
-60.95
 20
-25.875
 11
-58.925
 21
-23.85
  0
ENDBLK
  0
BLOCK
  2
*HAT_0003
 70
    65
 10
0.0
 20
0.0
  0
LINE
  8
その他部品等
  6
CONTINUOUS
 10
-31.1
 20
-33.9
 11
-29.6
 21
-32.4
  0
LINE
  8
その他部品等
  6
CONTINUOUS
 10
-33.575
 20
-33.9
 11
-29.6
 21
-29.85
  0
LINE
  8
その他部品等
  6
CONTINUOUS
 10
-36.125
 20
-33.9
 11
-29.6
 21
-27.375
  0
LINE
  8
その他部品等
  6
CONTINUOUS
 10
-37.625
 20
-32.775
 11
-29.6
 21
-24.825
  0
LINE
  8
その他部品等
  6
CONTINUOUS
 10
-37.625
 20
-30.225
 11
-33.05
 21
-25.725
  0
LINE
  8
その他部品等
  6
CONTINUOUS
 10
-37.625
 20
-32.775
 11
-36.575
 21
-33.825
  0
LINE
  8
その他部品等
  6
CONTINUOUS
 10
-37.625
 20
-30.225
 11
-34.025
 21
-33.825
  0
LINE
  8
その他部品等
  6
CONTINUOUS
 10
-36.95
 20
-28.35
 11
-31.475
 21
-33.825
  0
LINE
  8
その他部品等
  6
CONTINUOUS
 10
-35.45
 20
-27.3
 11
-29.675
 21
-33.15
  0
LINE
  8
その他部品等
  6
CONTINUOUS
 10
-33.95
 20
-26.325
 11
-29.675
 21
-30.6
  0
LINE
  8
その他部品等
  6
CONTINUOUS
 10
-32.45
 20
-25.275
 11
-29.675
 21
-28.05
  0
LINE
  8
その他部品等
  6
CONTINUOUS
 10
-30.95
 20
-24.225
 11
-29.675
 21
-25.5
  0
ENDBLK
  0
BLOCK
  2
*HAT_0004
 70
    65
 10
0.0
 20
0.0
  0
LINE
  8
その他部品等
  6
CONTINUOUS
 10
6.25
 20
-14.4
 11
6.85
 21
-13.725
  0
LINE
  8
その他部品等
  6
CONTINUOUS
 10
7.525
 20
-13.05
 11
7.9
 21
-12.75
  0
LINE
  8
その他部品等
  6
CONTINUOUS
 10
3.7
 20
-14.4
 11
6.7
 21
-11.325
  0
LINE
  8
その他部品等
  6
CONTINUOUS
 10
1.15
 20
-14.4
 11
4.15
 21
-11.325
  0
LINE
  8
その他部品等
  6
CONTINUOUS
 10
-1.4
 20
-14.4
 11
1.6
 21
-11.325
  0
LINE
  8
その他部品等
  6
CONTINUOUS
 10
-3.95
 20
-14.4
 11
-0.95
 21
-11.325
  0
LINE
  8
その他部品等
  6
CONTINUOUS
 10
-6.5
 20
-14.4
 11
-3.5
 21
-11.325
  0
LINE
  8
その他部品等
  6
CONTINUOUS
 10
-9.05
 20
-14.4
 11
-6.05
 21
-11.325
  0
LINE
  8
その他部品等
  6
CONTINUOUS
 10
-11.6
 20
-14.4
 11
-8.6
 21
-11.325
  0
LINE
  8
その他部品等
  6
CONTINUOUS
 10
-14.075
 20
-14.4
 11
-11.075
 21
-11.325
  0
LINE
  8
その他部品等
  6
CONTINUOUS
 10
-16.625
 20
-14.4
 11
-13.625
 21
-11.325
  0
LINE
  8
その他部品等
  6
CONTINUOUS
 10
-19.175
 20
-14.4
 11
-16.175
 21
-11.325
  0
LINE
  8
その他部品等
  6
CONTINUOUS
 10
-21.725
 20
-14.4
 11
-18.725
 21
-11.325
  0
LINE
  8
その他部品等
  6
CONTINUOUS
 10
-24.275
 20
-14.4
 11
-21.275
 21
-11.325
  0
LINE
  8
その他部品等
  6
CONTINUOUS
 10
-26.825
 20
-14.4
 11
-23.825
 21
-11.325
  0
LINE
  8
その他部品等
  6
CONTINUOUS
 10
-28.025
 20
-13.05
 11
-26.375
 21
-11.325
  0
LINE
  8
その他部品等
  6
CONTINUOUS
 10
-28.55
 20
-11.325
 11
-25.55
 21
-14.325
  0
LINE
  8
その他部品等
  6
CONTINUOUS
 10
-26.0
 20
-11.325
 11
-23.0
 21
-14.325
  0
LINE
  8
その他部品等
  6
CONTINUOUS
 10
-23.45
 20
-11.325
 11
-20.45
 21
-14.325
  0
LINE
  8
その他部品等
  6
CONTINUOUS
 10
-20.9
 20
-11.325
 11
-17.9
 21
-14.325
  0
LINE
  8
その他部品等
  6
CONTINUOUS
 10
-18.35
 20
-11.325
 11
-15.35
 21
-14.325
  0
LINE
  8
その他部品等
  6
CONTINUOUS
 10
-15.875
 20
-11.325
 11
-12.875
 21
-14.325
  0
LINE
  8
その他部品等
  6
CONTINUOUS
 10
-13.325
 20
-11.325
 11
-10.325
 21
-14.325
  0
LINE
  8
その他部品等
  6
CONTINUOUS
 10
-10.775
 20
-11.325
 11
-7.775
 21
-14.325
  0
LINE
  8
その他部品等
  6
CONTINUOUS
 10
-8.225
 20
-11.325
 11
-5.225
 21
-14.325
  0
LINE
  8
その他部品等
  6
CONTINUOUS
 10
-5.675
 20
-11.325
 11
-2.675
 21
-14.325
  0
LINE
  8
その他部品等
  6
CONTINUOUS
 10
-3.125
 20
-11.325
 11
-0.125
 21
-14.325
  0
LINE
  8
その他部品等
  6
CONTINUOUS
 10
-0.575
 20
-11.325
 11
2.425
 21
-14.325
  0
LINE
  8
その他部品等
  6
CONTINUOUS
 10
1.975
 20
-11.325
 11
4.975
 21
-14.325
  0
LINE
  8
その他部品等
  6
CONTINUOUS
 10
4.525
 20
-11.325
 11
6.85
 21
-13.725
  0
LINE
  8
その他部品等
  6
CONTINUOUS
 10
7.0
 20
-11.325
 11
7.825
 21
-12.15
  0
ENDBLK
  0
BLOCK
  2
*HAT_0005
 70
    65
 10
0.0
 20
0.0
  0
LINE
  8
その他部品等
 10
-34.4
 20
-37.2
 11
-34.325
 21
-37.125
  0
LINE
  8
その他部品等
 10
-37.175
 20
-37.425
 11
-35.3
 21
-35.55
  0
LINE
  8
その他部品等
 10
-39.875
 20
-37.65
 11
-37.85
 21
-35.55
  0
LINE
  8
その他部品等
 10
-42.65
 20
-37.8
 11
-40.4
 21
-35.55
  0
LINE
  8
その他部品等
 10
-45.425
 20
-38.025
 11
-42.95
 21
-35.55
  0
LINE
  8
その他部品等
 10
-48.125
 20
-38.25
 11
-45.5
 21
-35.55
  0
LINE
  8
その他部品等
 10
-50.9
 20
-38.475
 11
-48.05
 21
-35.55
  0
LINE
  8
その他部品等
 10
-53.675
 20
-38.625
 11
-50.525
 21
-35.55
  0
LINE
  8
その他部品等
 10
-56.375
 20
-38.85
 11
-53.075
 21
-35.55
  0
LINE
  8
その他部品等
 10
-59.15
 20
-39.075
 11
-55.625
 21
-35.55
  0
LINE
  8
その他部品等
 10
-61.925
 20
-39.3
 11
-58.175
 21
-35.55
  0
LINE
  8
その他部品等
 10
-64.625
 20
-39.525
 11
-61.25
 21
-36.075
  0
LINE
  8
その他部品等
 10
-60.95
 20
-35.775
 11
-60.725
 21
-35.55
  0
LINE
  8
その他部品等
 10
-67.4
 20
-39.675
 11
-63.95
 21
-36.3
  0
LINE
  8
その他部品等
 10
-70.175
 20
-39.9
 11
-66.725
 21
-36.45
  0
LINE
  8
その他部品等
 10
-72.875
 20
-40.125
 11
-69.5
 21
-36.675
  0
LINE
  8
その他部品等
 10
-75.65
 20
-40.35
 11
-72.2
 21
-36.9
  0
LINE
  8
その他部品等
 10
-78.425
 20
-40.575
 11
-74.975
 21
-37.125
  0
LINE
  8
その他部品等
 10
-81.125
 20
-40.725
 11
-77.75
 21
-37.35
  0
LINE
  8
その他部品等
 10
-83.9
 20
-40.95
 11
-80.45
 21
-37.5
  0
LINE
  8
その他部品等
 10
-86.675
 20
-41.175
 11
-83.225
 21
-37.725
  0
LINE
  8
その他部品等
 10
-89.375
 20
-41.4
 11
-86.0
 21
-37.95
  0
LINE
  8
その他部品等
 10
-92.15
 20
-41.55
 11
-88.7
 21
-38.175
  0
LINE
  8
その他部品等
 10
-94.925
 20
-41.775
 11
-91.475
 21
-38.325
  0
LINE
  8
その他部品等
 10
-97.625
 20
-42.0
 11
-94.25
 21
-38.55
  0
LINE
  8
その他部品等
 10
-100.4
 20
-42.225
 11
-96.95
 21
-38.775
  0
LINE
  8
その他部品等
 10
-103.175
 20
-42.375
 11
-99.725
 21
-39.0
  0
LINE
  8
その他部品等
 10
-105.875
 20
-42.6
 11
-102.5
 21
-39.225
  0
LINE
  8
その他部品等
 10
-117.95
 20
-52.2
 11
-115.625
 21
-49.8
  0
LINE
  8
その他部品等
 10
-108.65
 20
-42.825
 11
-105.2
 21
-39.375
  0
LINE
  8
その他部品等
 10
-118.925
 20
-50.55
 11
-115.625
 21
-47.25
  0
LINE
  8
その他部品等
 10
-111.425
 20
-43.05
 11
-107.975
 21
-39.6
  0
LINE
  8
その他部品等
 10
-118.925
 20
-48.0
 11
-115.625
 21
-44.7
  0
LINE
  8
その他部品等
 10
-114.125
 20
-43.275
 11
-110.75
 21
-39.825
  0
LINE
  8
その他部品等
 10
-118.925
 20
-45.45
 11
-113.45
 21
-40.05
  0
LINE
  8
その他部品等
 10
-118.925
 20
-42.975
 11
-116.225
 21
-40.2
  0
LINE
  8
その他部品等
 10
-118.925
 20
-50.55
 11
-117.35
 21
-52.125
  0
LINE
  8
その他部品等
 10
-118.925
 20
-48.0
 11
-115.625
 21
-51.3
  0
LINE
  8
その他部品等
 10
-118.925
 20
-45.525
 11
-115.625
 21
-48.825
  0
LINE
  8
その他部品等
 10
-118.925
 20
-42.975
 11
-115.625
 21
-46.275
  0
LINE
  8
その他部品等
 10
-118.925
 20
-40.425
 11
-115.4
 21
-43.95
  0
LINE
  8
その他部品等
 10
-116.6
 20
-40.275
 11
-113.6
 21
-43.2
  0
LINE
  8
その他部品等
 10
-114.2
 20
-40.05
 11
-111.275
 21
-43.05
  0
LINE
  8
その他部品等
 10
-111.875
 20
-39.9
 11
-108.875
 21
-42.825
  0
LINE
  8
その他部品等
 10
-109.475
 20
-39.75
 11
-106.55
 21
-42.675
  0
LINE
  8
その他部品等
 10
-107.15
 20
-39.525
 11
-104.15
 21
-42.45
  0
LINE
  8
その他部品等
 10
-104.75
 20
-39.375
 11
-101.825
 21
-42.3
  0
LINE
  8
その他部品等
 10
-102.425
 20
-39.15
 11
-99.425
 21
-42.15
  0
LINE
  8
その他部品等
 10
-100.025
 20
-39.0
 11
-97.1
 21
-41.925
  0
LINE
  8
その他部品等
 10
-97.7
 20
-38.85
 11
-94.7
 21
-41.775
  0
LINE
  8
その他部品等
 10
-95.3
 20
-38.625
 11
-92.375
 21
-41.55
  0
LINE
  8
その他部品等
 10
-92.9
 20
-38.475
 11
-89.975
 21
-41.4
  0
LINE
  8
その他部品等
 10
-90.575
 20
-38.25
 11
-87.65
 21
-41.25
  0
LINE
  8
その他部品等
 10
-88.175
 20
-38.1
 11
-85.25
 21
-41.025
  0
LINE
  8
その他部品等
 10
-85.85
 20
-37.95
 11
-82.925
 21
-40.875
  0
LINE
  8
その他部品等
 10
-83.45
 20
-37.725
 11
-80.525
 21
-40.725
  0
LINE
  8
その他部品等
 10
-81.125
 20
-37.575
 11
-78.2
 21
-40.5
  0
LINE
  8
その他部品等
 10
-78.8
 20
-37.425
 11
-75.8
 21
-40.35
  0
LINE
  8
その他部品等
 10
-76.4
 20
-37.2
 11
-73.475
 21
-40.125
  0
LINE
  8
その他部品等
 10
-74.075
 20
-37.05
 11
-71.075
 21
-39.975
  0
LINE
  8
その他部品等
 10
-71.675
 20
-36.825
 11
-68.75
 21
-39.825
  0
LINE
  8
その他部品等
 10
-69.35
 20
-36.675
 11
-66.35
 21
-39.6
  0
LINE
  8
その他部品等
 10
-66.95
 20
-36.525
 11
-64.025
 21
-39.45
  0
LINE
  8
その他部品等
 10
-64.55
 20
-36.3
 11
-61.625
 21
-39.3
  0
LINE
  8
その他部品等
 10
-62.225
 20
-36.15
 11
-59.3
 21
-39.075
  0
LINE
  8
その他部品等
 10
-60.275
 20
-35.55
 11
-56.9
 21
-38.925
  0
LINE
  8
その他部品等
 10
-57.725
 20
-35.55
 11
-54.575
 21
-38.7
  0
LINE
  8
その他部品等
 10
-55.175
 20
-35.55
 11
-52.175
 21
-38.55
  0
LINE
  8
その他部品等
 10
-52.625
 20
-35.55
 11
-49.85
 21
-38.4
  0
LINE
  8
その他部品等
 10
-50.075
 20
-35.55
 11
-47.45
 21
-38.175
  0
LINE
  8
その他部品等
 10
-47.525
 20
-35.55
 11
-45.125
 21
-38.025
  0
LINE
  8
その他部品等
 10
-44.975
 20
-35.55
 11
-42.725
 21
-37.8
  0
LINE
  8
その他部品等
 10
-42.5
 20
-35.55
 11
-40.4
 21
-37.65
  0
LINE
  8
その他部品等
 10
-39.95
 20
-35.55
 11
-38.0
 21
-37.5
  0
LINE
  8
その他部品等
 10
-37.4
 20
-35.55
 11
-35.675
 21
-37.275
  0
LINE
  8
その他部品等
 10
-34.85
 20
-35.55
 11
-34.325
 21
-36.075
  0
ENDBLK
  0
BLOCK
  2
*GRP_0001
 70
    65
 10
0.0
 20
0.0
  0
LINE
  8
型材断面
  6
CONTINUOUS
 10
195.0
 20
133.5
 11
195.0
 21
-133.5
  0
LINE
  8
型材断面
  6
CONTINUOUS
 10
195.0
 20
-133.5
 11
-185.0
 21
-133.5
  0
LINE
  8
型材断面
  6
CONTINUOUS
 10
-185.0
 20
-133.5
 11
-185.0
 21
133.5
  0
LINE
  8
型材断面
  6
CONTINUOUS
 10
195.0
 20
133.5
 11
-185.0
 21
133.5
  0
LINE
  8
型材断面
  6
CONTINUOUS
 10
145.0
 20
-133.5
 11
145.0
 21
-118.5
  0
LINE
  8
型材断面
  6
CONTINUOUS
 10
195.0
 20
-118.5
 11
145.0
 21
-118.5
  0
ENDBLK
  0
BLOCK
  2
*GRP_0002
 70
    65
 10
0.0
 20
0.0
  0
LINE
  8
型材断面
  6
CONTINUOUS
 62
    14
 10
-57.351397
 20
49.664065
 11
-57.351397
 21
50.664077
  0
LINE
  8
型材断面
  6
CONTINUOUS
 62
    14
 10
-57.351397
 20
50.664077
 11
-56.551387
 21
50.664077
  0
LINE
  8
型材断面
  6
CONTINUOUS
 62
    14
 10
-56.551387
 20
50.664077
 11
-56.551387
 21
48.564085
  0
LINE
  8
型材断面
  6
CONTINUOUS
 62
    14
 10
-56.551387
 20
42.764057
 11
-56.551387
 21
39.664068
  0
LINE
  8
型材断面
  6
CONTINUOUS
 62
    14
 10
-56.551387
 20
39.664068
 11
-57.351397
 21
39.664068
  0
LINE
  8
型材断面
  6
CONTINUOUS
 62
    14
 10
-57.351397
 20
39.664068
 11
-57.351397
 21
41.66407
  0
LINE
  8
型材断面
  6
CONTINUOUS
 62
    14
 10
-57.351397
 20
41.66407
 11
-60.851393
 21
41.66407
  0
LINE
  8
型材断面
  6
CONTINUOUS
 62
    14
 10
-60.851393
 20
41.66407
 11
-60.851393
 21
-33.83588
  0
LINE
  8
型材断面
  6
CONTINUOUS
 62
    14
 10
-60.851393
 20
-33.83588
 11
-38.551395
 21
-33.83588
  0
LINE
  8
型材断面
  6
CONTINUOUS
 62
    14
 10
-38.551395
 20
-33.83588
 11
-38.551395
 21
-28.835877
  0
LINE
  8
型材断面
  6
CONTINUOUS
 62
    14
 10
-38.551395
 20
-28.835877
 11
-37.551397
 21
-28.835877
  0
LINE
  8
型材断面
  6
CONTINUOUS
 62
    14
 10
-37.551397
 20
-28.835877
 11
-37.551397
 21
-33.83588
  0
LINE
  8
型材断面
  6
CONTINUOUS
 62
    14
 10
-37.551397
 20
-33.83588
 11
-29.551395
 21
-33.83588
  0
LINE
  8
型材断面
  6
CONTINUOUS
 62
    14
 10
-29.551395
 20
-33.83588
 11
-29.551395
 21
-23.63588
  0
LINE
  8
型材断面
  6
CONTINUOUS
 62
    14
 10
-29.551395
 20
-23.63588
 11
-30.051443
 21
-23.63588
  0
LINE
  8
型材断面
  6
CONTINUOUS
 62
    14
 10
-30.051443
 20
-23.63588
 11
-30.051443
 21
-22.835885
  0
LINE
  8
型材断面
  6
CONTINUOUS
 62
    14
 10
-30.051443
 20
-22.835885
 11
-26.95143
 21
-22.835885
  0
LINE
  8
型材断面
  6
CONTINUOUS
 62
    14
 10
-26.95143
 20
-22.835885
 11
-26.751397
 21
-23.836063
  0
LINE
  8
型材断面
  6
CONTINUOUS
 62
    14
 10
-26.751397
 20
-23.836063
 11
-28.051395
 21
-23.836063
  0
LINE
  8
型材断面
  6
CONTINUOUS
 62
    14
 10
-28.051395
 20
-23.836063
 11
-28.051395
 21
-25.835938
  0
LINE
  8
型材断面
  6
CONTINUOUS
 62
    14
 10
-28.051395
 20
-25.835938
 11
-21.351487
 21
-25.835938
  0
LINE
  8
型材断面
  6
CONTINUOUS
 62
    14
 10
-21.351487
 20
-25.835938
 11
-21.351487
 21
-23.836138
  0
LINE
  8
型材断面
  6
CONTINUOUS
 62
    14
 10
-21.351487
 20
-23.836138
 11
-21.151433
 21
-22.835885
  0
LINE
  8
型材断面
  6
CONTINUOUS
 62
    14
 10
-21.151433
 20
-22.835885
 11
-17.451487
 21
-22.835885
  0
LINE
  8
型材断面
  6
CONTINUOUS
 62
    14
 10
-17.451487
 20
-22.835885
 11
-17.451487
 21
-25.63589
  0
LINE
  8
型材断面
  6
CONTINUOUS
 62
    14
 10
-17.451487
 20
-25.63589
 11
-18.251483
 21
-25.63589
  0
LINE
  8
型材断面
  6
CONTINUOUS
 62
    14
 10
-18.251483
 20
-25.63589
 11
-18.251483
 21
-23.635887
  0
LINE
  8
型材断面
  6
CONTINUOUS
 62
    14
 10
-18.251483
 20
-23.635887
 11
-20.051483
 21
-23.635887
  0
LINE
  8
型材断面
  6
CONTINUOUS
 62
    14
 10
-20.051483
 20
-23.635887
 11
-20.051483
 21
-27.335938
  0
LINE
  8
型材断面
  6
CONTINUOUS
 62
    14
 10
-20.051483
 20
-27.335938
 11
-23.751443
 21
-27.335938
  0
LINE
  8
型材断面
  6
CONTINUOUS
 62
    14
 10
-23.751443
 20
-27.335938
 11
-24.051443
 21
-27.035937
  0
LINE
  8
型材断面
  6
CONTINUOUS
 62
    14
 10
-24.051443
 20
-27.035937
 11
-24.351443
 21
-27.335938
  0
LINE
  8
型材断面
  6
CONTINUOUS
 62
    14
 10
-24.351443
 20
-27.335938
 11
-28.051395
 21
-27.335938
  0
LINE
  8
型材断面
  6
CONTINUOUS
 62
    14
 10
-28.051395
 20
-27.335938
 11
-28.051395
 21
-35.535883
  0
LINE
  8
型材断面
  6
CONTINUOUS
 62
    14
 10
-28.051395
 20
-35.535883
 11
-32.551403
 21
-35.535883
  0
LINE
  8
型材断面
  6
CONTINUOUS
 62
    14
 10
-32.551403
 20
-35.535883
 11
-32.551403
 21
-53.835935
  0
LINE
  8
型材断面
  6
CONTINUOUS
 62
    14
 10
-32.551403
 20
-53.835935
 11
-42.651638
 21
-53.835935
  0
LINE
  8
型材断面
  6
CONTINUOUS
 62
    14
 10
-42.651638
 20
-53.835935
 11
-42.951638
 21
-53.535935
  0
LINE
  8
型材断面
  6
CONTINUOUS
 62
    14
 10
-42.951638
 20
-53.535935
 11
-43.251638
 21
-53.835935
  0
LINE
  8
型材断面
  6
CONTINUOUS
 62
    14
 10
-34.251397
 20
-51.835933
 11
-34.251397
 21
-35.535883
  0
LINE
  8
型材断面
  6
CONTINUOUS
 62
    14
 10
-118.851397
 20
-40.412007
 11
-118.851397
 21
-52.135933
  0
LINE
  8
型材断面
  6
CONTINUOUS
 62
    14
 10
-118.851397
 20
-52.135933
 11
-105.551648
 21
-52.135933
  0
LINE
  8
型材断面
  6
CONTINUOUS
 62
    14
 10
-105.551648
 20
-52.135933
 11
-105.551648
 21
-51.835805
  0
LINE
  8
型材断面
  6
CONTINUOUS
 62
    14
 10
-98.75178
 20
-53.835808
 11
-99.051653
 21
-53.535935
  0
LINE
  8
型材断面
  6
CONTINUOUS
 62
    14
 10
-99.051653
 20
-53.535935
 11
-99.351525
 21
-53.835808
  0
LINE
  8
型材断面
  6
CONTINUOUS
 62
    14
 10
-99.351525
 20
-53.835808
 11
-104.051648
 21
-53.835808
  0
LINE
  8
型材断面
  6
CONTINUOUS
 62
    14
 10
-104.051648
 20
-53.835808
 11
-104.051648
 21
-63.83591
  0
LINE
  8
型材断面
  6
CONTINUOUS
 62
    14
 10
-104.051648
 20
-63.83591
 11
-105.551648
 21
-63.83591
  0
LINE
  8
型材断面
  6
CONTINUOUS
 62
    14
 10
-105.551648
 20
-63.83591
 11
-105.551648
 21
-53.835935
  0
LINE
  8
型材断面
  6
CONTINUOUS
 62
    14
 10
-105.551648
 20
-53.835935
 11
-111.2514
 21
-53.835935
  0
LINE
  8
型材断面
  6
CONTINUOUS
 62
    14
 10
-111.2514
 20
-53.835935
 11
-111.5514
 21
-53.535935
  0
LINE
  8
型材断面
  6
CONTINUOUS
 62
    14
 10
-111.5514
 20
-53.535935
 11
-111.8514
 21
-53.835935
  0
LINE
  8
型材断面
  6
CONTINUOUS
 62
    14
 10
-111.8514
 20
-53.835935
 11
-120.5514
 21
-53.835935
  0
LINE
  8
型材断面
  6
CONTINUOUS
 62
    14
 10
-120.5514
 20
-53.835935
 11
-120.5514
 21
-38.835935
  0
LINE
  8
型材断面
  6
CONTINUOUS
 62
    14
 10
-120.5514
 20
-38.835935
 11
-62.351393
 21
-34.426422
  0
LINE
  8
型材断面
  6
CONTINUOUS
 62
    14
 10
-62.351393
 20
-34.426422
 11
-62.351393
 21
-30.135883
  0
LINE
  8
型材断面
  6
CONTINUOUS
 62
    14
 10
-62.351393
 20
-30.135883
 11
-62.051393
 21
-29.835883
  0
LINE
  8
型材断面
  6
CONTINUOUS
 62
    14
 10
-62.051393
 20
-29.835883
 11
-62.351393
 21
-29.535883
  0
LINE
  8
型材断面
  6
CONTINUOUS
 62
    14
 10
-62.351393
 20
-29.535883
 11
-62.351393
 21
-20.135877
  0
LINE
  8
型材断面
  6
CONTINUOUS
 62
    14
 10
-62.351393
 20
-20.135877
 11
-62.051393
 21
-19.835877
  0
LINE
  8
型材断面
  6
CONTINUOUS
 62
    14
 10
-62.051393
 20
-19.835877
 11
-62.351393
 21
-19.535877
  0
LINE
  8
型材断面
  6
CONTINUOUS
 62
    14
 10
-62.351393
 20
-19.535877
 11
-62.351393
 21
33.864122
  0
LINE
  8
型材断面
  6
CONTINUOUS
 62
    14
 10
-62.351393
 20
33.864122
 11
-62.051393
 21
34.164122
  0
LINE
  8
型材断面
  6
CONTINUOUS
 62
    14
 10
-62.051393
 20
34.164122
 11
-62.351393
 21
34.464122
  0
LINE
  8
型材断面
  6
CONTINUOUS
 62
    14
 10
-62.351393
 20
34.464122
 11
-62.351393
 21
45.364068
  0
LINE
  8
型材断面
  6
CONTINUOUS
 62
    14
 10
-62.351393
 20
45.364068
 11
-62.051393
 21
45.664068
  0
LINE
  8
型材断面
  6
CONTINUOUS
 62
    14
 10
-62.051393
 20
45.664068
 11
-62.351393
 21
45.964068
  0
LINE
  8
型材断面
  6
CONTINUOUS
 62
    14
 10
-62.351393
 20
45.964068
 11
-62.351393
 21
49.364065
  0
LINE
  8
型材断面
  6
CONTINUOUS
 62
    14
 10
-62.351393
 20
49.364065
 11
-64.25139
 21
49.364065
  0
LINE
  8
型材断面
  6
CONTINUOUS
 62
    14
 10
-64.25139
 20
49.364065
 11
-64.25139
 21
50.664063
  0
LINE
  8
型材断面
  6
CONTINUOUS
 62
    14
 10
-64.25139
 20
50.664063
 11
-60.851393
 21
50.664063
  0
LINE
  8
型材断面
  6
CONTINUOUS
 62
    14
 10
-60.851393
 20
50.664063
 11
-60.851393
 21
49.664065
  0
LINE
  8
型材断面
  6
CONTINUOUS
 62
    14
 10
-57.351397
 20
49.664065
 11
-60.851393
 21
49.664065
  0
LINE
  8
型材断面
  6
CONTINUOUS
 62
    14
 10
-56.551387
 20
48.564085
 11
-58.574985
 21
48.164065
  0
LINE
  8
型材断面
  6
CONTINUOUS
 62
    14
 10
-58.574985
 20
48.164065
 11
-60.851393
 21
48.164065
  0
LINE
  8
型材断面
  6
CONTINUOUS
 62
    14
 10
-56.551387
 20
42.764057
 11
-58.574963
 21
43.16407
  0
LINE
  8
型材断面
  6
CONTINUOUS
 62
    14
 10
-58.574963
 20
43.16407
 11
-60.851393
 21
43.16407
  0
LINE
  8
型材断面
  6
CONTINUOUS
 62
    14
 10
-60.851393
 20
48.164065
 11
-60.851393
 21
43.16407
  0
LINE
  8
型材断面
  6
CONTINUOUS
 62
    14
 10
-34.251397
 20
-35.535883
 11
-60.851393
 21
-35.535883
  0
LINE
  8
型材断面
  6
CONTINUOUS
 62
    14
 10
-60.851393
 20
-35.535883
 11
-60.851393
 21
-36.017645
  0
LINE
  8
型材断面
  6
CONTINUOUS
 62
    14
 10
-118.851397
 20
-40.412007
 11
-60.851393
 21
-36.017645
  0
LINE
  8
型材断面
  6
CONTINUOUS
 62
    14
 10
-34.251397
 20
-51.835933
 11
-46.451625
 21
-51.835933
  0
ARC
  8
型材断面
  6
CONTINUOUS
 62
    14
 10
-46.451626
 20
-52.335935
 40
0.5
 50
90.0
 51
180.0
  0
LINE
  8
型材断面
  6
CONTINUOUS
 62
    14
 10
-46.951627
 20
-52.335935
 11
-46.951627
 21
-53.335933
  0
LINE
  8
型材断面
  6
CONTINUOUS
 62
    14
 10
-43.251638
 20
-53.835935
 11
-46.451625
 21
-53.835935
  0
ARC
  8
型材断面
  6
CONTINUOUS
 62
    14
 10
-46.451626
 20
-53.335938
 40
0.5
 50
180.0
 51
270.0
  0
LINE
  8
型材断面
  6
CONTINUOUS
 62
    14
 10
-105.551648
 20
-51.835805
 11
-94.451617
 21
-51.835805
  0
ARC
  8
型材断面
  6
CONTINUOUS
 62
    14
 10
-94.451621
 20
-52.335808
 40
0.5
 50
0.0
 51
90.0
  0
LINE
  8
型材断面
  6
CONTINUOUS
 62
    14
 10
-93.951623
 20
-52.335808
 11
-93.951623
 21
-53.335805
  0
LINE
  8
型材断面
  6
CONTINUOUS
 62
    14
 10
-98.75178
 20
-53.835808
 11
-94.451617
 21
-53.835808
  0
ARC
  8
型材断面
  6
CONTINUOUS
 62
    14
 10
-94.451621
 20
-53.33581
 40
0.5
 50
-90.0
 51
0.0
  0
ENDBLK
  0
BLOCK
  2
*GRP_0003
 70
    65
 10
0.0
 20
0.0
  0
LINE
  8
型材断面
  6
CONTINUOUS
 62
    14
 10
-51.551385
 20
50.664077
 11
-40.85136
 21
50.664077
  0
LINE
  8
型材断面
  6
CONTINUOUS
 62
    14
 10
-40.85136
 20
50.664077
 11
-40.55136
 21
50.364077
  0
LINE
  8
型材断面
  6
CONTINUOUS
 62
    14
 10
-40.55136
 20
50.364077
 11
-40.25136
 21
50.664077
  0
LINE
  8
型材断面
  6
CONTINUOUS
 62
    14
 10
-40.25136
 20
50.664077
 11
-34.351395
 21
50.664077
  0
LINE
  8
型材断面
  6
CONTINUOUS
 62
    14
 10
-34.351395
 20
50.664077
 11
-34.051395
 21
50.364077
  0
LINE
  8
型材断面
  6
CONTINUOUS
 62
    14
 10
-34.051395
 20
50.364077
 11
-33.751395
 21
50.664077
  0
LINE
  8
型材断面
  6
CONTINUOUS
 62
    14
 10
-33.751395
 20
50.664077
 11
-28.551382
 21
50.664077
  0
LINE
  8
型材断面
  6
CONTINUOUS
 62
    14
 10
-28.551382
 20
50.664077
 11
-28.551382
 21
48.16408
  0
LINE
  8
型材断面
  6
CONTINUOUS
 62
    14
 10
-28.551382
 20
46.66408
 11
-28.551382
 21
30.664075
  0
LINE
  8
型材断面
  6
CONTINUOUS
 62
    14
 10
-28.551382
 20
30.664075
 11
-21.351383
 21
30.664075
  0
LINE
  8
型材断面
  6
CONTINUOUS
 62
    14
 10
-21.351383
 20
30.664075
 11
-21.351383
 21
32.964077
  0
LINE
  8
型材断面
  6
CONTINUOUS
 62
    14
 10
-19.851383
 20
30.664075
 11
-8.751383
 21
30.664075
  0
LINE
  8
型材断面
  6
CONTINUOUS
 62
    14
 10
-7.551382
 20
28.66408
 11
-28.551382
 21
28.66408
  0
LINE
  8
型材断面
  6
CONTINUOUS
 62
    14
 10
-28.551382
 20
28.66408
 11
-28.551382
 21
6.964083
  0
LINE
  8
型材断面
  6
CONTINUOUS
 62
    14
 10
-28.551382
 20
6.964083
 11
-28.851383
 21
6.664083
  0
LINE
  8
型材断面
  6
CONTINUOUS
 62
    14
 10
-28.851383
 20
6.664083
 11
-28.551382
 21
6.364083
  0
LINE
  8
型材断面
  6
CONTINUOUS
 62
    14
 10
-28.551382
 20
6.364083
 11
-28.551382
 21
-9.83582
  0
LINE
  8
型材断面
  6
CONTINUOUS
 62
    14
 10
-28.551382
 20
-9.83582
 11
7.948642
 21
-9.83582
  0
LINE
  8
型材断面
  6
CONTINUOUS
 62
    14
 10
7.948642
 20
-9.83582
 11
7.948642
 21
-2.33582
  0
LINE
  8
型材断面
  6
CONTINUOUS
 62
    14
 10
7.948642
 20
-2.33582
 11
9.448642
 21
-2.33582
  0
LINE
  8
型材断面
  6
CONTINUOUS
 62
    14
 10
9.448642
 20
-2.33582
 11
9.448642
 21
-17.835875
  0
LINE
  8
型材断面
  6
CONTINUOUS
 62
    14
 10
9.448642
 20
-17.835875
 11
3.448642
 21
-17.83586
  0
LINE
  8
型材断面
  6
CONTINUOUS
 62
    14
 10
3.448642
 20
-17.83586
 11
3.148642
 21
-17.53586
  0
LINE
  8
型材断面
  6
CONTINUOUS
 62
    14
 10
3.148642
 20
-17.53586
 11
2.848642
 21
-17.83586
  0
LINE
  8
型材断面
  6
CONTINUOUS
 62
    14
 10
2.848642
 20
-17.83586
 11
-2.55135
 21
-17.835852
  0
LINE
  8
型材断面
  6
CONTINUOUS
 62
    14
 10
-2.55135
 20
-17.835852
 11
-2.55135
 21
-16.335875
  0
LINE
  8
型材断面
  6
CONTINUOUS
 62
    14
 10
-2.55135
 20
-16.335875
 11
7.94865
 21
-16.335822
  0
LINE
  8
型材断面
  6
CONTINUOUS
 62
    14
 10
7.94865
 20
-16.335822
 11
7.94865
 21
-14.03585
  0
LINE
  8
型材断面
  6
CONTINUOUS
 62
    14
 10
7.94865
 20
-14.03585
 11
6.948645
 21
-14.03585
  0
LINE
  8
型材断面
  6
CONTINUOUS
 62
    14
 10
6.948645
 20
-14.03585
 11
6.948645
 21
-13.035845
  0
LINE
  8
型材断面
  6
CONTINUOUS
 62
    14
 10
6.948645
 20
-13.035845
 11
7.94865
 21
-13.035845
  0
LINE
  8
型材断面
  6
CONTINUOUS
 62
    14
 10
7.94865
 20
-13.035845
 11
7.94865
 21
-11.33582
  0
LINE
  8
型材断面
  6
CONTINUOUS
 62
    14
 10
7.94865
 20
-11.33582
 11
-28.551382
 21
-11.33582
  0
LINE
  8
型材断面
  6
CONTINUOUS
 62
    14
 10
-28.551382
 20
-11.33582
 11
-28.551382
 21
-13.03589
  0
LINE
  8
型材断面
  6
CONTINUOUS
 62
    14
 10
-28.551382
 20
-13.03589
 11
-27.551385
 21
-13.03589
  0
LINE
  8
型材断面
  6
CONTINUOUS
 62
    14
 10
-27.551385
 20
-13.03589
 11
-27.551385
 21
-14.035887
  0
LINE
  8
型材断面
  6
CONTINUOUS
 62
    14
 10
-27.551385
 20
-14.035887
 11
-28.551382
 21
-14.035887
  0
LINE
  8
型材断面
  6
CONTINUOUS
 62
    14
 10
-28.551382
 20
-14.035887
 11
-28.551382
 21
-16.335868
  0
LINE
  8
型材断面
  6
CONTINUOUS
 62
    14
 10
-28.551382
 20
-16.335868
 11
-19.051372
 21
-16.335868
  0
LINE
  8
型材断面
  6
CONTINUOUS
 62
    14
 10
-19.051372
 20
-16.335868
 11
-19.051372
 21
-17.835815
  0
LINE
  8
型材断面
  6
CONTINUOUS
 62
    14
 10
-19.051372
 20
-17.835815
 11
-23.751375
 21
-17.835815
  0
LINE
  8
型材断面
  6
CONTINUOUS
 62
    14
 10
-23.751375
 20
-17.835815
 11
-24.051375
 21
-17.535815
  0
LINE
  8
型材断面
  6
CONTINUOUS
 62
    14
 10
-24.051375
 20
-17.535815
 11
-24.351375
 21
-17.835815
  0
LINE
  8
型材断面
  6
CONTINUOUS
 62
    14
 10
-24.351375
 20
-17.835815
 11
-30.051382
 21
-17.835815
  0
LINE
  8
型材断面
  6
CONTINUOUS
 62
    14
 10
-30.051382
 20
-17.835815
 11
-30.051382
 21
-11.33582
  0
LINE
  8
型材断面
  6
CONTINUOUS
 62
    14
 10
-30.051382
 20
-11.33582
 11
-33.751395
 21
-11.33582
  0
LINE
  8
型材断面
  6
CONTINUOUS
 62
    14
 10
-33.751395
 20
-11.33582
 11
-34.051395
 21
-11.03582
  0
LINE
  8
型材断面
  6
CONTINUOUS
 62
    14
 10
-34.051395
 20
-11.03582
 11
-34.351395
 21
-11.33582
  0
LINE
  8
型材断面
  6
CONTINUOUS
 62
    14
 10
-34.351395
 20
-11.33582
 11
-52.05138
 21
-11.33582
  0
LINE
  8
型材断面
  6
CONTINUOUS
 62
    14
 10
-52.05138
 20
-11.33582
 11
-52.05138
 21
-13.335822
  0
LINE
  8
型材断面
  6
CONTINUOUS
 62
    14
 10
-52.05138
 20
-13.335822
 11
-52.85133
 21
-13.335822
  0
LINE
  8
型材断面
  6
CONTINUOUS
 62
    14
 10
-52.85133
 20
-13.335822
 11
-52.85133
 21
-9.83582
  0
LINE
  8
型材断面
  6
CONTINUOUS
 62
    14
 10
-52.85133
 20
-9.83582
 11
-51.551385
 21
-9.83582
  0
LINE
  8
型材断面
  6
CONTINUOUS
 62
    14
 10
-51.551385
 20
-9.83582
 11
-51.551385
 21
-6.135822
  0
LINE
  8
型材断面
  6
CONTINUOUS
 62
    14
 10
-51.551385
 20
-6.135822
 11
-51.251385
 21
-5.835822
  0
LINE
  8
型材断面
  6
CONTINUOUS
 62
    14
 10
-51.251385
 20
-5.835822
 11
-51.551385
 21
-5.535822
  0
LINE
  8
型材断面
  6
CONTINUOUS
 62
    14
 10
-51.551385
 20
-5.535822
 11
-51.551385
 21
11.164105
  0
LINE
  8
型材断面
  6
CONTINUOUS
 62
    14
 10
-51.551385
 20
11.164105
 11
-51.251385
 21
11.464105
  0
LINE
  8
型材断面
  6
CONTINUOUS
 62
    14
 10
-51.251385
 20
11.464105
 11
-51.551385
 21
11.764105
  0
LINE
  8
型材断面
  6
CONTINUOUS
 62
    14
 10
-51.551385
 20
45.364083
 11
-51.251385
 21
45.664083
  0
LINE
  8
型材断面
  6
CONTINUOUS
 62
    14
 10
-51.251385
 20
45.664083
 11
-51.551385
 21
45.964083
  0
LINE
  8
型材断面
  6
CONTINUOUS
 62
    14
 10
-51.551385
 20
50.664077
 11
-51.551385
 21
45.964083
  0
LINE
  8
型材断面
  6
CONTINUOUS
 62
    14
 10
-36.05136
 20
49.164077
 11
-30.051382
 21
49.164077
  0
LINE
  8
型材断面
  6
CONTINUOUS
 62
    14
 10
-30.051382
 20
49.164077
 11
-30.051382
 21
-9.83582
  0
LINE
  8
型材断面
  6
CONTINUOUS
 62
    14
 10
-47.051272
 20
-9.83582
 11
-30.051382
 21
-9.83582
  0
LINE
  8
型材断面
  6
CONTINUOUS
 62
    14
 10
-41.298458
 20
-9.83582
 11
-50.051385
 21
-9.83582
  0
LINE
  8
型材断面
  6
CONTINUOUS
 62
    14
 10
-50.051385
 20
49.164077
 11
-50.051385
 21
-9.83582
  0
LINE
  8
型材断面
  6
CONTINUOUS
 62
    14
 10
-37.051357
 20
46.664072
 11
-36.05136
 21
49.164077
  0
LINE
  8
型材断面
  6
CONTINUOUS
 62
    14
 10
-37.051357
 20
46.664072
 11
-44.051355
 21
46.664072
  0
LINE
  8
型材断面
  6
CONTINUOUS
 62
    14
 10
-44.051355
 20
46.664072
 11
-45.05136
 21
49.164077
  0
LINE
  8
型材断面
  6
CONTINUOUS
 62
    14
 10
-50.051385
 20
49.164077
 11
-45.05136
 21
49.164077
  0
LINE
  8
型材断面
  6
CONTINUOUS
 62
    14
 10
-28.551382
 20
48.16408
 11
-26.351385
 21
48.16408
  0
LINE
  8
型材断面
  6
CONTINUOUS
 62
    14
 10
-26.351385
 20
48.16408
 11
-26.351385
 21
46.66408
  0
LINE
  8
型材断面
  6
CONTINUOUS
 62
    14
 10
-28.551382
 20
46.66408
 11
-26.351385
 21
46.66408
  0
LINE
  8
型材断面
  6
CONTINUOUS
 62
    14
 10
-23.851387
 20
34.464077
 11
-23.851387
 21
32.964077
  0
LINE
  8
型材断面
  6
CONTINUOUS
 62
    14
 10
-21.351383
 20
32.964077
 11
-23.851387
 21
32.964077
  0
LINE
  8
型材断面
  6
CONTINUOUS
 62
    14
 10
-23.851387
 20
34.464077
 11
-19.851383
 21
34.464077
  0
LINE
  8
型材断面
  6
CONTINUOUS
 62
    14
 10
-19.851383
 20
30.664075
 11
-19.851383
 21
34.464077
  0
LINE
  8
型材断面
  6
CONTINUOUS
 62
    14
 10
-8.751383
 20
30.664075
 11
-8.751383
 21
32.664077
  0
LINE
  8
型材断面
  6
CONTINUOUS
 62
    14
 10
-8.751383
 20
32.664077
 11
-7.551382
 21
32.664077
  0
LINE
  8
型材断面
  6
CONTINUOUS
 62
    14
 10
-7.551382
 20
28.66408
 11
-7.551382
 21
32.664077
  0
LINE
  8
型材断面
  6
CONTINUOUS
 62
    14
 10
-51.551385
 20
24.364083
 11
-51.251385
 21
24.664083
  0
LINE
  8
型材断面
  6
CONTINUOUS
 62
    14
 10
-51.251385
 20
24.664083
 11
-51.551385
 21
24.964083
  0
LINE
  8
型材断面
  6
CONTINUOUS
 62
    14
 10
-51.551385
 20
45.364083
 11
-51.551385
 21
24.964083
  0
LINE
  8
型材断面
  6
CONTINUOUS
 62
    14
 10
-51.551385
 20
11.764105
 11
-51.551385
 21
24.364083
  0
ENDBLK
  0
BLOCK
  2
*GRP_0004
 70
    65
 10
0.0
 20
0.0
  0
ARC
  8
型材断面
  6
CONTINUOUS
 62
    47
 10
-12.751379
 20
32.664104
 40
1.0
 50
359.999795
 51
539.999795
  0
ARC
  8
型材断面
  6
CONTINUOUS
 62
    47
 10
-14.751383
 20
31.664111
 40
1.0
 50
269.999795
 51
359.999795
  0
ARC
  8
型材断面
  6
CONTINUOUS
 62
    47
 10
-10.751383
 20
31.664096
 40
1.0
 50
179.999795
 51
269.999795
  0
LINE
  8
型材断面
  6
CONTINUOUS
 62
    47
 10
-17.751368
 20
35.164105
 11
-7.75137
 21
35.164068
  0
LINE
  8
型材断面
  6
CONTINUOUS
 62
    47
 10
-11.751383
 20
31.66408
 11
-11.751383
 21
32.664085
  0
LINE
  8
型材断面
  6
CONTINUOUS
 62
    47
 10
-13.751385
 20
31.664087
 11
-13.751378
 21
32.664085
  0
LINE
  8
型材断面
  6
CONTINUOUS
 62
    47
 10
-19.251382
 20
33.664105
 11
-15.251378
 21
33.66409
  0
LINE
  8
型材断面
  6
CONTINUOUS
 62
    47
 10
-10.251383
 20
33.664075
 11
-6.251378
 21
33.66406
  0
LINE
  8
型材断面
  6
CONTINUOUS
 62
    47
 10
-15.251378
 20
33.66409
 11
-15.251385
 21
32.16409
  0
LINE
  8
型材断面
  6
CONTINUOUS
 62
    47
 10
-16.751385
 20
32.164098
 11
-15.251385
 21
32.16409
  0
LINE
  8
型材断面
  6
CONTINUOUS
 62
    47
 10
-8.751383
 20
32.164068
 11
-10.251383
 21
32.164075
  0
LINE
  8
型材断面
  6
CONTINUOUS
 62
    47
 10
-10.251383
 20
33.664075
 11
-10.251383
 21
32.164075
  0
LINE
  8
型材断面
  6
CONTINUOUS
 62
    47
 10
-6.251378
 20
33.66406
 11
-6.251355
 21
40.164063
  0
LINE
  8
型材断面
  6
CONTINUOUS
 62
    47
 10
-10.25136
 20
38.664077
 11
-7.751362
 21
38.66407
  0
LINE
  8
型材断面
  6
CONTINUOUS
 62
    47
 10
-15.251362
 20
38.664092
 11
-17.75136
 21
38.6641
  0
LINE
  8
型材断面
  6
CONTINUOUS
 62
    47
 10
-19.251353
 20
40.164107
 11
-15.851355
 21
40.1641
  0
LINE
  8
型材断面
  6
CONTINUOUS
 62
    47
 10
-15.251355
 20
39.564092
 11
-15.251362
 21
38.664092
  0
LINE
  8
型材断面
  6
CONTINUOUS
 62
    47
 10
-15.851355
 20
40.1641
 11
-15.251355
 21
39.564092
  0
LINE
  8
型材断面
  6
CONTINUOUS
 62
    47
 10
-10.251353
 20
39.564077
 11
-10.25136
 21
38.664077
  0
LINE
  8
型材断面
  6
CONTINUOUS
 62
    47
 10
-9.651353
 20
40.16407
 11
-6.251355
 21
40.164063
  0
LINE
  8
型材断面
  6
CONTINUOUS
 62
    47
 10
-10.251353
 20
39.564077
 11
-9.651353
 21
40.16407
  0
LINE
  8
型材断面
  6
CONTINUOUS
 62
    47
 10
-7.75137
 20
35.164068
 11
-7.751362
 21
38.66407
  0
LINE
  8
型材断面
  6
CONTINUOUS
 62
    47
 10
-17.751368
 20
35.164105
 11
-17.75136
 21
38.6641
  0
LINE
  8
型材断面
  6
CONTINUOUS
 62
    47
 10
-19.251382
 20
33.664105
 11
-19.251353
 21
40.164107
  0
LINE
  8
型材断面
  6
CONTINUOUS
 62
    47
 10
-8.751383
 20
31.16407
 11
-8.751383
 21
32.164068
  0
LINE
  8
型材断面
  6
CONTINUOUS
 62
    47
 10
-10.751393
 20
30.664075
 11
-9.251393
 21
30.664075
  0
LINE
  8
型材断面
  6
CONTINUOUS
 62
    47
 10
-8.751383
 20
31.16407
 11
-9.251393
 21
30.664075
  0
LINE
  8
型材断面
  6
CONTINUOUS
 62
    47
 10
-16.751385
 20
31.1641
 11
-16.751385
 21
32.164098
  0
LINE
  8
型材断面
  6
CONTINUOUS
 62
    47
 10
-16.25139
 20
30.664098
 11
-14.75139
 21
30.66409
  0
LINE
  8
型材断面
  6
CONTINUOUS
 62
    47
 10
-16.751385
 20
31.1641
 11
-16.25139
 21
30.664098
  0
ENDBLK
  0
BLOCK
  2
*GRP_0005
 70
    65
 10
0.0
 20
0.0
  0
POLYLINE
  8
ガラス
  6
CONTINUOUS
 66
     1
 70
     4
  0
VERTEX
  8
ガラス
 10
-6.875
 20
27.175
 70
     8
  0
VERTEX
  8
ガラス
 10
-6.85
 20
27.25
 70
     8
  0
VERTEX
  8
ガラス
 10
-6.825
 20
27.3
 70
     8
  0
VERTEX
  8
ガラス
 10
-6.8
 20
27.375
 70
     8
  0
VERTEX
  8
ガラス
 10
-6.8
 20
27.425
 70
     8
  0
VERTEX
  8
ガラス
 10
-6.775
 20
27.5
 70
     8
  0
VERTEX
  8
ガラス
 10
-6.75
 20
27.55
 70
     8
  0
VERTEX
  8
ガラス
 10
-6.725
 20
27.625
 70
     8
  0
VERTEX
  8
ガラス
 10
-6.725
 20
27.675
 70
     8
  0
VERTEX
  8
ガラス
 10
-6.7
 20
27.75
 70
     8
  0
VERTEX
  8
ガラス
 10
-6.675
 20
27.8
 70
     8
  0
VERTEX
  8
ガラス
 10
-6.65
 20
27.85
 70
     8
  0
VERTEX
  8
ガラス
 10
-6.625
 20
27.9
 70
     8
  0
VERTEX
  8
ガラス
 10
-6.6
 20
27.975
 70
     8
  0
VERTEX
  8
ガラス
 10
-6.575
 20
28.025
 70
     8
  0
VERTEX
  8
ガラス
 10
-6.55
 20
28.075
 70
     8
  0
VERTEX
  8
ガラス
 10
-6.5
 20
28.125
 70
     8
  0
VERTEX
  8
ガラス
 10
-6.475
 20
28.175
 70
     8
  0
VERTEX
  8
ガラス
 10
-6.45
 20
28.225
 70
     8
  0
VERTEX
  8
ガラス
 10
-6.4
 20
28.275
 70
     8
  0
VERTEX
  8
ガラス
 10
-6.375
 20
28.3
 70
     8
  0
VERTEX
  8
ガラス
 10
-6.325
 20
28.35
 70
     8
  0
VERTEX
  8
ガラス
 10
-6.3
 20
28.4
 70
     8
  0
VERTEX
  8
ガラス
 10
-6.25
 20
28.425
 70
     8
  0
VERTEX
  8
ガラス
 10
-6.2
 20
28.475
 70
     8
  0
VERTEX
  8
ガラス
 10
-6.15
 20
28.5
 70
     8
  0
VERTEX
  8
ガラス
 10
-6.1
 20
28.525
 70
     8
  0
VERTEX
  8
ガラス
 10
-6.05
 20
28.575
 70
     8
  0
VERTEX
  8
ガラス
 10
-6.0
 20
28.6
 70
     8
  0
VERTEX
  8
ガラス
 10
-5.95
 20
28.625
 70
     8
  0
VERTEX
  8
ガラス
 10
-5.875
 20
28.65
 70
     8
  0
VERTEX
  8
ガラス
 10
-5.825
 20
28.675
 70
     8
  0
VERTEX
  8
ガラス
 10
-5.775
 20
28.7
 70
     8
  0
VERTEX
  8
ガラス
 10
-5.725
 20
28.725
 70
     8
  0
VERTEX
  8
ガラス
 10
-5.65
 20
28.75
 70
     8
  0
VERTEX
  8
ガラス
 10
-5.6
 20
28.775
 70
     8
  0
VERTEX
  8
ガラス
 10
-5.525
 20
28.8
 70
     8
  0
VERTEX
  8
ガラス
 10
-5.475
 20
28.8
 70
     8
  0
VERTEX
  8
ガラス
 10
-5.425
 20
28.825
 70
     8
  0
VERTEX
  8
ガラス
 10
-5.35
 20
28.85
 70
     8
  0
VERTEX
  8
ガラス
 10
-5.3
 20
28.875
 70
     8
  0
SEQEND
  0
POLYLINE
  8
ガラス
  6
CONTINUOUS
 66
     1
 70
     4
  0
VERTEX
  8
ガラス
 10
-5.3
 20
28.875
 70
     8
  0
VERTEX
  8
ガラス
 10
-5.3
 20
28.825
 70
     8
  0
VERTEX
  8
ガラス
 10
-5.325
 20
28.8
 70
     8
  0
VERTEX
  8
ガラス
 10
-5.325
 20
28.75
 70
     8
  0
VERTEX
  8
ガラス
 10
-5.325
 20
28.7
 70
     8
  0
VERTEX
  8
ガラス
 10
-5.35
 20
28.675
 70
     8
  0
VERTEX
  8
ガラス
 10
-5.35
 20
28.625
 70
     8
  0
VERTEX
  8
ガラス
 10
-5.375
 20
28.575
 70
     8
  0
VERTEX
  8
ガラス
 10
-5.375
 20
28.55
 70
     8
  0
VERTEX
  8
ガラス
 10
-5.4
 20
28.5
 70
     8
  0
VERTEX
  8
ガラス
 10
-5.4
 20
28.45
 70
     8
  0
VERTEX
  8
ガラス
 10
-5.425
 20
28.425
 70
     8
  0
VERTEX
  8
ガラス
 10
-5.425
 20
28.375
 70
     8
  0
VERTEX
  8
ガラス
 10
-5.425
 20
28.325
 70
     8
  0
VERTEX
  8
ガラス
 10
-5.45
 20
28.3
 70
     8
  0
VERTEX
  8
ガラス
 10
-5.45
 20
28.25
 70
     8
  0
VERTEX
  8
ガラス
 10
-5.45
 20
28.2
 70
     8
  0
VERTEX
  8
ガラス
 10
-5.475
 20
28.175
 70
     8
  0
VERTEX
  8
ガラス
 10
-5.475
 20
28.125
 70
     8
  0
VERTEX
  8
ガラス
 10
-5.475
 20
28.075
 70
     8
  0
VERTEX
  8
ガラス
 10
-5.5
 20
28.05
 70
     8
  0
VERTEX
  8
ガラス
 10
-5.5
 20
28.0
 70
     8
  0
VERTEX
  8
ガラス
 10
-5.5
 20
27.95
 70
     8
  0
VERTEX
  8
ガラス
 10
-5.5
 20
27.925
 70
     8
  0
VERTEX
  8
ガラス
 10
-5.5
 20
27.875
 70
     8
  0
VERTEX
  8
ガラス
 10
-5.525
 20
27.825
 70
     8
  0
VERTEX
  8
ガラス
 10
-5.525
 20
27.775
 70
     8
  0
VERTEX
  8
ガラス
 10
-5.525
 20
27.75
 70
     8
  0
VERTEX
  8
ガラス
 10
-5.525
 20
27.7
 70
     8
  0
VERTEX
  8
ガラス
 10
-5.525
 20
27.65
 70
     8
  0
VERTEX
  8
ガラス
 10
-5.525
 20
27.625
 70
     8
  0
VERTEX
  8
ガラス
 10
-5.525
 20
27.575
 70
     8
  0
VERTEX
  8
ガラス
 10
-5.525
 20
27.525
 70
     8
  0
VERTEX
  8
ガラス
 10
-5.525
 20
27.475
 70
     8
  0
VERTEX
  8
ガラス
 10
-5.525
 20
27.45
 70
     8
  0
VERTEX
  8
ガラス
 10
-5.525
 20
27.4
 70
     8
  0
VERTEX
  8
ガラス
 10
-5.525
 20
27.35
 70
     8
  0
VERTEX
  8
ガラス
 10
-5.525
 20
27.325
 70
     8
  0
VERTEX
  8
ガラス
 10
-5.525
 20
27.275
 70
     8
  0
VERTEX
  8
ガラス
 10
-5.525
 20
27.225
 70
     8
  0
VERTEX
  8
ガラス
 10
-5.525
 20
27.175
 70
     8
  0
SEQEND
  0
ARC
  8
ガラス
  6
CONTINUOUS
 10
-6.185105
 20
27.196192
 40
0.668594
 50
180.0
 51
360.0
  0
ENDBLK
  0
BLOCK
  2
*GRP_0006
 70
    65
 10
0.0
 20
0.0
  0
POLYLINE
  8
ガラス
  6
CONTINUOUS
 66
     1
 70
     4
  0
VERTEX
  8
ガラス
 10
-6.875
 20
15.45
 70
     8
  0
VERTEX
  8
ガラス
 10
-6.85
 20
15.525
 70
     8
  0
VERTEX
  8
ガラス
 10
-6.825
 20
15.575
 70
     8
  0
VERTEX
  8
ガラス
 10
-6.8
 20
15.65
 70
     8
  0
VERTEX
  8
ガラス
 10
-6.8
 20
15.7
 70
     8
  0
VERTEX
  8
ガラス
 10
-6.775
 20
15.775
 70
     8
  0
VERTEX
  8
ガラス
 10
-6.75
 20
15.825
 70
     8
  0
VERTEX
  8
ガラス
 10
-6.725
 20
15.9
 70
     8
  0
VERTEX
  8
ガラス
 10
-6.725
 20
15.95
 70
     8
  0
VERTEX
  8
ガラス
 10
-6.7
 20
16.025
 70
     8
  0
VERTEX
  8
ガラス
 10
-6.675
 20
16.075
 70
     8
  0
VERTEX
  8
ガラス
 10
-6.65
 20
16.125
 70
     8
  0
VERTEX
  8
ガラス
 10
-6.625
 20
16.175
 70
     8
  0
VERTEX
  8
ガラス
 10
-6.6
 20
16.25
 70
     8
  0
VERTEX
  8
ガラス
 10
-6.575
 20
16.3
 70
     8
  0
VERTEX
  8
ガラス
 10
-6.55
 20
16.35
 70
     8
  0
VERTEX
  8
ガラス
 10
-6.5
 20
16.4
 70
     8
  0
VERTEX
  8
ガラス
 10
-6.475
 20
16.45
 70
     8
  0
VERTEX
  8
ガラス
 10
-6.45
 20
16.5
 70
     8
  0
VERTEX
  8
ガラス
 10
-6.4
 20
16.55
 70
     8
  0
VERTEX
  8
ガラス
 10
-6.375
 20
16.575
 70
     8
  0
VERTEX
  8
ガラス
 10
-6.325
 20
16.625
 70
     8
  0
VERTEX
  8
ガラス
 10
-6.3
 20
16.675
 70
     8
  0
VERTEX
  8
ガラス
 10
-6.25
 20
16.7
 70
     8
  0
VERTEX
  8
ガラス
 10
-6.2
 20
16.75
 70
     8
  0
VERTEX
  8
ガラス
 10
-6.15
 20
16.775
 70
     8
  0
VERTEX
  8
ガラス
 10
-6.1
 20
16.8
 70
     8
  0
VERTEX
  8
ガラス
 10
-6.05
 20
16.85
 70
     8
  0
VERTEX
  8
ガラス
 10
-6.0
 20
16.875
 70
     8
  0
VERTEX
  8
ガラス
 10
-5.95
 20
16.9
 70
     8
  0
VERTEX
  8
ガラス
 10
-5.875
 20
16.925
 70
     8
  0
VERTEX
  8
ガラス
 10
-5.825
 20
16.95
 70
     8
  0
VERTEX
  8
ガラス
 10
-5.775
 20
16.975
 70
     8
  0
VERTEX
  8
ガラス
 10
-5.725
 20
17.0
 70
     8
  0
VERTEX
  8
ガラス
 10
-5.65
 20
17.025
 70
     8
  0
VERTEX
  8
ガラス
 10
-5.6
 20
17.05
 70
     8
  0
VERTEX
  8
ガラス
 10
-5.525
 20
17.075
 70
     8
  0
VERTEX
  8
ガラス
 10
-5.475
 20
17.1
 70
     8
  0
VERTEX
  8
ガラス
 10
-5.425
 20
17.1
 70
     8
  0
VERTEX
  8
ガラス
 10
-5.35
 20
17.125
 70
     8
  0
VERTEX
  8
ガラス
 10
-5.3
 20
17.15
 70
     8
  0
SEQEND
  0
POLYLINE
  8
ガラス
  6
CONTINUOUS
 66
     1
 70
     4
  0
VERTEX
  8
ガラス
 10
-5.3
 20
17.15
 70
     8
  0
VERTEX
  8
ガラス
 10
-5.3
 20
17.1
 70
     8
  0
VERTEX
  8
ガラス
 10
-5.325
 20
17.075
 70
     8
  0
VERTEX
  8
ガラス
 10
-5.325
 20
17.025
 70
     8
  0
VERTEX
  8
ガラス
 10
-5.325
 20
16.975
 70
     8
  0
VERTEX
  8
ガラス
 10
-5.35
 20
16.95
 70
     8
  0
VERTEX
  8
ガラス
 10
-5.35
 20
16.9
 70
     8
  0
VERTEX
  8
ガラス
 10
-5.375
 20
16.85
 70
     8
  0
VERTEX
  8
ガラス
 10
-5.375
 20
16.825
 70
     8
  0
VERTEX
  8
ガラス
 10
-5.4
 20
16.775
 70
     8
  0
VERTEX
  8
ガラス
 10
-5.4
 20
16.725
 70
     8
  0
VERTEX
  8
ガラス
 10
-5.425
 20
16.7
 70
     8
  0
VERTEX
  8
ガラス
 10
-5.425
 20
16.65
 70
     8
  0
VERTEX
  8
ガラス
 10
-5.425
 20
16.6
 70
     8
  0
VERTEX
  8
ガラス
 10
-5.45
 20
16.575
 70
     8
  0
VERTEX
  8
ガラス
 10
-5.45
 20
16.525
 70
     8
  0
VERTEX
  8
ガラス
 10
-5.45
 20
16.475
 70
     8
  0
VERTEX
  8
ガラス
 10
-5.475
 20
16.45
 70
     8
  0
VERTEX
  8
ガラス
 10
-5.475
 20
16.4
 70
     8
  0
VERTEX
  8
ガラス
 10
-5.475
 20
16.35
 70
     8
  0
VERTEX
  8
ガラス
 10
-5.5
 20
16.325
 70
     8
  0
VERTEX
  8
ガラス
 10
-5.5
 20
16.275
 70
     8
  0
VERTEX
  8
ガラス
 10
-5.5
 20
16.225
 70
     8
  0
VERTEX
  8
ガラス
 10
-5.5
 20
16.2
 70
     8
  0
VERTEX
  8
ガラス
 10
-5.5
 20
16.15
 70
     8
  0
VERTEX
  8
ガラス
 10
-5.525
 20
16.1
 70
     8
  0
VERTEX
  8
ガラス
 10
-5.525
 20
16.05
 70
     8
  0
VERTEX
  8
ガラス
 10
-5.525
 20
16.025
 70
     8
  0
VERTEX
  8
ガラス
 10
-5.525
 20
15.975
 70
     8
  0
VERTEX
  8
ガラス
 10
-5.525
 20
15.925
 70
     8
  0
VERTEX
  8
ガラス
 10
-5.525
 20
15.9
 70
     8
  0
VERTEX
  8
ガラス
 10
-5.525
 20
15.85
 70
     8
  0
VERTEX
  8
ガラス
 10
-5.525
 20
15.8
 70
     8
  0
VERTEX
  8
ガラス
 10
-5.525
 20
15.75
 70
     8
  0
VERTEX
  8
ガラス
 10
-5.525
 20
15.725
 70
     8
  0
VERTEX
  8
ガラス
 10
-5.525
 20
15.675
 70
     8
  0
VERTEX
  8
ガラス
 10
-5.525
 20
15.625
 70
     8
  0
VERTEX
  8
ガラス
 10
-5.525
 20
15.6
 70
     8
  0
VERTEX
  8
ガラス
 10
-5.525
 20
15.55
 70
     8
  0
VERTEX
  8
ガラス
 10
-5.525
 20
15.5
 70
     8
  0
VERTEX
  8
ガラス
 10
-5.525
 20
15.45
 70
     8
  0
SEQEND
  0
ARC
  8
ガラス
  6
CONTINUOUS
 10
-6.185105
 20
15.471916
 40
0.668594
 50
180.0
 51
360.0
  0
ENDBLK
  0
BLOCK
  2
*GRP_0007
 70
    65
 10
0.0
 20
0.0
  0
POLYLINE
  8
ガラス
  6
CONTINUOUS
 66
     1
 70
     4
  0
VERTEX
  8
ガラス
 10
-6.875
 20
-0.225
 70
     8
  0
VERTEX
  8
ガラス
 10
-6.85
 20
-0.175
 70
     8
  0
VERTEX
  8
ガラス
 10
-6.825
 20
-0.1
 70
     8
  0
VERTEX
  8
ガラス
 10
-6.8
 20
-0.05
 70
     8
  0
VERTEX
  8
ガラス
 10
-6.8
 20
0.025
 70
     8
  0
VERTEX
  8
ガラス
 10
-6.775
 20
0.075
 70
     8
  0
VERTEX
  8
ガラス
 10
-6.75
 20
0.15
 70
     8
  0
VERTEX
  8
ガラス
 10
-6.725
 20
0.2
 70
     8
  0
VERTEX
  8
ガラス
 10
-6.725
 20
0.275
 70
     8
  0
VERTEX
  8
ガラス
 10
-6.7
 20
0.325
 70
     8
  0
VERTEX
  8
ガラス
 10
-6.675
 20
0.375
 70
     8
  0
VERTEX
  8
ガラス
 10
-6.65
 20
0.45
 70
     8
  0
VERTEX
  8
ガラス
 10
-6.625
 20
0.5
 70
     8
  0
VERTEX
  8
ガラス
 10
-6.6
 20
0.55
 70
     8
  0
VERTEX
  8
ガラス
 10
-6.575
 20
0.6
 70
     8
  0
VERTEX
  8
ガラス
 10
-6.55
 20
0.65
 70
     8
  0
VERTEX
  8
ガラス
 10
-6.5
 20
0.7
 70
     8
  0
VERTEX
  8
ガラス
 10
-6.475
 20
0.75
 70
     8
  0
VERTEX
  8
ガラス
 10
-6.45
 20
0.8
 70
     8
  0
VERTEX
  8
ガラス
 10
-6.4
 20
0.85
 70
     8
  0
VERTEX
  8
ガラス
 10
-6.375
 20
0.9
 70
     8
  0
VERTEX
  8
ガラス
 10
-6.325
 20
0.925
 70
     8
  0
VERTEX
  8
ガラス
 10
-6.3
 20
0.975
 70
     8
  0
VERTEX
  8
ガラス
 10
-6.25
 20
1.025
 70
     8
  0
VERTEX
  8
ガラス
 10
-6.2
 20
1.05
 70
     8
  0
VERTEX
  8
ガラス
 10
-6.15
 20
1.075
 70
     8
  0
VERTEX
  8
ガラス
 10
-6.1
 20
1.125
 70
     8
  0
VERTEX
  8
ガラス
 10
-6.05
 20
1.15
 70
     8
  0
VERTEX
  8
ガラス
 10
-6.0
 20
1.175
 70
     8
  0
VERTEX
  8
ガラス
 10
-5.95
 20
1.2
 70
     8
  0
VERTEX
  8
ガラス
 10
-5.875
 20
1.225
 70
     8
  0
VERTEX
  8
ガラス
 10
-5.825
 20
1.25
 70
     8
  0
VERTEX
  8
ガラス
 10
-5.775
 20
1.275
 70
     8
  0
VERTEX
  8
ガラス
 10
-5.725
 20
1.3
 70
     8
  0
VERTEX
  8
ガラス
 10
-5.65
 20
1.325
 70
     8
  0
VERTEX
  8
ガラス
 10
-5.6
 20
1.35
 70
     8
  0
VERTEX
  8
ガラス
 10
-5.525
 20
1.375
 70
     8
  0
VERTEX
  8
ガラス
 10
-5.475
 20
1.4
 70
     8
  0
VERTEX
  8
ガラス
 10
-5.425
 20
1.425
 70
     8
  0
VERTEX
  8
ガラス
 10
-5.35
 20
1.45
 70
     8
  0
VERTEX
  8
ガラス
 10
-5.3
 20
1.45
 70
     8
  0
SEQEND
  0
POLYLINE
  8
ガラス
  6
CONTINUOUS
 66
     1
 70
     4
  0
VERTEX
  8
ガラス
 10
-5.3
 20
1.45
 70
     8
  0
VERTEX
  8
ガラス
 10
-5.3
 20
1.425
 70
     8
  0
VERTEX
  8
ガラス
 10
-5.325
 20
1.375
 70
     8
  0
VERTEX
  8
ガラス
 10
-5.325
 20
1.325
 70
     8
  0
VERTEX
  8
ガラス
 10
-5.325
 20
1.3
 70
     8
  0
VERTEX
  8
ガラス
 10
-5.35
 20
1.25
 70
     8
  0
VERTEX
  8
ガラス
 10
-5.35
 20
1.2
 70
     8
  0
VERTEX
  8
ガラス
 10
-5.375
 20
1.175
 70
     8
  0
VERTEX
  8
ガラス
 10
-5.375
 20
1.125
 70
     8
  0
VERTEX
  8
ガラス
 10
-5.4
 20
1.075
 70
     8
  0
VERTEX
  8
ガラス
 10
-5.4
 20
1.05
 70
     8
  0
VERTEX
  8
ガラス
 10
-5.425
 20
1.0
 70
     8
  0
VERTEX
  8
ガラス
 10
-5.425
 20
0.95
 70
     8
  0
VERTEX
  8
ガラス
 10
-5.425
 20
0.925
 70
     8
  0
VERTEX
  8
ガラス
 10
-5.45
 20
0.875
 70
     8
  0
VERTEX
  8
ガラス
 10
-5.45
 20
0.825
 70
     8
  0
VERTEX
  8
ガラス
 10
-5.45
 20
0.8
 70
     8
  0
VERTEX
  8
ガラス
 10
-5.475
 20
0.75
 70
     8
  0
VERTEX
  8
ガラス
 10
-5.475
 20
0.7
 70
     8
  0
VERTEX
  8
ガラス
 10
-5.475
 20
0.675
 70
     8
  0
VERTEX
  8
ガラス
 10
-5.5
 20
0.625
 70
     8
  0
VERTEX
  8
ガラス
 10
-5.5
 20
0.575
 70
     8
  0
VERTEX
  8
ガラス
 10
-5.5
 20
0.55
 70
     8
  0
VERTEX
  8
ガラス
 10
-5.5
 20
0.5
 70
     8
  0
VERTEX
  8
ガラス
 10
-5.5
 20
0.45
 70
     8
  0
VERTEX
  8
ガラス
 10
-5.525
 20
0.425
 70
     8
  0
VERTEX
  8
ガラス
 10
-5.525
 20
0.375
 70
     8
  0
VERTEX
  8
ガラス
 10
-5.525
 20
0.325
 70
     8
  0
VERTEX
  8
ガラス
 10
-5.525
 20
0.275
 70
     8
  0
VERTEX
  8
ガラス
 10
-5.525
 20
0.25
 70
     8
  0
VERTEX
  8
ガラス
 10
-5.525
 20
0.2
 70
     8
  0
VERTEX
  8
ガラス
 10
-5.525
 20
0.15
 70
     8
  0
VERTEX
  8
ガラス
 10
-5.525
 20
0.125
 70
     8
  0
VERTEX
  8
ガラス
 10
-5.525
 20
0.075
 70
     8
  0
VERTEX
  8
ガラス
 10
-5.525
 20
0.025
 70
     8
  0
VERTEX
  8
ガラス
 10
-5.525
 20
-0.025
 70
     8
  0
VERTEX
  8
ガラス
 10
-5.525
 20
-0.05
 70
     8
  0
VERTEX
  8
ガラス
 10
-5.525
 20
-0.1
 70
     8
  0
VERTEX
  8
ガラス
 10
-5.525
 20
-0.15
 70
     8
  0
VERTEX
  8
ガラス
 10
-5.525
 20
-0.2
 70
     8
  0
VERTEX
  8
ガラス
 10
-5.525
 20
-0.225
 70
     8
  0
SEQEND
  0
ARC
  8
ガラス
  6
CONTINUOUS
 10
-6.185105
 20
-0.218733
 40
0.668594
 50
180.0
 51
360.0
  0
ENDBLK
  0
BLOCK
  2
*GRP_0008
 70
    65
 10
0.0
 20
0.0
  0
POLYLINE
  8
ガラス
  6
CONTINUOUS
 66
     1
 70
     4
  0
VERTEX
  8
ガラス
 10
-11.8
 20
-8.35
 70
     8
  0
VERTEX
  8
ガラス
 10
-11.725
 20
-8.35
 70
     8
  0
VERTEX
  8
ガラス
 10
-11.65
 20
-8.35
 70
     8
  0
VERTEX
  8
ガラス
 10
-11.6
 20
-8.325
 70
     8
  0
VERTEX
  8
ガラス
 10
-11.525
 20
-8.325
 70
     8
  0
VERTEX
  8
ガラス
 10
-11.475
 20
-8.325
 70
     8
  0
VERTEX
  8
ガラス
 10
-11.4
 20
-8.325
 70
     8
  0
VERTEX
  8
ガラス
 10
-11.35
 20
-8.325
 70
     8
  0
VERTEX
  8
ガラス
 10
-11.275
 20
-8.325
 70
     8
  0
VERTEX
  8
ガラス
 10
-11.2
 20
-8.3
 70
     8
  0
VERTEX
  8
ガラス
 10
-11.15
 20
-8.3
 70
     8
  0
VERTEX
  8
ガラス
 10
-11.075
 20
-8.325
 70
     8
  0
VERTEX
  8
ガラス
 10
-11.025
 20
-8.325
 70
     8
  0
VERTEX
  8
ガラス
 10
-10.975
 20
-8.325
 70
     8
  0
VERTEX
  8
ガラス
 10
-10.9
 20
-8.325
 70
     8
  0
VERTEX
  8
ガラス
 10
-10.85
 20
-8.325
 70
     8
  0
VERTEX
  8
ガラス
 10
-10.775
 20
-8.35
 70
     8
  0
VERTEX
  8
ガラス
 10
-10.725
 20
-8.35
 70
     8
  0
VERTEX
  8
ガラス
 10
-10.675
 20
-8.375
 70
     8
  0
VERTEX
  8
ガラス
 10
-10.625
 20
-8.375
 70
     8
  0
VERTEX
  8
ガラス
 10
-10.55
 20
-8.4
 70
     8
  0
VERTEX
  8
ガラス
 10
-10.5
 20
-8.425
 70
     8
  0
VERTEX
  8
ガラス
 10
-10.45
 20
-8.45
 70
     8
  0
VERTEX
  8
ガラス
 10
-10.4
 20
-8.475
 70
     8
  0
VERTEX
  8
ガラス
 10
-10.35
 20
-8.5
 70
     8
  0
VERTEX
  8
ガラス
 10
-10.3
 20
-8.55
 70
     8
  0
VERTEX
  8
ガラス
 10
-10.25
 20
-8.575
 70
     8
  0
VERTEX
  8
ガラス
 10
-10.2
 20
-8.625
 70
     8
  0
VERTEX
  8
ガラス
 10
-10.175
 20
-8.65
 70
     8
  0
VERTEX
  8
ガラス
 10
-10.125
 20
-8.7
 70
     8
  0
VERTEX
  8
ガラス
 10
-10.075
 20
-8.725
 70
     8
  0
VERTEX
  8
ガラス
 10
-10.025
 20
-8.775
 70
     8
  0
VERTEX
  8
ガラス
 10
-9.975
 20
-8.825
 70
     8
  0
VERTEX
  8
ガラス
 10
-9.95
 20
-8.875
 70
     8
  0
VERTEX
  8
ガラス
 10
-9.9
 20
-8.925
 70
     8
  0
VERTEX
  8
ガラス
 10
-9.85
 20
-8.975
 70
     8
  0
VERTEX
  8
ガラス
 10
-9.8
 20
-9.0
 70
     8
  0
VERTEX
  8
ガラス
 10
-9.775
 20
-9.05
 70
     8
  0
VERTEX
  8
ガラス
 10
-9.725
 20
-9.1
 70
     8
  0
VERTEX
  8
ガラス
 10
-9.675
 20
-9.15
 70
     8
  0
VERTEX
  8
ガラス
 10
-9.65
 20
-9.2
 70
     8
  0
SEQEND
  0
POLYLINE
  8
ガラス
  6
CONTINUOUS
 66
     1
 70
     4
  0
VERTEX
  8
ガラス
 10
-9.65
 20
-9.2
 70
     8
  0
VERTEX
  8
ガラス
 10
-9.675
 20
-9.225
 70
     8
  0
VERTEX
  8
ガラス
 10
-9.725
 20
-9.225
 70
     8
  0
VERTEX
  8
ガラス
 10
-9.775
 20
-9.225
 70
     8
  0
VERTEX
  8
ガラス
 10
-9.825
 20
-9.225
 70
     8
  0
VERTEX
  8
ガラス
 10
-9.85
 20
-9.225
 70
     8
  0
VERTEX
  8
ガラス
 10
-9.9
 20
-9.225
 70
     8
  0
VERTEX
  8
ガラス
 10
-9.95
 20
-9.25
 70
     8
  0
VERTEX
  8
ガラス
 10
-9.975
 20
-9.25
 70
     8
  0
VERTEX
  8
ガラス
 10
-10.025
 20
-9.25
 70
     8
  0
VERTEX
  8
ガラス
 10
-10.075
 20
-9.25
 70
     8
  0
VERTEX
  8
ガラス
 10
-10.125
 20
-9.25
 70
     8
  0
VERTEX
  8
ガラス
 10
-10.15
 20
-9.275
 70
     8
  0
VERTEX
  8
ガラス
 10
-10.2
 20
-9.275
 70
     8
  0
VERTEX
  8
ガラス
 10
-10.25
 20
-9.275
 70
     8
  0
VERTEX
  8
ガラス
 10
-10.275
 20
-9.275
 70
     8
  0
VERTEX
  8
ガラス
 10
-10.325
 20
-9.3
 70
     8
  0
VERTEX
  8
ガラス
 10
-10.375
 20
-9.3
 70
     8
  0
VERTEX
  8
ガラス
 10
-10.4
 20
-9.3
 70
     8
  0
VERTEX
  8
ガラス
 10
-10.45
 20
-9.325
 70
     8
  0
VERTEX
  8
ガラス
 10
-10.5
 20
-9.325
 70
     8
  0
VERTEX
  8
ガラス
 10
-10.525
 20
-9.325
 70
     8
  0
VERTEX
  8
ガラス
 10
-10.575
 20
-9.35
 70
     8
  0
VERTEX
  8
ガラス
 10
-10.625
 20
-9.35
 70
     8
  0
VERTEX
  8
ガラス
 10
-10.65
 20
-9.375
 70
     8
  0
VERTEX
  8
ガラス
 10
-10.7
 20
-9.375
 70
     8
  0
VERTEX
  8
ガラス
 10
-10.75
 20
-9.4
 70
     8
  0
VERTEX
  8
ガラス
 10
-10.775
 20
-9.4
 70
     8
  0
VERTEX
  8
ガラス
 10
-10.825
 20
-9.425
 70
     8
  0
VERTEX
  8
ガラス
 10
-10.875
 20
-9.425
 70
     8
  0
VERTEX
  8
ガラス
 10
-10.9
 20
-9.45
 70
     8
  0
VERTEX
  8
ガラス
 10
-10.95
 20
-9.45
 70
     8
  0
VERTEX
  8
ガラス
 10
-10.975
 20
-9.475
 70
     8
  0
VERTEX
  8
ガラス
 10
-11.025
 20
-9.5
 70
     8
  0
VERTEX
  8
ガラス
 10
-11.075
 20
-9.5
 70
     8
  0
VERTEX
  8
ガラス
 10
-11.1
 20
-9.525
 70
     8
  0
VERTEX
  8
ガラス
 10
-11.15
 20
-9.525
 70
     8
  0
VERTEX
  8
ガラス
 10
-11.175
 20
-9.55
 70
     8
  0
VERTEX
  8
ガラス
 10
-11.225
 20
-9.575
 70
     8
  0
VERTEX
  8
ガラス
 10
-11.275
 20
-9.575
 70
     8
  0
VERTEX
  8
ガラス
 10
-11.3
 20
-9.6
 70
     8
  0
SEQEND
  0
ARC
  8
ガラス
  6
CONTINUOUS
 10
-11.536538
 20
-8.962155
 40
0.668594
 50
111.203091
 51
291.203091
  0
ENDBLK
  0
BLOCK
  2
*GRP_0009
 70
    65
 10
0.0
 20
0.0
  0
POLYLINE
  8
ガラス
  6
CONTINUOUS
 66
     1
 70
     4
  0
VERTEX
  8
ガラス
 10
-26.025
 20
-8.35
 70
     8
  0
VERTEX
  8
ガラス
 10
-25.95
 20
-8.35
 70
     8
  0
VERTEX
  8
ガラス
 10
-25.9
 20
-8.35
 70
     8
  0
VERTEX
  8
ガラス
 10
-25.825
 20
-8.325
 70
     8
  0
VERTEX
  8
ガラス
 10
-25.775
 20
-8.325
 70
     8
  0
VERTEX
  8
ガラス
 10
-25.7
 20
-8.325
 70
     8
  0
VERTEX
  8
ガラス
 10
-25.625
 20
-8.325
 70
     8
  0
VERTEX
  8
ガラス
 10
-25.575
 20
-8.325
 70
     8
  0
VERTEX
  8
ガラス
 10
-25.5
 20
-8.325
 70
     8
  0
VERTEX
  8
ガラス
 10
-25.45
 20
-8.3
 70
     8
  0
VERTEX
  8
ガラス
 10
-25.375
 20
-8.3
 70
     8
  0
VERTEX
  8
ガラス
 10
-25.325
 20
-8.325
 70
     8
  0
VERTEX
  8
ガラス
 10
-25.25
 20
-8.325
 70
     8
  0
VERTEX
  8
ガラス
 10
-25.2
 20
-8.325
 70
     8
  0
VERTEX
  8
ガラス
 10
-25.125
 20
-8.325
 70
     8
  0
VERTEX
  8
ガラス
 10
-25.075
 20
-8.325
 70
     8
  0
VERTEX
  8
ガラス
 10
-25.025
 20
-8.35
 70
     8
  0
VERTEX
  8
ガラス
 10
-24.95
 20
-8.35
 70
     8
  0
VERTEX
  8
ガラス
 10
-24.9
 20
-8.375
 70
     8
  0
VERTEX
  8
ガラス
 10
-24.85
 20
-8.375
 70
     8
  0
VERTEX
  8
ガラス
 10
-24.8
 20
-8.4
 70
     8
  0
VERTEX
  8
ガラス
 10
-24.75
 20
-8.425
 70
     8
  0
VERTEX
  8
ガラス
 10
-24.7
 20
-8.45
 70
     8
  0
VERTEX
  8
ガラス
 10
-24.625
 20
-8.475
 70
     8
  0
VERTEX
  8
ガラス
 10
-24.575
 20
-8.5
 70
     8
  0
VERTEX
  8
ガラス
 10
-24.55
 20
-8.55
 70
     8
  0
VERTEX
  8
ガラス
 10
-24.5
 20
-8.575
 70
     8
  0
VERTEX
  8
ガラス
 10
-24.45
 20
-8.625
 70
     8
  0
VERTEX
  8
ガラス
 10
-24.4
 20
-8.65
 70
     8
  0
VERTEX
  8
ガラス
 10
-24.35
 20
-8.7
 70
     8
  0
VERTEX
  8
ガラス
 10
-24.3
 20
-8.725
 70
     8
  0
VERTEX
  8
ガラス
 10
-24.25
 20
-8.775
 70
     8
  0
VERTEX
  8
ガラス
 10
-24.225
 20
-8.825
 70
     8
  0
VERTEX
  8
ガラス
 10
-24.175
 20
-8.875
 70
     8
  0
VERTEX
  8
ガラス
 10
-24.125
 20
-8.925
 70
     8
  0
VERTEX
  8
ガラス
 10
-24.075
 20
-8.975
 70
     8
  0
VERTEX
  8
ガラス
 10
-24.05
 20
-9.0
 70
     8
  0
VERTEX
  8
ガラス
 10
-24.0
 20
-9.05
 70
     8
  0
VERTEX
  8
ガラス
 10
-23.95
 20
-9.1
 70
     8
  0
VERTEX
  8
ガラス
 10
-23.925
 20
-9.15
 70
     8
  0
VERTEX
  8
ガラス
 10
-23.875
 20
-9.2
 70
     8
  0
SEQEND
  0
POLYLINE
  8
ガラス
  6
CONTINUOUS
 66
     1
 70
     4
  0
VERTEX
  8
ガラス
 10
-23.875
 20
-9.2
 70
     8
  0
VERTEX
  8
ガラス
 10
-23.925
 20
-9.225
 70
     8
  0
VERTEX
  8
ガラス
 10
-23.95
 20
-9.225
 70
     8
  0
VERTEX
  8
ガラス
 10
-24.0
 20
-9.225
 70
     8
  0
VERTEX
  8
ガラス
 10
-24.05
 20
-9.225
 70
     8
  0
VERTEX
  8
ガラス
 10
-24.1
 20
-9.225
 70
     8
  0
VERTEX
  8
ガラス
 10
-24.125
 20
-9.225
 70
     8
  0
VERTEX
  8
ガラス
 10
-24.175
 20
-9.25
 70
     8
  0
VERTEX
  8
ガラス
 10
-24.225
 20
-9.25
 70
     8
  0
VERTEX
  8
ガラス
 10
-24.25
 20
-9.25
 70
     8
  0
VERTEX
  8
ガラス
 10
-24.3
 20
-9.25
 70
     8
  0
VERTEX
  8
ガラス
 10
-24.35
 20
-9.25
 70
     8
  0
VERTEX
  8
ガラス
 10
-24.4
 20
-9.275
 70
     8
  0
VERTEX
  8
ガラス
 10
-24.425
 20
-9.275
 70
     8
  0
VERTEX
  8
ガラス
 10
-24.475
 20
-9.275
 70
     8
  0
VERTEX
  8
ガラス
 10
-24.525
 20
-9.275
 70
     8
  0
VERTEX
  8
ガラス
 10
-24.55
 20
-9.3
 70
     8
  0
VERTEX
  8
ガラス
 10
-24.6
 20
-9.3
 70
     8
  0
VERTEX
  8
ガラス
 10
-24.65
 20
-9.3
 70
     8
  0
VERTEX
  8
ガラス
 10
-24.675
 20
-9.325
 70
     8
  0
VERTEX
  8
ガラス
 10
-24.725
 20
-9.325
 70
     8
  0
VERTEX
  8
ガラス
 10
-24.775
 20
-9.325
 70
     8
  0
VERTEX
  8
ガラス
 10
-24.8
 20
-9.35
 70
     8
  0
VERTEX
  8
ガラス
 10
-24.85
 20
-9.35
 70
     8
  0
VERTEX
  8
ガラス
 10
-24.9
 20
-9.375
 70
     8
  0
VERTEX
  8
ガラス
 10
-24.925
 20
-9.375
 70
     8
  0
VERTEX
  8
ガラス
 10
-24.975
 20
-9.4
 70
     8
  0
VERTEX
  8
ガラス
 10
-25.025
 20
-9.4
 70
     8
  0
VERTEX
  8
ガラス
 10
-25.05
 20
-9.425
 70
     8
  0
VERTEX
  8
ガラス
 10
-25.1
 20
-9.425
 70
     8
  0
VERTEX
  8
ガラス
 10
-25.125
 20
-9.45
 70
     8
  0
VERTEX
  8
ガラス
 10
-25.175
 20
-9.45
 70
     8
  0
VERTEX
  8
ガラス
 10
-25.225
 20
-9.475
 70
     8
  0
VERTEX
  8
ガラス
 10
-25.25
 20
-9.5
 70
     8
  0
VERTEX
  8
ガラス
 10
-25.3
 20
-9.5
 70
     8
  0
VERTEX
  8
ガラス
 10
-25.35
 20
-9.525
 70
     8
  0
VERTEX
  8
ガラス
 10
-25.375
 20
-9.525
 70
     8
  0
VERTEX
  8
ガラス
 10
-25.425
 20
-9.55
 70
     8
  0
VERTEX
  8
ガラス
 10
-25.45
 20
-9.575
 70
     8
  0
VERTEX
  8
ガラス
 10
-25.5
 20
-9.575
 70
     8
  0
VERTEX
  8
ガラス
 10
-25.55
 20
-9.6
 70
     8
  0
SEQEND
  0
ARC
  8
ガラス
  6
CONTINUOUS
 10
-25.768617
 20
-8.962155
 40
0.668594
 50
111.203091
 51
291.203091
  0
ENDBLK
  0
BLOCK
  2
*GRP_0010
 70
    65
 10
0.0
 20
0.0
  0
POLYLINE
  8
ガラス
  6
CONTINUOUS
 66
     1
 70
     4
  0
VERTEX
  8
ガラス
 10
-38.85
 20
-8.35
 70
     8
  0
VERTEX
  8
ガラス
 10
-38.775
 20
-8.35
 70
     8
  0
VERTEX
  8
ガラス
 10
-38.7
 20
-8.35
 70
     8
  0
VERTEX
  8
ガラス
 10
-38.65
 20
-8.325
 70
     8
  0
VERTEX
  8
ガラス
 10
-38.575
 20
-8.325
 70
     8
  0
VERTEX
  8
ガラス
 10
-38.525
 20
-8.325
 70
     8
  0
VERTEX
  8
ガラス
 10
-38.45
 20
-8.325
 70
     8
  0
VERTEX
  8
ガラス
 10
-38.4
 20
-8.325
 70
     8
  0
VERTEX
  8
ガラス
 10
-38.325
 20
-8.325
 70
     8
  0
VERTEX
  8
ガラス
 10
-38.25
 20
-8.3
 70
     8
  0
VERTEX
  8
ガラス
 10
-38.2
 20
-8.3
 70
     8
  0
VERTEX
  8
ガラス
 10
-38.125
 20
-8.325
 70
     8
  0
VERTEX
  8
ガラス
 10
-38.075
 20
-8.325
 70
     8
  0
VERTEX
  8
ガラス
 10
-38.025
 20
-8.325
 70
     8
  0
VERTEX
  8
ガラス
 10
-37.95
 20
-8.325
 70
     8
  0
VERTEX
  8
ガラス
 10
-37.9
 20
-8.325
 70
     8
  0
VERTEX
  8
ガラス
 10
-37.825
 20
-8.35
 70
     8
  0
VERTEX
  8
ガラス
 10
-37.775
 20
-8.35
 70
     8
  0
VERTEX
  8
ガラス
 10
-37.725
 20
-8.375
 70
     8
  0
VERTEX
  8
ガラス
 10
-37.675
 20
-8.375
 70
     8
  0
VERTEX
  8
ガラス
 10
-37.6
 20
-8.4
 70
     8
  0
VERTEX
  8
ガラス
 10
-37.55
 20
-8.425
 70
     8
  0
VERTEX
  8
ガラス
 10
-37.5
 20
-8.45
 70
     8
  0
VERTEX
  8
ガラス
 10
-37.45
 20
-8.475
 70
     8
  0
VERTEX
  8
ガラス
 10
-37.4
 20
-8.5
 70
     8
  0
VERTEX
  8
ガラス
 10
-37.35
 20
-8.55
 70
     8
  0
VERTEX
  8
ガラス
 10
-37.3
 20
-8.575
 70
     8
  0
VERTEX
  8
ガラス
 10
-37.25
 20
-8.625
 70
     8
  0
VERTEX
  8
ガラス
 10
-37.225
 20
-8.65
 70
     8
  0
VERTEX
  8
ガラス
 10
-37.175
 20
-8.7
 70
     8
  0
VERTEX
  8
ガラス
 10
-37.125
 20
-8.725
 70
     8
  0
VERTEX
  8
ガラス
 10
-37.075
 20
-8.775
 70
     8
  0
VERTEX
  8
ガラス
 10
-37.025
 20
-8.825
 70
     8
  0
VERTEX
  8
ガラス
 10
-37.0
 20
-8.875
 70
     8
  0
VERTEX
  8
ガラス
 10
-36.95
 20
-8.925
 70
     8
  0
VERTEX
  8
ガラス
 10
-36.9
 20
-8.975
 70
     8
  0
VERTEX
  8
ガラス
 10
-36.85
 20
-9.0
 70
     8
  0
VERTEX
  8
ガラス
 10
-36.825
 20
-9.05
 70
     8
  0
VERTEX
  8
ガラス
 10
-36.775
 20
-9.1
 70
     8
  0
VERTEX
  8
ガラス
 10
-36.725
 20
-9.15
 70
     8
  0
VERTEX
  8
ガラス
 10
-36.7
 20
-9.2
 70
     8
  0
SEQEND
  0
POLYLINE
  8
ガラス
  6
CONTINUOUS
 66
     1
 70
     4
  0
VERTEX
  8
ガラス
 10
-36.7
 20
-9.2
 70
     8
  0
VERTEX
  8
ガラス
 10
-36.725
 20
-9.225
 70
     8
  0
VERTEX
  8
ガラス
 10
-36.775
 20
-9.225
 70
     8
  0
VERTEX
  8
ガラス
 10
-36.825
 20
-9.225
 70
     8
  0
VERTEX
  8
ガラス
 10
-36.875
 20
-9.225
 70
     8
  0
VERTEX
  8
ガラス
 10
-36.9
 20
-9.225
 70
     8
  0
VERTEX
  8
ガラス
 10
-36.95
 20
-9.225
 70
     8
  0
VERTEX
  8
ガラス
 10
-37.0
 20
-9.25
 70
     8
  0
VERTEX
  8
ガラス
 10
-37.025
 20
-9.25
 70
     8
  0
VERTEX
  8
ガラス
 10
-37.075
 20
-9.25
 70
     8
  0
VERTEX
  8
ガラス
 10
-37.125
 20
-9.25
 70
     8
  0
VERTEX
  8
ガラス
 10
-37.175
 20
-9.25
 70
     8
  0
VERTEX
  8
ガラス
 10
-37.2
 20
-9.275
 70
     8
  0
VERTEX
  8
ガラス
 10
-37.25
 20
-9.275
 70
     8
  0
VERTEX
  8
ガラス
 10
-37.3
 20
-9.275
 70
     8
  0
VERTEX
  8
ガラス
 10
-37.325
 20
-9.275
 70
     8
  0
VERTEX
  8
ガラス
 10
-37.375
 20
-9.3
 70
     8
  0
VERTEX
  8
ガラス
 10
-37.425
 20
-9.3
 70
     8
  0
VERTEX
  8
ガラス
 10
-37.45
 20
-9.3
 70
     8
  0
VERTEX
  8
ガラス
 10
-37.5
 20
-9.325
 70
     8
  0
VERTEX
  8
ガラス
 10
-37.55
 20
-9.325
 70
     8
  0
VERTEX
  8
ガラス
 10
-37.575
 20
-9.325
 70
     8
  0
VERTEX
  8
ガラス
 10
-37.625
 20
-9.35
 70
     8
  0
VERTEX
  8
ガラス
 10
-37.675
 20
-9.35
 70
     8
  0
VERTEX
  8
ガラス
 10
-37.7
 20
-9.375
 70
     8
  0
VERTEX
  8
ガラス
 10
-37.75
 20
-9.375
 70
     8
  0
VERTEX
  8
ガラス
 10
-37.8
 20
-9.4
 70
     8
  0
VERTEX
  8
ガラス
 10
-37.825
 20
-9.4
 70
     8
  0
VERTEX
  8
ガラス
 10
-37.875
 20
-9.425
 70
     8
  0
VERTEX
  8
ガラス
 10
-37.925
 20
-9.425
 70
     8
  0
VERTEX
  8
ガラス
 10
-37.95
 20
-9.45
 70
     8
  0
VERTEX
  8
ガラス
 10
-38.0
 20
-9.45
 70
     8
  0
VERTEX
  8
ガラス
 10
-38.025
 20
-9.475
 70
     8
  0
VERTEX
  8
ガラス
 10
-38.075
 20
-9.5
 70
     8
  0
VERTEX
  8
ガラス
 10
-38.125
 20
-9.5
 70
     8
  0
VERTEX
  8
ガラス
 10
-38.15
 20
-9.525
 70
     8
  0
VERTEX
  8
ガラス
 10
-38.2
 20
-9.525
 70
     8
  0
VERTEX
  8
ガラス
 10
-38.225
 20
-9.55
 70
     8
  0
VERTEX
  8
ガラス
 10
-38.275
 20
-9.575
 70
     8
  0
VERTEX
  8
ガラス
 10
-38.325
 20
-9.575
 70
     8
  0
VERTEX
  8
ガラス
 10
-38.35
 20
-9.6
 70
     8
  0
SEQEND
  0
ARC
  8
ガラス
  6
CONTINUOUS
 10
-38.586672
 20
-8.962155
 40
0.668594
 50
111.203091
 51
291.203091
  0
ENDBLK
  0
BLOCK
  2
*GRP_0011
 70
    65
 10
0.0
 20
0.0
  0
POLYLINE
  8
ガラス
  6
CONTINUOUS
 66
     1
 70
     4
  0
VERTEX
  8
ガラス
 10
-54.375
 20
-8.35
 70
     8
  0
VERTEX
  8
ガラス
 10
-54.3
 20
-8.35
 70
     8
  0
VERTEX
  8
ガラス
 10
-54.25
 20
-8.35
 70
     8
  0
VERTEX
  8
ガラス
 10
-54.175
 20
-8.325
 70
     8
  0
VERTEX
  8
ガラス
 10
-54.1
 20
-8.325
 70
     8
  0
VERTEX
  8
ガラス
 10
-54.05
 20
-8.325
 70
     8
  0
VERTEX
  8
ガラス
 10
-53.975
 20
-8.325
 70
     8
  0
VERTEX
  8
ガラス
 10
-53.925
 20
-8.325
 70
     8
  0
VERTEX
  8
ガラス
 10
-53.85
 20
-8.325
 70
     8
  0
VERTEX
  8
ガラス
 10
-53.8
 20
-8.3
 70
     8
  0
VERTEX
  8
ガラス
 10
-53.725
 20
-8.3
 70
     8
  0
VERTEX
  8
ガラス
 10
-53.675
 20
-8.325
 70
     8
  0
VERTEX
  8
ガラス
 10
-53.6
 20
-8.325
 70
     8
  0
VERTEX
  8
ガラス
 10
-53.55
 20
-8.325
 70
     8
  0
VERTEX
  8
ガラス
 10
-53.475
 20
-8.325
 70
     8
  0
VERTEX
  8
ガラス
 10
-53.425
 20
-8.325
 70
     8
  0
VERTEX
  8
ガラス
 10
-53.375
 20
-8.35
 70
     8
  0
VERTEX
  8
ガラス
 10
-53.3
 20
-8.35
 70
     8
  0
VERTEX
  8
ガラス
 10
-53.25
 20
-8.375
 70
     8
  0
VERTEX
  8
ガラス
 10
-53.2
 20
-8.375
 70
     8
  0
VERTEX
  8
ガラス
 10
-53.15
 20
-8.4
 70
     8
  0
VERTEX
  8
ガラス
 10
-53.075
 20
-8.425
 70
     8
  0
VERTEX
  8
ガラス
 10
-53.025
 20
-8.45
 70
     8
  0
VERTEX
  8
ガラス
 10
-52.975
 20
-8.475
 70
     8
  0
VERTEX
  8
ガラス
 10
-52.925
 20
-8.5
 70
     8
  0
VERTEX
  8
ガラス
 10
-52.875
 20
-8.55
 70
     8
  0
VERTEX
  8
ガラス
 10
-52.825
 20
-8.575
 70
     8
  0
VERTEX
  8
ガラス
 10
-52.8
 20
-8.625
 70
     8
  0
VERTEX
  8
ガラス
 10
-52.75
 20
-8.65
 70
     8
  0
VERTEX
  8
ガラス
 10
-52.7
 20
-8.7
 70
     8
  0
VERTEX
  8
ガラス
 10
-52.65
 20
-8.725
 70
     8
  0
VERTEX
  8
ガラス
 10
-52.6
 20
-8.775
 70
     8
  0
VERTEX
  8
ガラス
 10
-52.55
 20
-8.825
 70
     8
  0
VERTEX
  8
ガラス
 10
-52.525
 20
-8.875
 70
     8
  0
VERTEX
  8
ガラス
 10
-52.475
 20
-8.925
 70
     8
  0
VERTEX
  8
ガラス
 10
-52.425
 20
-8.975
 70
     8
  0
VERTEX
  8
ガラス
 10
-52.4
 20
-9.0
 70
     8
  0
VERTEX
  8
ガラス
 10
-52.35
 20
-9.05
 70
     8
  0
VERTEX
  8
ガラス
 10
-52.3
 20
-9.1
 70
     8
  0
VERTEX
  8
ガラス
 10
-52.275
 20
-9.15
 70
     8
  0
VERTEX
  8
ガラス
 10
-52.225
 20
-9.2
 70
     8
  0
SEQEND
  0
POLYLINE
  8
ガラス
  6
CONTINUOUS
 66
     1
 70
     4
  0
VERTEX
  8
ガラス
 10
-52.225
 20
-9.2
 70
     8
  0
VERTEX
  8
ガラス
 10
-52.275
 20
-9.225
 70
     8
  0
VERTEX
  8
ガラス
 10
-52.3
 20
-9.225
 70
     8
  0
VERTEX
  8
ガラス
 10
-52.35
 20
-9.225
 70
     8
  0
VERTEX
  8
ガラス
 10
-52.4
 20
-9.225
 70
     8
  0
VERTEX
  8
ガラス
 10
-52.425
 20
-9.225
 70
     8
  0
VERTEX
  8
ガラス
 10
-52.475
 20
-9.225
 70
     8
  0
VERTEX
  8
ガラス
 10
-52.525
 20
-9.25
 70
     8
  0
VERTEX
  8
ガラス
 10
-52.575
 20
-9.25
 70
     8
  0
VERTEX
  8
ガラス
 10
-52.6
 20
-9.25
 70
     8
  0
VERTEX
  8
ガラス
 10
-52.65
 20
-9.25
 70
     8
  0
VERTEX
  8
ガラス
 10
-52.7
 20
-9.25
 70
     8
  0
VERTEX
  8
ガラス
 10
-52.725
 20
-9.275
 70
     8
  0
VERTEX
  8
ガラス
 10
-52.775
 20
-9.275
 70
     8
  0
VERTEX
  8
ガラス
 10
-52.825
 20
-9.275
 70
     8
  0
VERTEX
  8
ガラス
 10
-52.875
 20
-9.275
 70
     8
  0
VERTEX
  8
ガラス
 10
-52.9
 20
-9.3
 70
     8
  0
VERTEX
  8
ガラス
 10
-52.95
 20
-9.3
 70
     8
  0
VERTEX
  8
ガラス
 10
-53.0
 20
-9.3
 70
     8
  0
VERTEX
  8
ガラス
 10
-53.025
 20
-9.325
 70
     8
  0
VERTEX
  8
ガラス
 10
-53.075
 20
-9.325
 70
     8
  0
VERTEX
  8
ガラス
 10
-53.125
 20
-9.325
 70
     8
  0
VERTEX
  8
ガラス
 10
-53.15
 20
-9.35
 70
     8
  0
VERTEX
  8
ガラス
 10
-53.2
 20
-9.35
 70
     8
  0
VERTEX
  8
ガラス
 10
-53.25
 20
-9.375
 70
     8
  0
VERTEX
  8
ガラス
 10
-53.275
 20
-9.375
 70
     8
  0
VERTEX
  8
ガラス
 10
-53.325
 20
-9.4
 70
     8
  0
VERTEX
  8
ガラス
 10
-53.35
 20
-9.4
 70
     8
  0
VERTEX
  8
ガラス
 10
-53.4
 20
-9.425
 70
     8
  0
VERTEX
  8
ガラス
 10
-53.45
 20
-9.425
 70
     8
  0
VERTEX
  8
ガラス
 10
-53.475
 20
-9.45
 70
     8
  0
VERTEX
  8
ガラス
 10
-53.525
 20
-9.45
 70
     8
  0
VERTEX
  8
ガラス
 10
-53.575
 20
-9.475
 70
     8
  0
VERTEX
  8
ガラス
 10
-53.6
 20
-9.5
 70
     8
  0
VERTEX
  8
ガラス
 10
-53.65
 20
-9.5
 70
     8
  0
VERTEX
  8
ガラス
 10
-53.675
 20
-9.525
 70
     8
  0
VERTEX
  8
ガラス
 10
-53.725
 20
-9.525
 70
     8
  0
VERTEX
  8
ガラス
 10
-53.775
 20
-9.55
 70
     8
  0
VERTEX
  8
ガラス
 10
-53.8
 20
-9.575
 70
     8
  0
VERTEX
  8
ガラス
 10
-53.85
 20
-9.575
 70
     8
  0
VERTEX
  8
ガラス
 10
-53.875
 20
-9.6
 70
     8
  0
SEQEND
  0
ARC
  8
ガラス
  6
CONTINUOUS
 10
-54.114476
 20
-8.962155
 40
0.668594
 50
111.203091
 51
291.203091
  0
ENDBLK
  0
BLOCK
  2
*GRP_0012
 70
    65
 10
0.0
 20
0.0
  0
POLYLINE
  8
ガラス
  6
CONTINUOUS
 66
     1
 70
     4
  0
VERTEX
  8
ガラス
 10
-55.775
 20
-15.775
 70
     8
  0
VERTEX
  8
ガラス
 10
-55.75
 20
-15.725
 70
     8
  0
VERTEX
  8
ガラス
 10
-55.725
 20
-15.65
 70
     8
  0
VERTEX
  8
ガラス
 10
-55.7
 20
-15.6
 70
     8
  0
VERTEX
  8
ガラス
 10
-55.7
 20
-15.525
 70
     8
  0
VERTEX
  8
ガラス
 10
-55.675
 20
-15.475
 70
     8
  0
VERTEX
  8
ガラス
 10
-55.65
 20
-15.4
 70
     8
  0
VERTEX
  8
ガラス
 10
-55.625
 20
-15.35
 70
     8
  0
VERTEX
  8
ガラス
 10
-55.625
 20
-15.275
 70
     8
  0
VERTEX
  8
ガラス
 10
-55.6
 20
-15.225
 70
     8
  0
VERTEX
  8
ガラス
 10
-55.575
 20
-15.175
 70
     8
  0
VERTEX
  8
ガラス
 10
-55.55
 20
-15.1
 70
     8
  0
VERTEX
  8
ガラス
 10
-55.525
 20
-15.05
 70
     8
  0
VERTEX
  8
ガラス
 10
-55.5
 20
-15.0
 70
     8
  0
VERTEX
  8
ガラス
 10
-55.475
 20
-14.95
 70
     8
  0
VERTEX
  8
ガラス
 10
-55.45
 20
-14.9
 70
     8
  0
VERTEX
  8
ガラス
 10
-55.4
 20
-14.85
 70
     8
  0
VERTEX
  8
ガラス
 10
-55.375
 20
-14.8
 70
     8
  0
VERTEX
  8
ガラス
 10
-55.35
 20
-14.75
 70
     8
  0
VERTEX
  8
ガラス
 10
-55.3
 20
-14.7
 70
     8
  0
VERTEX
  8
ガラス
 10
-55.275
 20
-14.65
 70
     8
  0
VERTEX
  8
ガラス
 10
-55.225
 20
-14.6
 70
     8
  0
VERTEX
  8
ガラス
 10
-55.175
 20
-14.575
 70
     8
  0
VERTEX
  8
ガラス
 10
-55.15
 20
-14.525
 70
     8
  0
VERTEX
  8
ガラス
 10
-55.1
 20
-14.5
 70
     8
  0
VERTEX
  8
ガラス
 10
-55.05
 20
-14.475
 70
     8
  0
VERTEX
  8
ガラス
 10
-55.0
 20
-14.425
 70
     8
  0
VERTEX
  8
ガラス
 10
-54.95
 20
-14.4
 70
     8
  0
VERTEX
  8
ガラス
 10
-54.9
 20
-14.375
 70
     8
  0
VERTEX
  8
ガラス
 10
-54.85
 20
-14.35
 70
     8
  0
VERTEX
  8
ガラス
 10
-54.775
 20
-14.325
 70
     8
  0
VERTEX
  8
ガラス
 10
-54.725
 20
-14.3
 70
     8
  0
VERTEX
  8
ガラス
 10
-54.675
 20
-14.275
 70
     8
  0
VERTEX
  8
ガラス
 10
-54.6
 20
-14.25
 70
     8
  0
VERTEX
  8
ガラス
 10
-54.55
 20
-14.225
 70
     8
  0
VERTEX
  8
ガラス
 10
-54.5
 20
-14.2
 70
     8
  0
VERTEX
  8
ガラス
 10
-54.425
 20
-14.175
 70
     8
  0
VERTEX
  8
ガラス
 10
-54.375
 20
-14.15
 70
     8
  0
VERTEX
  8
ガラス
 10
-54.3
 20
-14.125
 70
     8
  0
VERTEX
  8
ガラス
 10
-54.25
 20
-14.1
 70
     8
  0
VERTEX
  8
ガラス
 10
-54.175
 20
-14.075
 70
     8
  0
SEQEND
  0
POLYLINE
  8
ガラス
  6
CONTINUOUS
 66
     1
 70
     4
  0
VERTEX
  8
ガラス
 10
-54.175
 20
-14.075
 70
     8
  0
VERTEX
  8
ガラス
 10
-54.2
 20
-14.125
 70
     8
  0
VERTEX
  8
ガラス
 10
-54.2
 20
-14.175
 70
     8
  0
VERTEX
  8
ガラス
 10
-54.225
 20
-14.2
 70
     8
  0
VERTEX
  8
ガラス
 10
-54.225
 20
-14.25
 70
     8
  0
VERTEX
  8
ガラス
 10
-54.25
 20
-14.3
 70
     8
  0
VERTEX
  8
ガラス
 10
-54.25
 20
-14.325
 70
     8
  0
VERTEX
  8
ガラス
 10
-54.275
 20
-14.375
 70
     8
  0
VERTEX
  8
ガラス
 10
-54.275
 20
-14.425
 70
     8
  0
VERTEX
  8
ガラス
 10
-54.3
 20
-14.45
 70
     8
  0
VERTEX
  8
ガラス
 10
-54.3
 20
-14.5
 70
     8
  0
VERTEX
  8
ガラス
 10
-54.3
 20
-14.55
 70
     8
  0
VERTEX
  8
ガラス
 10
-54.325
 20
-14.575
 70
     8
  0
VERTEX
  8
ガラス
 10
-54.325
 20
-14.625
 70
     8
  0
VERTEX
  8
ガラス
 10
-54.35
 20
-14.675
 70
     8
  0
VERTEX
  8
ガラス
 10
-54.35
 20
-14.7
 70
     8
  0
VERTEX
  8
ガラス
 10
-54.35
 20
-14.75
 70
     8
  0
VERTEX
  8
ガラス
 10
-54.375
 20
-14.8
 70
     8
  0
VERTEX
  8
ガラス
 10
-54.375
 20
-14.85
 70
     8
  0
VERTEX
  8
ガラス
 10
-54.375
 20
-14.875
 70
     8
  0
VERTEX
  8
ガラス
 10
-54.4
 20
-14.925
 70
     8
  0
VERTEX
  8
ガラス
 10
-54.4
 20
-14.975
 70
     8
  0
VERTEX
  8
ガラス
 10
-54.4
 20
-15.0
 70
     8
  0
VERTEX
  8
ガラス
 10
-54.4
 20
-15.05
 70
     8
  0
VERTEX
  8
ガラス
 10
-54.4
 20
-15.1
 70
     8
  0
VERTEX
  8
ガラス
 10
-54.4
 20
-15.125
 70
     8
  0
VERTEX
  8
ガラス
 10
-54.425
 20
-15.175
 70
     8
  0
VERTEX
  8
ガラス
 10
-54.425
 20
-15.225
 70
     8
  0
VERTEX
  8
ガラス
 10
-54.425
 20
-15.275
 70
     8
  0
VERTEX
  8
ガラス
 10
-54.425
 20
-15.3
 70
     8
  0
VERTEX
  8
ガラス
 10
-54.425
 20
-15.35
 70
     8
  0
VERTEX
  8
ガラス
 10
-54.425
 20
-15.4
 70
     8
  0
VERTEX
  8
ガラス
 10
-54.425
 20
-15.425
 70
     8
  0
VERTEX
  8
ガラス
 10
-54.425
 20
-15.475
 70
     8
  0
VERTEX
  8
ガラス
 10
-54.425
 20
-15.525
 70
     8
  0
VERTEX
  8
ガラス
 10
-54.425
 20
-15.575
 70
     8
  0
VERTEX
  8
ガラス
 10
-54.425
 20
-15.6
 70
     8
  0
VERTEX
  8
ガラス
 10
-54.425
 20
-15.65
 70
     8
  0
VERTEX
  8
ガラス
 10
-54.425
 20
-15.7
 70
     8
  0
VERTEX
  8
ガラス
 10
-54.425
 20
-15.725
 70
     8
  0
VERTEX
  8
ガラス
 10
-54.425
 20
-15.775
 70
     8
  0
SEQEND
  0
ARC
  8
ガラス
  6
CONTINUOUS
 10
-55.082864
 20
-15.766393
 40
0.668594
 50
180.0
 51
360.0
  0
ENDBLK
  0
BLOCK
  2
*GRP_0013
 70
    65
 10
0.0
 20
0.0
  0
POLYLINE
  8
ガラス
  6
CONTINUOUS
 66
     1
 70
     4
  0
VERTEX
  8
ガラス
 10
-56.65
 20
-28.925
 70
     8
  0
VERTEX
  8
ガラス
 10
-56.625
 20
-28.85
 70
     8
  0
VERTEX
  8
ガラス
 10
-56.625
 20
-28.8
 70
     8
  0
VERTEX
  8
ガラス
 10
-56.6
 20
-28.725
 70
     8
  0
VERTEX
  8
ガラス
 10
-56.575
 20
-28.675
 70
     8
  0
VERTEX
  8
ガラス
 10
-56.575
 20
-28.6
 70
     8
  0
VERTEX
  8
ガラス
 10
-56.55
 20
-28.55
 70
     8
  0
VERTEX
  8
ガラス
 10
-56.525
 20
-28.475
 70
     8
  0
VERTEX
  8
ガラス
 10
-56.5
 20
-28.425
 70
     8
  0
VERTEX
  8
ガラス
 10
-56.475
 20
-28.35
 70
     8
  0
VERTEX
  8
ガラス
 10
-56.45
 20
-28.3
 70
     8
  0
VERTEX
  8
ガラス
 10
-56.425
 20
-28.25
 70
     8
  0
VERTEX
  8
ガラス
 10
-56.4
 20
-28.2
 70
     8
  0
VERTEX
  8
ガラス
 10
-56.375
 20
-28.125
 70
     8
  0
VERTEX
  8
ガラス
 10
-56.35
 20
-28.075
 70
     8
  0
VERTEX
  8
ガラス
 10
-56.325
 20
-28.025
 70
     8
  0
VERTEX
  8
ガラス
 10
-56.3
 20
-27.975
 70
     8
  0
VERTEX
  8
ガラス
 10
-56.275
 20
-27.925
 70
     8
  0
VERTEX
  8
ガラス
 10
-56.225
 20
-27.875
 70
     8
  0
VERTEX
  8
ガラス
 10
-56.2
 20
-27.825
 70
     8
  0
VERTEX
  8
ガラス
 10
-56.15
 20
-27.8
 70
     8
  0
VERTEX
  8
ガラス
 10
-56.125
 20
-27.75
 70
     8
  0
VERTEX
  8
ガラス
 10
-56.075
 20
-27.7
 70
     8
  0
VERTEX
  8
ガラス
 10
-56.025
 20
-27.675
 70
     8
  0
VERTEX
  8
ガラス
 10
-55.975
 20
-27.625
 70
     8
  0
VERTEX
  8
ガラス
 10
-55.95
 20
-27.6
 70
     8
  0
VERTEX
  8
ガラス
 10
-55.9
 20
-27.575
 70
     8
  0
VERTEX
  8
ガラス
 10
-55.825
 20
-27.525
 70
     8
  0
VERTEX
  8
ガラス
 10
-55.775
 20
-27.5
 70
     8
  0
VERTEX
  8
ガラス
 10
-55.725
 20
-27.475
 70
     8
  0
VERTEX
  8
ガラス
 10
-55.675
 20
-27.45
 70
     8
  0
VERTEX
  8
ガラス
 10
-55.625
 20
-27.425
 70
     8
  0
VERTEX
  8
ガラス
 10
-55.55
 20
-27.4
 70
     8
  0
VERTEX
  8
ガラス
 10
-55.5
 20
-27.375
 70
     8
  0
VERTEX
  8
ガラス
 10
-55.45
 20
-27.35
 70
     8
  0
VERTEX
  8
ガラス
 10
-55.375
 20
-27.325
 70
     8
  0
VERTEX
  8
ガラス
 10
-55.325
 20
-27.3
 70
     8
  0
VERTEX
  8
ガラス
 10
-55.25
 20
-27.3
 70
     8
  0
VERTEX
  8
ガラス
 10
-55.2
 20
-27.275
 70
     8
  0
VERTEX
  8
ガラス
 10
-55.15
 20
-27.25
 70
     8
  0
VERTEX
  8
ガラス
 10
-55.075
 20
-27.225
 70
     8
  0
SEQEND
  0
POLYLINE
  8
ガラス
  6
CONTINUOUS
 66
     1
 70
     4
  0
VERTEX
  8
ガラス
 10
-55.075
 20
-27.225
 70
     8
  0
VERTEX
  8
ガラス
 10
-55.1
 20
-27.275
 70
     8
  0
VERTEX
  8
ガラス
 10
-55.1
 20
-27.3
 70
     8
  0
VERTEX
  8
ガラス
 10
-55.125
 20
-27.35
 70
     8
  0
VERTEX
  8
ガラス
 10
-55.125
 20
-27.4
 70
     8
  0
VERTEX
  8
ガラス
 10
-55.125
 20
-27.425
 70
     8
  0
VERTEX
  8
ガラス
 10
-55.15
 20
-27.475
 70
     8
  0
VERTEX
  8
ガラス
 10
-55.15
 20
-27.525
 70
     8
  0
VERTEX
  8
ガラス
 10
-55.175
 20
-27.55
 70
     8
  0
VERTEX
  8
ガラス
 10
-55.175
 20
-27.6
 70
     8
  0
VERTEX
  8
ガラス
 10
-55.2
 20
-27.65
 70
     8
  0
VERTEX
  8
ガラス
 10
-55.2
 20
-27.675
 70
     8
  0
VERTEX
  8
ガラス
 10
-55.225
 20
-27.725
 70
     8
  0
VERTEX
  8
ガラス
 10
-55.225
 20
-27.775
 70
     8
  0
VERTEX
  8
ガラス
 10
-55.225
 20
-27.8
 70
     8
  0
VERTEX
  8
ガラス
 10
-55.25
 20
-27.85
 70
     8
  0
VERTEX
  8
ガラス
 10
-55.25
 20
-27.9
 70
     8
  0
VERTEX
  8
ガラス
 10
-55.25
 20
-27.925
 70
     8
  0
VERTEX
  8
ガラス
 10
-55.275
 20
-27.975
 70
     8
  0
VERTEX
  8
ガラス
 10
-55.275
 20
-28.025
 70
     8
  0
VERTEX
  8
ガラス
 10
-55.275
 20
-28.05
 70
     8
  0
VERTEX
  8
ガラス
 10
-55.275
 20
-28.1
 70
     8
  0
VERTEX
  8
ガラス
 10
-55.3
 20
-28.15
 70
     8
  0
VERTEX
  8
ガラス
 10
-55.3
 20
-28.175
 70
     8
  0
VERTEX
  8
ガラス
 10
-55.3
 20
-28.225
 70
     8
  0
VERTEX
  8
ガラス
 10
-55.3
 20
-28.275
 70
     8
  0
VERTEX
  8
ガラス
 10
-55.3
 20
-28.325
 70
     8
  0
VERTEX
  8
ガラス
 10
-55.3
 20
-28.35
 70
     8
  0
VERTEX
  8
ガラス
 10
-55.3
 20
-28.4
 70
     8
  0
VERTEX
  8
ガラス
 10
-55.325
 20
-28.45
 70
     8
  0
VERTEX
  8
ガラス
 10
-55.325
 20
-28.475
 70
     8
  0
VERTEX
  8
ガラス
 10
-55.325
 20
-28.525
 70
     8
  0
VERTEX
  8
ガラス
 10
-55.325
 20
-28.575
 70
     8
  0
VERTEX
  8
ガラス
 10
-55.325
 20
-28.625
 70
     8
  0
VERTEX
  8
ガラス
 10
-55.325
 20
-28.65
 70
     8
  0
VERTEX
  8
ガラス
 10
-55.325
 20
-28.7
 70
     8
  0
VERTEX
  8
ガラス
 10
-55.325
 20
-28.75
 70
     8
  0
VERTEX
  8
ガラス
 10
-55.325
 20
-28.775
 70
     8
  0
VERTEX
  8
ガラス
 10
-55.325
 20
-28.825
 70
     8
  0
VERTEX
  8
ガラス
 10
-55.325
 20
-28.875
 70
     8
  0
VERTEX
  8
ガラス
 10
-55.325
 20
-28.925
 70
     8
  0
SEQEND
  0
ARC
  8
ガラス
  6
CONTINUOUS
 10
-55.973251
 20
-28.903812
 40
0.668594
 50
180.0
 51
360.0
  0
ENDBLK
  0
BLOCK
  2
*GRP_0014
 70
    65
 10
0.0
 20
0.0
  0
POLYLINE
  8
ガラス
  6
CONTINUOUS
 66
     1
 70
     4
  0
VERTEX
  8
ガラス
 10
-64.95
 20
-32.7
 70
     8
  0
VERTEX
  8
ガラス
 10
-64.9
 20
-32.7
 70
     8
  0
VERTEX
  8
ガラス
 10
-64.825
 20
-32.7
 70
     8
  0
VERTEX
  8
ガラス
 10
-64.775
 20
-32.675
 70
     8
  0
VERTEX
  8
ガラス
 10
-64.7
 20
-32.675
 70
     8
  0
VERTEX
  8
ガラス
 10
-64.625
 20
-32.675
 70
     8
  0
VERTEX
  8
ガラス
 10
-64.575
 20
-32.675
 70
     8
  0
VERTEX
  8
ガラス
 10
-64.5
 20
-32.675
 70
     8
  0
VERTEX
  8
ガラス
 10
-64.45
 20
-32.675
 70
     8
  0
VERTEX
  8
ガラス
 10
-64.375
 20
-32.65
 70
     8
  0
VERTEX
  8
ガラス
 10
-64.325
 20
-32.65
 70
     8
  0
VERTEX
  8
ガラス
 10
-64.25
 20
-32.675
 70
     8
  0
VERTEX
  8
ガラス
 10
-64.2
 20
-32.675
 70
     8
  0
VERTEX
  8
ガラス
 10
-64.125
 20
-32.675
 70
     8
  0
VERTEX
  8
ガラス
 10
-64.075
 20
-32.675
 70
     8
  0
VERTEX
  8
ガラス
 10
-64.025
 20
-32.675
 70
     8
  0
VERTEX
  8
ガラス
 10
-63.95
 20
-32.7
 70
     8
  0
VERTEX
  8
ガラス
 10
-63.9
 20
-32.7
 70
     8
  0
VERTEX
  8
ガラス
 10
-63.85
 20
-32.725
 70
     8
  0
VERTEX
  8
ガラス
 10
-63.775
 20
-32.75
 70
     8
  0
VERTEX
  8
ガラス
 10
-63.725
 20
-32.75
 70
     8
  0
VERTEX
  8
ガラス
 10
-63.675
 20
-32.775
 70
     8
  0
VERTEX
  8
ガラス
 10
-63.625
 20
-32.8
 70
     8
  0
VERTEX
  8
ガラス
 10
-63.575
 20
-32.825
 70
     8
  0
VERTEX
  8
ガラス
 10
-63.525
 20
-32.85
 70
     8
  0
VERTEX
  8
ガラス
 10
-63.475
 20
-32.9
 70
     8
  0
VERTEX
  8
ガラス
 10
-63.425
 20
-32.925
 70
     8
  0
VERTEX
  8
ガラス
 10
-63.375
 20
-32.975
 70
     8
  0
VERTEX
  8
ガラス
 10
-63.325
 20
-33.0
 70
     8
  0
VERTEX
  8
ガラス
 10
-63.275
 20
-33.05
 70
     8
  0
VERTEX
  8
ガラス
 10
-63.25
 20
-33.075
 70
     8
  0
VERTEX
  8
ガラス
 10
-63.2
 20
-33.125
 70
     8
  0
VERTEX
  8
ガラス
 10
-63.15
 20
-33.175
 70
     8
  0
VERTEX
  8
ガラス
 10
-63.1
 20
-33.225
 70
     8
  0
VERTEX
  8
ガラス
 10
-63.075
 20
-33.275
 70
     8
  0
VERTEX
  8
ガラス
 10
-63.025
 20
-33.325
 70
     8
  0
VERTEX
  8
ガラス
 10
-62.975
 20
-33.35
 70
     8
  0
VERTEX
  8
ガラス
 10
-62.95
 20
-33.4
 70
     8
  0
VERTEX
  8
ガラス
 10
-62.9
 20
-33.45
 70
     8
  0
VERTEX
  8
ガラス
 10
-62.85
 20
-33.5
 70
     8
  0
VERTEX
  8
ガラス
 10
-62.825
 20
-33.55
 70
     8
  0
SEQEND
  0
POLYLINE
  8
ガラス
  6
CONTINUOUS
 66
     1
 70
     4
  0
VERTEX
  8
ガラス
 10
-62.825
 20
-33.55
 70
     8
  0
VERTEX
  8
ガラス
 10
-62.85
 20
-33.575
 70
     8
  0
VERTEX
  8
ガラス
 10
-62.9
 20
-33.575
 70
     8
  0
VERTEX
  8
ガラス
 10
-62.95
 20
-33.575
 70
     8
  0
VERTEX
  8
ガラス
 10
-62.975
 20
-33.575
 70
     8
  0
VERTEX
  8
ガラス
 10
-63.025
 20
-33.575
 70
     8
  0
VERTEX
  8
ガラス
 10
-63.075
 20
-33.575
 70
     8
  0
VERTEX
  8
ガラス
 10
-63.125
 20
-33.6
 70
     8
  0
VERTEX
  8
ガラス
 10
-63.15
 20
-33.6
 70
     8
  0
VERTEX
  8
ガラス
 10
-63.2
 20
-33.6
 70
     8
  0
VERTEX
  8
ガラス
 10
-63.25
 20
-33.6
 70
     8
  0
VERTEX
  8
ガラス
 10
-63.275
 20
-33.6
 70
     8
  0
VERTEX
  8
ガラス
 10
-63.325
 20
-33.625
 70
     8
  0
VERTEX
  8
ガラス
 10
-63.375
 20
-33.625
 70
     8
  0
VERTEX
  8
ガラス
 10
-63.4
 20
-33.625
 70
     8
  0
VERTEX
  8
ガラス
 10
-63.45
 20
-33.625
 70
     8
  0
VERTEX
  8
ガラス
 10
-63.5
 20
-33.65
 70
     8
  0
VERTEX
  8
ガラス
 10
-63.55
 20
-33.65
 70
     8
  0
VERTEX
  8
ガラス
 10
-63.575
 20
-33.65
 70
     8
  0
VERTEX
  8
ガラス
 10
-63.625
 20
-33.675
 70
     8
  0
VERTEX
  8
ガラス
 10
-63.675
 20
-33.675
 70
     8
  0
VERTEX
  8
ガラス
 10
-63.7
 20
-33.675
 70
     8
  0
VERTEX
  8
ガラス
 10
-63.75
 20
-33.7
 70
     8
  0
VERTEX
  8
ガラス
 10
-63.8
 20
-33.7
 70
     8
  0
VERTEX
  8
ガラス
 10
-63.825
 20
-33.725
 70
     8
  0
VERTEX
  8
ガラス
 10
-63.875
 20
-33.725
 70
     8
  0
VERTEX
  8
ガラス
 10
-63.9
 20
-33.75
 70
     8
  0
VERTEX
  8
ガラス
 10
-63.95
 20
-33.75
 70
     8
  0
VERTEX
  8
ガラス
 10
-64.0
 20
-33.775
 70
     8
  0
VERTEX
  8
ガラス
 10
-64.025
 20
-33.775
 70
     8
  0
VERTEX
  8
ガラス
 10
-64.075
 20
-33.8
 70
     8
  0
VERTEX
  8
ガラス
 10
-64.125
 20
-33.8
 70
     8
  0
VERTEX
  8
ガラス
 10
-64.15
 20
-33.825
 70
     8
  0
VERTEX
  8
ガラス
 10
-64.2
 20
-33.85
 70
     8
  0
VERTEX
  8
ガラス
 10
-64.225
 20
-33.85
 70
     8
  0
VERTEX
  8
ガラス
 10
-64.275
 20
-33.875
 70
     8
  0
VERTEX
  8
ガラス
 10
-64.325
 20
-33.875
 70
     8
  0
VERTEX
  8
ガラス
 10
-64.35
 20
-33.9
 70
     8
  0
VERTEX
  8
ガラス
 10
-64.4
 20
-33.925
 70
     8
  0
VERTEX
  8
ガラス
 10
-64.425
 20
-33.925
 70
     8
  0
VERTEX
  8
ガラス
 10
-64.475
 20
-33.95
 70
     8
  0
SEQEND
  0
ARC
  8
ガラス
  6
CONTINUOUS
 10
-64.705752
 20
-33.313091
 40
0.668594
 50
111.203091
 51
291.203091
  0
ENDBLK
  0
BLOCK
  2
*GRP_0015
 70
    65
 10
0.0
 20
0.0
  0
POLYLINE
  8
ガラス
  6
CONTINUOUS
 66
     1
 70
     4
  0
VERTEX
  8
ガラス
 10
-75.2
 20
-33.725
 70
     8
  0
VERTEX
  8
ガラス
 10
-75.125
 20
-33.7
 70
     8
  0
VERTEX
  8
ガラス
 10
-75.05
 20
-33.7
 70
     8
  0
VERTEX
  8
ガラス
 10
-75.0
 20
-33.7
 70
     8
  0
VERTEX
  8
ガラス
 10
-74.925
 20
-33.7
 70
     8
  0
VERTEX
  8
ガラス
 10
-74.875
 20
-33.675
 70
     8
  0
VERTEX
  8
ガラス
 10
-74.8
 20
-33.675
 70
     8
  0
VERTEX
  8
ガラス
 10
-74.725
 20
-33.675
 70
     8
  0
VERTEX
  8
ガラス
 10
-74.675
 20
-33.675
 70
     8
  0
VERTEX
  8
ガラス
 10
-74.6
 20
-33.675
 70
     8
  0
VERTEX
  8
ガラス
 10
-74.55
 20
-33.675
 70
     8
  0
VERTEX
  8
ガラス
 10
-74.475
 20
-33.675
 70
     8
  0
VERTEX
  8
ガラス
 10
-74.425
 20
-33.675
 70
     8
  0
VERTEX
  8
ガラス
 10
-74.35
 20
-33.675
 70
     8
  0
VERTEX
  8
ガラス
 10
-74.3
 20
-33.675
 70
     8
  0
VERTEX
  8
ガラス
 10
-74.25
 20
-33.7
 70
     8
  0
VERTEX
  8
ガラス
 10
-74.175
 20
-33.7
 70
     8
  0
VERTEX
  8
ガラス
 10
-74.125
 20
-33.725
 70
     8
  0
VERTEX
  8
ガラス
 10
-74.075
 20
-33.725
 70
     8
  0
VERTEX
  8
ガラス
 10
-74.025
 20
-33.75
 70
     8
  0
VERTEX
  8
ガラス
 10
-73.95
 20
-33.775
 70
     8
  0
VERTEX
  8
ガラス
 10
-73.9
 20
-33.8
 70
     8
  0
VERTEX
  8
ガラス
 10
-73.85
 20
-33.825
 70
     8
  0
VERTEX
  8
ガラス
 10
-73.8
 20
-33.85
 70
     8
  0
VERTEX
  8
ガラス
 10
-73.75
 20
-33.875
 70
     8
  0
VERTEX
  8
ガラス
 10
-73.7
 20
-33.9
 70
     8
  0
VERTEX
  8
ガラス
 10
-73.65
 20
-33.95
 70
     8
  0
VERTEX
  8
ガラス
 10
-73.6
 20
-33.975
 70
     8
  0
VERTEX
  8
ガラス
 10
-73.55
 20
-34.025
 70
     8
  0
VERTEX
  8
ガラス
 10
-73.525
 20
-34.05
 70
     8
  0
VERTEX
  8
ガラス
 10
-73.475
 20
-34.1
 70
     8
  0
VERTEX
  8
ガラス
 10
-73.425
 20
-34.15
 70
     8
  0
VERTEX
  8
ガラス
 10
-73.375
 20
-34.175
 70
     8
  0
VERTEX
  8
ガラス
 10
-73.35
 20
-34.225
 70
     8
  0
VERTEX
  8
ガラス
 10
-73.3
 20
-34.275
 70
     8
  0
VERTEX
  8
ガラス
 10
-73.25
 20
-34.325
 70
     8
  0
VERTEX
  8
ガラス
 10
-73.2
 20
-34.375
 70
     8
  0
VERTEX
  8
ガラス
 10
-73.175
 20
-34.425
 70
     8
  0
VERTEX
  8
ガラス
 10
-73.125
 20
-34.475
 70
     8
  0
VERTEX
  8
ガラス
 10
-73.075
 20
-34.525
 70
     8
  0
VERTEX
  8
ガラス
 10
-73.05
 20
-34.575
 70
     8
  0
SEQEND
  0
POLYLINE
  8
ガラス
  6
CONTINUOUS
 66
     1
 70
     4
  0
VERTEX
  8
ガラス
 10
-73.05
 20
-34.575
 70
     8
  0
VERTEX
  8
ガラス
 10
-73.075
 20
-34.575
 70
     8
  0
VERTEX
  8
ガラス
 10
-73.125
 20
-34.575
 70
     8
  0
VERTEX
  8
ガラス
 10
-73.175
 20
-34.575
 70
     8
  0
VERTEX
  8
ガラス
 10
-73.225
 20
-34.575
 70
     8
  0
VERTEX
  8
ガラス
 10
-73.25
 20
-34.6
 70
     8
  0
VERTEX
  8
ガラス
 10
-73.3
 20
-34.6
 70
     8
  0
VERTEX
  8
ガラス
 10
-73.35
 20
-34.6
 70
     8
  0
VERTEX
  8
ガラス
 10
-73.375
 20
-34.6
 70
     8
  0
VERTEX
  8
ガラス
 10
-73.425
 20
-34.6
 70
     8
  0
VERTEX
  8
ガラス
 10
-73.475
 20
-34.625
 70
     8
  0
VERTEX
  8
ガラス
 10
-73.525
 20
-34.625
 70
     8
  0
VERTEX
  8
ガラス
 10
-73.55
 20
-34.625
 70
     8
  0
VERTEX
  8
ガラス
 10
-73.6
 20
-34.625
 70
     8
  0
VERTEX
  8
ガラス
 10
-73.65
 20
-34.65
 70
     8
  0
VERTEX
  8
ガラス
 10
-73.675
 20
-34.65
 70
     8
  0
VERTEX
  8
ガラス
 10
-73.725
 20
-34.65
 70
     8
  0
VERTEX
  8
ガラス
 10
-73.775
 20
-34.65
 70
     8
  0
VERTEX
  8
ガラス
 10
-73.8
 20
-34.675
 70
     8
  0
VERTEX
  8
ガラス
 10
-73.85
 20
-34.675
 70
     8
  0
VERTEX
  8
ガラス
 10
-73.9
 20
-34.675
 70
     8
  0
VERTEX
  8
ガラス
 10
-73.925
 20
-34.7
 70
     8
  0
VERTEX
  8
ガラス
 10
-73.975
 20
-34.7
 70
     8
  0
VERTEX
  8
ガラス
 10
-74.025
 20
-34.725
 70
     8
  0
VERTEX
  8
ガラス
 10
-74.05
 20
-34.725
 70
     8
  0
VERTEX
  8
ガラス
 10
-74.1
 20
-34.75
 70
     8
  0
VERTEX
  8
ガラス
 10
-74.15
 20
-34.75
 70
     8
  0
VERTEX
  8
ガラス
 10
-74.175
 20
-34.775
 70
     8
  0
VERTEX
  8
ガラス
 10
-74.225
 20
-34.775
 70
     8
  0
VERTEX
  8
ガラス
 10
-74.275
 20
-34.8
 70
     8
  0
VERTEX
  8
ガラス
 10
-74.3
 20
-34.8
 70
     8
  0
VERTEX
  8
ガラス
 10
-74.35
 20
-34.825
 70
     8
  0
VERTEX
  8
ガラス
 10
-74.375
 20
-34.825
 70
     8
  0
VERTEX
  8
ガラス
 10
-74.425
 20
-34.85
 70
     8
  0
VERTEX
  8
ガラス
 10
-74.475
 20
-34.875
 70
     8
  0
VERTEX
  8
ガラス
 10
-74.5
 20
-34.875
 70
     8
  0
VERTEX
  8
ガラス
 10
-74.55
 20
-34.9
 70
     8
  0
VERTEX
  8
ガラス
 10
-74.575
 20
-34.9
 70
     8
  0
VERTEX
  8
ガラス
 10
-74.625
 20
-34.925
 70
     8
  0
VERTEX
  8
ガラス
 10
-74.675
 20
-34.95
 70
     8
  0
VERTEX
  8
ガラス
 10
-74.7
 20
-34.95
 70
     8
  0
SEQEND
  0
ARC
  8
ガラス
  6
CONTINUOUS
 10
-74.934941
 20
-34.323383
 40
0.668594
 50
111.203091
 51
291.203091
  0
ENDBLK
  0
BLOCK
  2
*GRP_0016
 70
    65
 10
0.0
 20
0.0
  0
POLYLINE
  8
ガラス
  6
CONTINUOUS
 66
     1
 70
     4
  0
VERTEX
  8
ガラス
 10
-41.625
 20
33.5
 70
     8
  0
VERTEX
  8
ガラス
 10
-41.625
 20
33.55
 70
     8
  0
VERTEX
  8
ガラス
 10
-41.6
 20
33.625
 70
     8
  0
VERTEX
  8
ガラス
 10
-41.575
 20
33.7
 70
     8
  0
VERTEX
  8
ガラス
 10
-41.55
 20
33.75
 70
     8
  0
VERTEX
  8
ガラス
 10
-41.55
 20
33.825
 70
     8
  0
VERTEX
  8
ガラス
 10
-41.525
 20
33.875
 70
     8
  0
VERTEX
  8
ガラス
 10
-41.5
 20
33.925
 70
     8
  0
VERTEX
  8
ガラス
 10
-41.475
 20
34.0
 70
     8
  0
VERTEX
  8
ガラス
 10
-41.45
 20
34.05
 70
     8
  0
VERTEX
  8
ガラス
 10
-41.425
 20
34.125
 70
     8
  0
VERTEX
  8
ガラス
 10
-41.4
 20
34.175
 70
     8
  0
VERTEX
  8
ガラス
 10
-41.375
 20
34.225
 70
     8
  0
VERTEX
  8
ガラス
 10
-41.35
 20
34.275
 70
     8
  0
VERTEX
  8
ガラス
 10
-41.325
 20
34.325
 70
     8
  0
VERTEX
  8
ガラス
 10
-41.3
 20
34.4
 70
     8
  0
VERTEX
  8
ガラス
 10
-41.275
 20
34.45
 70
     8
  0
VERTEX
  8
ガラス
 10
-41.25
 20
34.5
 70
     8
  0
VERTEX
  8
ガラス
 10
-41.2
 20
34.525
 70
     8
  0
VERTEX
  8
ガラス
 10
-41.175
 20
34.575
 70
     8
  0
VERTEX
  8
ガラス
 10
-41.125
 20
34.625
 70
     8
  0
VERTEX
  8
ガラス
 10
-41.1
 20
34.675
 70
     8
  0
VERTEX
  8
ガラス
 10
-41.05
 20
34.7
 70
     8
  0
VERTEX
  8
ガラス
 10
-41.0
 20
34.75
 70
     8
  0
VERTEX
  8
ガラス
 10
-40.975
 20
34.775
 70
     8
  0
VERTEX
  8
ガラス
 10
-40.925
 20
34.825
 70
     8
  0
VERTEX
  8
ガラス
 10
-40.875
 20
34.85
 70
     8
  0
VERTEX
  8
ガラス
 10
-40.825
 20
34.875
 70
     8
  0
VERTEX
  8
ガラス
 10
-40.75
 20
34.9
 70
     8
  0
VERTEX
  8
ガラス
 10
-40.7
 20
34.925
 70
     8
  0
VERTEX
  8
ガラス
 10
-40.65
 20
34.975
 70
     8
  0
VERTEX
  8
ガラス
 10
-40.6
 20
35.0
 70
     8
  0
VERTEX
  8
ガラス
 10
-40.55
 20
35.025
 70
     8
  0
VERTEX
  8
ガラス
 10
-40.475
 20
35.05
 70
     8
  0
VERTEX
  8
ガラス
 10
-40.425
 20
35.05
 70
     8
  0
VERTEX
  8
ガラス
 10
-40.35
 20
35.075
 70
     8
  0
VERTEX
  8
ガラス
 10
-40.3
 20
35.1
 70
     8
  0
VERTEX
  8
ガラス
 10
-40.25
 20
35.125
 70
     8
  0
VERTEX
  8
ガラス
 10
-40.175
 20
35.15
 70
     8
  0
VERTEX
  8
ガラス
 10
-40.125
 20
35.175
 70
     8
  0
VERTEX
  8
ガラス
 10
-40.05
 20
35.2
 70
     8
  0
SEQEND
  0
POLYLINE
  8
ガラス
  6
CONTINUOUS
 66
     1
 70
     4
  0
VERTEX
  8
ガラス
 10
-40.05
 20
35.2
 70
     8
  0
VERTEX
  8
ガラス
 10
-40.075
 20
35.15
 70
     8
  0
VERTEX
  8
ガラス
 10
-40.075
 20
35.1
 70
     8
  0
VERTEX
  8
ガラス
 10
-40.1
 20
35.075
 70
     8
  0
VERTEX
  8
ガラス
 10
-40.1
 20
35.025
 70
     8
  0
VERTEX
  8
ガラス
 10
-40.125
 20
34.975
 70
     8
  0
VERTEX
  8
ガラス
 10
-40.125
 20
34.95
 70
     8
  0
VERTEX
  8
ガラス
 10
-40.125
 20
34.9
 70
     8
  0
VERTEX
  8
ガラス
 10
-40.15
 20
34.85
 70
     8
  0
VERTEX
  8
ガラス
 10
-40.15
 20
34.825
 70
     8
  0
VERTEX
  8
ガラス
 10
-40.175
 20
34.775
 70
     8
  0
VERTEX
  8
ガラス
 10
-40.175
 20
34.725
 70
     8
  0
VERTEX
  8
ガラス
 10
-40.2
 20
34.7
 70
     8
  0
VERTEX
  8
ガラス
 10
-40.2
 20
34.65
 70
     8
  0
VERTEX
  8
ガラス
 10
-40.2
 20
34.6
 70
     8
  0
VERTEX
  8
ガラス
 10
-40.225
 20
34.575
 70
     8
  0
VERTEX
  8
ガラス
 10
-40.225
 20
34.525
 70
     8
  0
VERTEX
  8
ガラス
 10
-40.225
 20
34.475
 70
     8
  0
VERTEX
  8
ガラス
 10
-40.25
 20
34.45
 70
     8
  0
VERTEX
  8
ガラス
 10
-40.25
 20
34.4
 70
     8
  0
VERTEX
  8
ガラス
 10
-40.25
 20
34.35
 70
     8
  0
VERTEX
  8
ガラス
 10
-40.25
 20
34.325
 70
     8
  0
VERTEX
  8
ガラス
 10
-40.275
 20
34.275
 70
     8
  0
VERTEX
  8
ガラス
 10
-40.275
 20
34.225
 70
     8
  0
VERTEX
  8
ガラス
 10
-40.275
 20
34.175
 70
     8
  0
VERTEX
  8
ガラス
 10
-40.275
 20
34.15
 70
     8
  0
VERTEX
  8
ガラス
 10
-40.275
 20
34.1
 70
     8
  0
VERTEX
  8
ガラス
 10
-40.275
 20
34.05
 70
     8
  0
VERTEX
  8
ガラス
 10
-40.275
 20
34.025
 70
     8
  0
VERTEX
  8
ガラス
 10
-40.3
 20
33.975
 70
     8
  0
VERTEX
  8
ガラス
 10
-40.3
 20
33.925
 70
     8
  0
VERTEX
  8
ガラス
 10
-40.3
 20
33.875
 70
     8
  0
VERTEX
  8
ガラス
 10
-40.3
 20
33.85
 70
     8
  0
VERTEX
  8
ガラス
 10
-40.3
 20
33.8
 70
     8
  0
VERTEX
  8
ガラス
 10
-40.3
 20
33.75
 70
     8
  0
VERTEX
  8
ガラス
 10
-40.3
 20
33.725
 70
     8
  0
VERTEX
  8
ガラス
 10
-40.3
 20
33.675
 70
     8
  0
VERTEX
  8
ガラス
 10
-40.3
 20
33.625
 70
     8
  0
VERTEX
  8
ガラス
 10
-40.3
 20
33.575
 70
     8
  0
VERTEX
  8
ガラス
 10
-40.3
 20
33.55
 70
     8
  0
VERTEX
  8
ガラス
 10
-40.3
 20
33.5
 70
     8
  0
SEQEND
  0
ARC
  8
ガラス
  6
CONTINUOUS
 10
-40.949536
 20
33.511905
 40
0.668594
 50
180.0
 51
360.0
  0
ENDBLK
  0
BLOCK
  2
*GRP_0017
 70
    65
 10
0.0
 20
0.0
  0
POLYLINE
  8
ガラス
  6
CONTINUOUS
 66
     1
 70
     4
  0
VERTEX
  8
ガラス
 10
-41.625
 20
19.2
 70
     8
  0
VERTEX
  8
ガラス
 10
-41.625
 20
19.275
 70
     8
  0
VERTEX
  8
ガラス
 10
-41.6
 20
19.325
 70
     8
  0
VERTEX
  8
ガラス
 10
-41.575
 20
19.4
 70
     8
  0
VERTEX
  8
ガラス
 10
-41.55
 20
19.45
 70
     8
  0
VERTEX
  8
ガラス
 10
-41.55
 20
19.525
 70
     8
  0
VERTEX
  8
ガラス
 10
-41.525
 20
19.575
 70
     8
  0
VERTEX
  8
ガラス
 10
-41.5
 20
19.65
 70
     8
  0
VERTEX
  8
ガラス
 10
-41.475
 20
19.7
 70
     8
  0
VERTEX
  8
ガラス
 10
-41.45
 20
19.75
 70
     8
  0
VERTEX
  8
ガラス
 10
-41.425
 20
19.825
 70
     8
  0
VERTEX
  8
ガラス
 10
-41.4
 20
19.875
 70
     8
  0
VERTEX
  8
ガラス
 10
-41.375
 20
19.925
 70
     8
  0
VERTEX
  8
ガラス
 10
-41.35
 20
20.0
 70
     8
  0
VERTEX
  8
ガラス
 10
-41.325
 20
20.05
 70
     8
  0
VERTEX
  8
ガラス
 10
-41.3
 20
20.1
 70
     8
  0
VERTEX
  8
ガラス
 10
-41.275
 20
20.15
 70
     8
  0
VERTEX
  8
ガラス
 10
-41.25
 20
20.2
 70
     8
  0
VERTEX
  8
ガラス
 10
-41.2
 20
20.25
 70
     8
  0
VERTEX
  8
ガラス
 10
-41.175
 20
20.3
 70
     8
  0
VERTEX
  8
ガラス
 10
-41.125
 20
20.325
 70
     8
  0
VERTEX
  8
ガラス
 10
-41.1
 20
20.375
 70
     8
  0
VERTEX
  8
ガラス
 10
-41.05
 20
20.425
 70
     8
  0
VERTEX
  8
ガラス
 10
-41.0
 20
20.45
 70
     8
  0
VERTEX
  8
ガラス
 10
-40.975
 20
20.475
 70
     8
  0
VERTEX
  8
ガラス
 10
-40.925
 20
20.525
 70
     8
  0
VERTEX
  8
ガラス
 10
-40.875
 20
20.55
 70
     8
  0
VERTEX
  8
ガラス
 10
-40.825
 20
20.575
 70
     8
  0
VERTEX
  8
ガラス
 10
-40.75
 20
20.625
 70
     8
  0
VERTEX
  8
ガラス
 10
-40.7
 20
20.65
 70
     8
  0
VERTEX
  8
ガラス
 10
-40.65
 20
20.675
 70
     8
  0
VERTEX
  8
ガラス
 10
-40.6
 20
20.7
 70
     8
  0
VERTEX
  8
ガラス
 10
-40.55
 20
20.725
 70
     8
  0
VERTEX
  8
ガラス
 10
-40.475
 20
20.75
 70
     8
  0
VERTEX
  8
ガラス
 10
-40.425
 20
20.775
 70
     8
  0
VERTEX
  8
ガラス
 10
-40.35
 20
20.8
 70
     8
  0
VERTEX
  8
ガラス
 10
-40.3
 20
20.8
 70
     8
  0
VERTEX
  8
ガラス
 10
-40.25
 20
20.825
 70
     8
  0
VERTEX
  8
ガラス
 10
-40.175
 20
20.85
 70
     8
  0
VERTEX
  8
ガラス
 10
-40.125
 20
20.875
 70
     8
  0
VERTEX
  8
ガラス
 10
-40.05
 20
20.9
 70
     8
  0
SEQEND
  0
POLYLINE
  8
ガラス
  6
CONTINUOUS
 66
     1
 70
     4
  0
VERTEX
  8
ガラス
 10
-40.05
 20
20.9
 70
     8
  0
VERTEX
  8
ガラス
 10
-40.075
 20
20.85
 70
     8
  0
VERTEX
  8
ガラス
 10
-40.075
 20
20.825
 70
     8
  0
VERTEX
  8
ガラス
 10
-40.1
 20
20.775
 70
     8
  0
VERTEX
  8
ガラス
 10
-40.1
 20
20.725
 70
     8
  0
VERTEX
  8
ガラス
 10
-40.125
 20
20.7
 70
     8
  0
VERTEX
  8
ガラス
 10
-40.125
 20
20.65
 70
     8
  0
VERTEX
  8
ガラス
 10
-40.125
 20
20.6
 70
     8
  0
VERTEX
  8
ガラス
 10
-40.15
 20
20.575
 70
     8
  0
VERTEX
  8
ガラス
 10
-40.15
 20
20.525
 70
     8
  0
VERTEX
  8
ガラス
 10
-40.175
 20
20.475
 70
     8
  0
VERTEX
  8
ガラス
 10
-40.175
 20
20.45
 70
     8
  0
VERTEX
  8
ガラス
 10
-40.2
 20
20.4
 70
     8
  0
VERTEX
  8
ガラス
 10
-40.2
 20
20.35
 70
     8
  0
VERTEX
  8
ガラス
 10
-40.2
 20
20.325
 70
     8
  0
VERTEX
  8
ガラス
 10
-40.225
 20
20.275
 70
     8
  0
VERTEX
  8
ガラス
 10
-40.225
 20
20.225
 70
     8
  0
VERTEX
  8
ガラス
 10
-40.225
 20
20.2
 70
     8
  0
VERTEX
  8
ガラス
 10
-40.25
 20
20.15
 70
     8
  0
VERTEX
  8
ガラス
 10
-40.25
 20
20.1
 70
     8
  0
VERTEX
  8
ガラス
 10
-40.25
 20
20.05
 70
     8
  0
VERTEX
  8
ガラス
 10
-40.25
 20
20.025
 70
     8
  0
VERTEX
  8
ガラス
 10
-40.275
 20
19.975
 70
     8
  0
VERTEX
  8
ガラス
 10
-40.275
 20
19.925
 70
     8
  0
VERTEX
  8
ガラス
 10
-40.275
 20
19.9
 70
     8
  0
VERTEX
  8
ガラス
 10
-40.275
 20
19.85
 70
     8
  0
VERTEX
  8
ガラス
 10
-40.275
 20
19.8
 70
     8
  0
VERTEX
  8
ガラス
 10
-40.275
 20
19.775
 70
     8
  0
VERTEX
  8
ガラス
 10
-40.275
 20
19.725
 70
     8
  0
VERTEX
  8
ガラス
 10
-40.3
 20
19.675
 70
     8
  0
VERTEX
  8
ガラス
 10
-40.3
 20
19.625
 70
     8
  0
VERTEX
  8
ガラス
 10
-40.3
 20
19.6
 70
     8
  0
VERTEX
  8
ガラス
 10
-40.3
 20
19.55
 70
     8
  0
VERTEX
  8
ガラス
 10
-40.3
 20
19.5
 70
     8
  0
VERTEX
  8
ガラス
 10
-40.3
 20
19.475
 70
     8
  0
VERTEX
  8
ガラス
 10
-40.3
 20
19.425
 70
     8
  0
VERTEX
  8
ガラス
 10
-40.3
 20
19.375
 70
     8
  0
VERTEX
  8
ガラス
 10
-40.3
 20
19.325
 70
     8
  0
VERTEX
  8
ガラス
 10
-40.3
 20
19.3
 70
     8
  0
VERTEX
  8
ガラス
 10
-40.3
 20
19.25
 70
     8
  0
VERTEX
  8
ガラス
 10
-40.3
 20
19.2
 70
     8
  0
SEQEND
  0
ARC
  8
ガラス
  6
CONTINUOUS
 10
-40.949536
 20
19.217844
 40
0.668594
 50
180.0
 51
360.0
  0
ENDBLK
  0
BLOCK
  2
*GRP_0018
 70
    65
 10
0.0
 20
0.0
  0
POLYLINE
  8
ガラス
  6
CONTINUOUS
 66
     1
 70
     4
  0
VERTEX
  8
ガラス
 10
-41.625
 20
2.725
 70
     8
  0
VERTEX
  8
ガラス
 10
-41.625
 20
2.8
 70
     8
  0
VERTEX
  8
ガラス
 10
-41.6
 20
2.85
 70
     8
  0
VERTEX
  8
ガラス
 10
-41.575
 20
2.925
 70
     8
  0
VERTEX
  8
ガラス
 10
-41.55
 20
2.975
 70
     8
  0
VERTEX
  8
ガラス
 10
-41.55
 20
3.05
 70
     8
  0
VERTEX
  8
ガラス
 10
-41.525
 20
3.1
 70
     8
  0
VERTEX
  8
ガラス
 10
-41.5
 20
3.15
 70
     8
  0
VERTEX
  8
ガラス
 10
-41.475
 20
3.225
 70
     8
  0
VERTEX
  8
ガラス
 10
-41.45
 20
3.275
 70
     8
  0
VERTEX
  8
ガラス
 10
-41.425
 20
3.35
 70
     8
  0
VERTEX
  8
ガラス
 10
-41.4
 20
3.4
 70
     8
  0
VERTEX
  8
ガラス
 10
-41.375
 20
3.45
 70
     8
  0
VERTEX
  8
ガラス
 10
-41.35
 20
3.5
 70
     8
  0
VERTEX
  8
ガラス
 10
-41.325
 20
3.55
 70
     8
  0
VERTEX
  8
ガラス
 10
-41.3
 20
3.625
 70
     8
  0
VERTEX
  8
ガラス
 10
-41.275
 20
3.675
 70
     8
  0
VERTEX
  8
ガラス
 10
-41.25
 20
3.725
 70
     8
  0
VERTEX
  8
ガラス
 10
-41.2
 20
3.75
 70
     8
  0
VERTEX
  8
ガラス
 10
-41.175
 20
3.8
 70
     8
  0
VERTEX
  8
ガラス
 10
-41.125
 20
3.85
 70
     8
  0
VERTEX
  8
ガラス
 10
-41.1
 20
3.9
 70
     8
  0
VERTEX
  8
ガラス
 10
-41.05
 20
3.925
 70
     8
  0
VERTEX
  8
ガラス
 10
-41.0
 20
3.975
 70
     8
  0
VERTEX
  8
ガラス
 10
-40.975
 20
4.0
 70
     8
  0
VERTEX
  8
ガラス
 10
-40.925
 20
4.05
 70
     8
  0
VERTEX
  8
ガラス
 10
-40.875
 20
4.075
 70
     8
  0
VERTEX
  8
ガラス
 10
-40.825
 20
4.1
 70
     8
  0
VERTEX
  8
ガラス
 10
-40.75
 20
4.125
 70
     8
  0
VERTEX
  8
ガラス
 10
-40.7
 20
4.15
 70
     8
  0
VERTEX
  8
ガラス
 10
-40.65
 20
4.2
 70
     8
  0
VERTEX
  8
ガラス
 10
-40.6
 20
4.225
 70
     8
  0
VERTEX
  8
ガラス
 10
-40.55
 20
4.25
 70
     8
  0
VERTEX
  8
ガラス
 10
-40.475
 20
4.275
 70
     8
  0
VERTEX
  8
ガラス
 10
-40.425
 20
4.275
 70
     8
  0
VERTEX
  8
ガラス
 10
-40.35
 20
4.3
 70
     8
  0
VERTEX
  8
ガラス
 10
-40.3
 20
4.325
 70
     8
  0
VERTEX
  8
ガラス
 10
-40.25
 20
4.35
 70
     8
  0
VERTEX
  8
ガラス
 10
-40.175
 20
4.375
 70
     8
  0
VERTEX
  8
ガラス
 10
-40.125
 20
4.4
 70
     8
  0
VERTEX
  8
ガラス
 10
-40.05
 20
4.425
 70
     8
  0
SEQEND
  0
POLYLINE
  8
ガラス
  6
CONTINUOUS
 66
     1
 70
     4
  0
VERTEX
  8
ガラス
 10
-40.05
 20
4.425
 70
     8
  0
VERTEX
  8
ガラス
 10
-40.075
 20
4.375
 70
     8
  0
VERTEX
  8
ガラス
 10
-40.075
 20
4.325
 70
     8
  0
VERTEX
  8
ガラス
 10
-40.1
 20
4.3
 70
     8
  0
VERTEX
  8
ガラス
 10
-40.1
 20
4.25
 70
     8
  0
VERTEX
  8
ガラス
 10
-40.125
 20
4.2
 70
     8
  0
VERTEX
  8
ガラス
 10
-40.125
 20
4.175
 70
     8
  0
VERTEX
  8
ガラス
 10
-40.125
 20
4.125
 70
     8
  0
VERTEX
  8
ガラス
 10
-40.15
 20
4.075
 70
     8
  0
VERTEX
  8
ガラス
 10
-40.15
 20
4.05
 70
     8
  0
VERTEX
  8
ガラス
 10
-40.175
 20
4.0
 70
     8
  0
VERTEX
  8
ガラス
 10
-40.175
 20
3.95
 70
     8
  0
VERTEX
  8
ガラス
 10
-40.2
 20
3.925
 70
     8
  0
VERTEX
  8
ガラス
 10
-40.2
 20
3.875
 70
     8
  0
VERTEX
  8
ガラス
 10
-40.2
 20
3.825
 70
     8
  0
VERTEX
  8
ガラス
 10
-40.225
 20
3.8
 70
     8
  0
VERTEX
  8
ガラス
 10
-40.225
 20
3.75
 70
     8
  0
VERTEX
  8
ガラス
 10
-40.225
 20
3.7
 70
     8
  0
VERTEX
  8
ガラス
 10
-40.25
 20
3.675
 70
     8
  0
VERTEX
  8
ガラス
 10
-40.25
 20
3.625
 70
     8
  0
VERTEX
  8
ガラス
 10
-40.25
 20
3.575
 70
     8
  0
VERTEX
  8
ガラス
 10
-40.25
 20
3.55
 70
     8
  0
VERTEX
  8
ガラス
 10
-40.275
 20
3.5
 70
     8
  0
VERTEX
  8
ガラス
 10
-40.275
 20
3.45
 70
     8
  0
VERTEX
  8
ガラス
 10
-40.275
 20
3.4
 70
     8
  0
VERTEX
  8
ガラス
 10
-40.275
 20
3.375
 70
     8
  0
VERTEX
  8
ガラス
 10
-40.275
 20
3.325
 70
     8
  0
VERTEX
  8
ガラス
 10
-40.275
 20
3.275
 70
     8
  0
VERTEX
  8
ガラス
 10
-40.275
 20
3.25
 70
     8
  0
VERTEX
  8
ガラス
 10
-40.3
 20
3.2
 70
     8
  0
VERTEX
  8
ガラス
 10
-40.3
 20
3.15
 70
     8
  0
VERTEX
  8
ガラス
 10
-40.3
 20
3.125
 70
     8
  0
VERTEX
  8
ガラス
 10
-40.3
 20
3.075
 70
     8
  0
VERTEX
  8
ガラス
 10
-40.3
 20
3.025
 70
     8
  0
VERTEX
  8
ガラス
 10
-40.3
 20
2.975
 70
     8
  0
VERTEX
  8
ガラス
 10
-40.3
 20
2.95
 70
     8
  0
VERTEX
  8
ガラス
 10
-40.3
 20
2.9
 70
     8
  0
VERTEX
  8
ガラス
 10
-40.3
 20
2.85
 70
     8
  0
VERTEX
  8
ガラス
 10
-40.3
 20
2.8
 70
     8
  0
VERTEX
  8
ガラス
 10
-40.3
 20
2.775
 70
     8
  0
VERTEX
  8
ガラス
 10
-40.3
 20
2.725
 70
     8
  0
SEQEND
  0
ARC
  8
ガラス
  6
CONTINUOUS
 10
-40.949536
 20
2.737485
 40
0.668594
 50
180.0
 51
360.0
  0
ENDBLK
  0
BLOCK
  2
*GRP_0019
 70
    65
 10
0.0
 20
0.0
  0
POLYLINE
  8
ガラス
  6
CONTINUOUS
 66
     1
 70
     4
  0
VERTEX
  8
ガラス
 10
-55.4
 20
37.225
 70
     8
  0
VERTEX
  8
ガラス
 10
-55.375
 20
37.3
 70
     8
  0
VERTEX
  8
ガラス
 10
-55.375
 20
37.35
 70
     8
  0
VERTEX
  8
ガラス
 10
-55.35
 20
37.425
 70
     8
  0
VERTEX
  8
ガラス
 10
-55.325
 20
37.475
 70
     8
  0
VERTEX
  8
ガラス
 10
-55.3
 20
37.55
 70
     8
  0
VERTEX
  8
ガラス
 10
-55.3
 20
37.6
 70
     8
  0
VERTEX
  8
ガラス
 10
-55.275
 20
37.675
 70
     8
  0
VERTEX
  8
ガラス
 10
-55.25
 20
37.725
 70
     8
  0
VERTEX
  8
ガラス
 10
-55.225
 20
37.775
 70
     8
  0
VERTEX
  8
ガラス
 10
-55.2
 20
37.85
 70
     8
  0
VERTEX
  8
ガラス
 10
-55.175
 20
37.9
 70
     8
  0
VERTEX
  8
ガラス
 10
-55.15
 20
37.95
 70
     8
  0
VERTEX
  8
ガラス
 10
-55.125
 20
38.0
 70
     8
  0
VERTEX
  8
ガラス
 10
-55.1
 20
38.075
 70
     8
  0
VERTEX
  8
ガラス
 10
-55.075
 20
38.125
 70
     8
  0
VERTEX
  8
ガラス
 10
-55.05
 20
38.175
 70
     8
  0
VERTEX
  8
ガラス
 10
-55.025
 20
38.225
 70
     8
  0
VERTEX
  8
ガラス
 10
-54.975
 20
38.275
 70
     8
  0
VERTEX
  8
ガラス
 10
-54.95
 20
38.3
 70
     8
  0
VERTEX
  8
ガラス
 10
-54.9
 20
38.35
 70
     8
  0
VERTEX
  8
ガラス
 10
-54.875
 20
38.4
 70
     8
  0
VERTEX
  8
ガラス
 10
-54.825
 20
38.425
 70
     8
  0
VERTEX
  8
ガラス
 10
-54.775
 20
38.475
 70
     8
  0
VERTEX
  8
ガラス
 10
-54.725
 20
38.5
 70
     8
  0
VERTEX
  8
ガラス
 10
-54.675
 20
38.55
 70
     8
  0
VERTEX
  8
ガラス
 10
-54.625
 20
38.575
 70
     8
  0
VERTEX
  8
ガラス
 10
-54.575
 20
38.6
 70
     8
  0
VERTEX
  8
ガラス
 10
-54.525
 20
38.65
 70
     8
  0
VERTEX
  8
ガラス
 10
-54.475
 20
38.675
 70
     8
  0
VERTEX
  8
ガラス
 10
-54.425
 20
38.7
 70
     8
  0
VERTEX
  8
ガラス
 10
-54.375
 20
38.725
 70
     8
  0
VERTEX
  8
ガラス
 10
-54.3
 20
38.75
 70
     8
  0
VERTEX
  8
ガラス
 10
-54.25
 20
38.775
 70
     8
  0
VERTEX
  8
ガラス
 10
-54.2
 20
38.8
 70
     8
  0
VERTEX
  8
ガラス
 10
-54.125
 20
38.825
 70
     8
  0
VERTEX
  8
ガラス
 10
-54.075
 20
38.825
 70
     8
  0
VERTEX
  8
ガラス
 10
-54.0
 20
38.85
 70
     8
  0
VERTEX
  8
ガラス
 10
-53.95
 20
38.875
 70
     8
  0
VERTEX
  8
ガラス
 10
-53.9
 20
38.9
 70
     8
  0
VERTEX
  8
ガラス
 10
-53.825
 20
38.925
 70
     8
  0
SEQEND
  0
POLYLINE
  8
ガラス
  6
CONTINUOUS
 66
     1
 70
     4
  0
VERTEX
  8
ガラス
 10
-53.825
 20
38.925
 70
     8
  0
VERTEX
  8
ガラス
 10
-53.85
 20
38.875
 70
     8
  0
VERTEX
  8
ガラス
 10
-53.85
 20
38.85
 70
     8
  0
VERTEX
  8
ガラス
 10
-53.85
 20
38.8
 70
     8
  0
VERTEX
  8
ガラス
 10
-53.875
 20
38.75
 70
     8
  0
VERTEX
  8
ガラス
 10
-53.875
 20
38.725
 70
     8
  0
VERTEX
  8
ガラス
 10
-53.9
 20
38.675
 70
     8
  0
VERTEX
  8
ガラス
 10
-53.9
 20
38.625
 70
     8
  0
VERTEX
  8
ガラス
 10
-53.925
 20
38.6
 70
     8
  0
VERTEX
  8
ガラス
 10
-53.925
 20
38.55
 70
     8
  0
VERTEX
  8
ガラス
 10
-53.95
 20
38.5
 70
     8
  0
VERTEX
  8
ガラス
 10
-53.95
 20
38.475
 70
     8
  0
VERTEX
  8
ガラス
 10
-53.95
 20
38.425
 70
     8
  0
VERTEX
  8
ガラス
 10
-53.975
 20
38.375
 70
     8
  0
VERTEX
  8
ガラス
 10
-53.975
 20
38.35
 70
     8
  0
VERTEX
  8
ガラス
 10
-54.0
 20
38.3
 70
     8
  0
VERTEX
  8
ガラス
 10
-54.0
 20
38.25
 70
     8
  0
VERTEX
  8
ガラス
 10
-54.0
 20
38.225
 70
     8
  0
VERTEX
  8
ガラス
 10
-54.025
 20
38.175
 70
     8
  0
VERTEX
  8
ガラス
 10
-54.025
 20
38.125
 70
     8
  0
VERTEX
  8
ガラス
 10
-54.025
 20
38.075
 70
     8
  0
VERTEX
  8
ガラス
 10
-54.025
 20
38.05
 70
     8
  0
VERTEX
  8
ガラス
 10
-54.05
 20
38.0
 70
     8
  0
VERTEX
  8
ガラス
 10
-54.05
 20
37.95
 70
     8
  0
VERTEX
  8
ガラス
 10
-54.05
 20
37.925
 70
     8
  0
VERTEX
  8
ガラス
 10
-54.05
 20
37.875
 70
     8
  0
VERTEX
  8
ガラス
 10
-54.05
 20
37.825
 70
     8
  0
VERTEX
  8
ガラス
 10
-54.05
 20
37.8
 70
     8
  0
VERTEX
  8
ガラス
 10
-54.05
 20
37.75
 70
     8
  0
VERTEX
  8
ガラス
 10
-54.05
 20
37.7
 70
     8
  0
VERTEX
  8
ガラス
 10
-54.075
 20
37.65
 70
     8
  0
VERTEX
  8
ガラス
 10
-54.075
 20
37.625
 70
     8
  0
VERTEX
  8
ガラス
 10
-54.075
 20
37.575
 70
     8
  0
VERTEX
  8
ガラス
 10
-54.075
 20
37.525
 70
     8
  0
VERTEX
  8
ガラス
 10
-54.075
 20
37.5
 70
     8
  0
VERTEX
  8
ガラス
 10
-54.075
 20
37.45
 70
     8
  0
VERTEX
  8
ガラス
 10
-54.075
 20
37.4
 70
     8
  0
VERTEX
  8
ガラス
 10
-54.075
 20
37.35
 70
     8
  0
VERTEX
  8
ガラス
 10
-54.075
 20
37.325
 70
     8
  0
VERTEX
  8
ガラス
 10
-54.075
 20
37.275
 70
     8
  0
VERTEX
  8
ガラス
 10
-54.075
 20
37.225
 70
     8
  0
SEQEND
  0
ARC
  8
ガラス
  6
CONTINUOUS
 10
-54.721685
 20
37.242052
 40
0.668594
 50
180.0
 51
360.0
  0
ENDBLK
  0
BLOCK
  2
*GRP_0020
 70
    65
 10
0.0
 20
0.0
  0
POLYLINE
  8
ガラス
  6
CONTINUOUS
 66
     1
 70
     4
  0
VERTEX
  8
ガラス
 10
-55.4
 20
18.425
 70
     8
  0
VERTEX
  8
ガラス
 10
-55.375
 20
18.475
 70
     8
  0
VERTEX
  8
ガラス
 10
-55.375
 20
18.55
 70
     8
  0
VERTEX
  8
ガラス
 10
-55.35
 20
18.625
 70
     8
  0
VERTEX
  8
ガラス
 10
-55.325
 20
18.675
 70
     8
  0
VERTEX
  8
ガラス
 10
-55.3
 20
18.75
 70
     8
  0
VERTEX
  8
ガラス
 10
-55.3
 20
18.8
 70
     8
  0
VERTEX
  8
ガラス
 10
-55.275
 20
18.85
 70
     8
  0
VERTEX
  8
ガラス
 10
-55.25
 20
18.925
 70
     8
  0
VERTEX
  8
ガラス
 10
-55.225
 20
18.975
 70
     8
  0
VERTEX
  8
ガラス
 10
-55.2
 20
19.05
 70
     8
  0
VERTEX
  8
ガラス
 10
-55.175
 20
19.1
 70
     8
  0
VERTEX
  8
ガラス
 10
-55.15
 20
19.15
 70
     8
  0
VERTEX
  8
ガラス
 10
-55.125
 20
19.2
 70
     8
  0
VERTEX
  8
ガラス
 10
-55.1
 20
19.25
 70
     8
  0
VERTEX
  8
ガラス
 10
-55.075
 20
19.325
 70
     8
  0
VERTEX
  8
ガラス
 10
-55.05
 20
19.375
 70
     8
  0
VERTEX
  8
ガラス
 10
-55.025
 20
19.425
 70
     8
  0
VERTEX
  8
ガラス
 10
-54.975
 20
19.45
 70
     8
  0
VERTEX
  8
ガラス
 10
-54.95
 20
19.5
 70
     8
  0
VERTEX
  8
ガラス
 10
-54.9
 20
19.55
 70
     8
  0
VERTEX
  8
ガラス
 10
-54.875
 20
19.6
 70
     8
  0
VERTEX
  8
ガラス
 10
-54.825
 20
19.625
 70
     8
  0
VERTEX
  8
ガラス
 10
-54.775
 20
19.675
 70
     8
  0
VERTEX
  8
ガラス
 10
-54.725
 20
19.7
 70
     8
  0
VERTEX
  8
ガラス
 10
-54.675
 20
19.75
 70
     8
  0
VERTEX
  8
ガラス
 10
-54.625
 20
19.775
 70
     8
  0
VERTEX
  8
ガラス
 10
-54.575
 20
19.8
 70
     8
  0
VERTEX
  8
ガラス
 10
-54.525
 20
19.825
 70
     8
  0
VERTEX
  8
ガラス
 10
-54.475
 20
19.85
 70
     8
  0
VERTEX
  8
ガラス
 10
-54.425
 20
19.9
 70
     8
  0
VERTEX
  8
ガラス
 10
-54.375
 20
19.925
 70
     8
  0
VERTEX
  8
ガラス
 10
-54.3
 20
19.95
 70
     8
  0
VERTEX
  8
ガラス
 10
-54.25
 20
19.975
 70
     8
  0
VERTEX
  8
ガラス
 10
-54.2
 20
19.975
 70
     8
  0
VERTEX
  8
ガラス
 10
-54.125
 20
20.0
 70
     8
  0
VERTEX
  8
ガラス
 10
-54.075
 20
20.025
 70
     8
  0
VERTEX
  8
ガラス
 10
-54.0
 20
20.05
 70
     8
  0
VERTEX
  8
ガラス
 10
-53.95
 20
20.075
 70
     8
  0
VERTEX
  8
ガラス
 10
-53.9
 20
20.1
 70
     8
  0
VERTEX
  8
ガラス
 10
-53.825
 20
20.125
 70
     8
  0
SEQEND
  0
POLYLINE
  8
ガラス
  6
CONTINUOUS
 66
     1
 70
     4
  0
VERTEX
  8
ガラス
 10
-53.825
 20
20.125
 70
     8
  0
VERTEX
  8
ガラス
 10
-53.85
 20
20.075
 70
     8
  0
VERTEX
  8
ガラス
 10
-53.85
 20
20.025
 70
     8
  0
VERTEX
  8
ガラス
 10
-53.85
 20
20.0
 70
     8
  0
VERTEX
  8
ガラス
 10
-53.875
 20
19.95
 70
     8
  0
VERTEX
  8
ガラス
 10
-53.875
 20
19.9
 70
     8
  0
VERTEX
  8
ガラス
 10
-53.9
 20
19.875
 70
     8
  0
VERTEX
  8
ガラス
 10
-53.9
 20
19.825
 70
     8
  0
VERTEX
  8
ガラス
 10
-53.925
 20
19.775
 70
     8
  0
VERTEX
  8
ガラス
 10
-53.925
 20
19.75
 70
     8
  0
VERTEX
  8
ガラス
 10
-53.95
 20
19.7
 70
     8
  0
VERTEX
  8
ガラス
 10
-53.95
 20
19.65
 70
     8
  0
VERTEX
  8
ガラス
 10
-53.95
 20
19.625
 70
     8
  0
VERTEX
  8
ガラス
 10
-53.975
 20
19.575
 70
     8
  0
VERTEX
  8
ガラス
 10
-53.975
 20
19.525
 70
     8
  0
VERTEX
  8
ガラス
 10
-54.0
 20
19.5
 70
     8
  0
VERTEX
  8
ガラス
 10
-54.0
 20
19.45
 70
     8
  0
VERTEX
  8
ガラス
 10
-54.0
 20
19.4
 70
     8
  0
VERTEX
  8
ガラス
 10
-54.025
 20
19.375
 70
     8
  0
VERTEX
  8
ガラス
 10
-54.025
 20
19.325
 70
     8
  0
VERTEX
  8
ガラス
 10
-54.025
 20
19.275
 70
     8
  0
VERTEX
  8
ガラス
 10
-54.025
 20
19.25
 70
     8
  0
VERTEX
  8
ガラス
 10
-54.05
 20
19.2
 70
     8
  0
VERTEX
  8
ガラス
 10
-54.05
 20
19.15
 70
     8
  0
VERTEX
  8
ガラス
 10
-54.05
 20
19.1
 70
     8
  0
VERTEX
  8
ガラス
 10
-54.05
 20
19.075
 70
     8
  0
VERTEX
  8
ガラス
 10
-54.05
 20
19.025
 70
     8
  0
VERTEX
  8
ガラス
 10
-54.05
 20
18.975
 70
     8
  0
VERTEX
  8
ガラス
 10
-54.05
 20
18.95
 70
     8
  0
VERTEX
  8
ガラス
 10
-54.05
 20
18.9
 70
     8
  0
VERTEX
  8
ガラス
 10
-54.075
 20
18.85
 70
     8
  0
VERTEX
  8
ガラス
 10
-54.075
 20
18.8
 70
     8
  0
VERTEX
  8
ガラス
 10
-54.075
 20
18.775
 70
     8
  0
VERTEX
  8
ガラス
 10
-54.075
 20
18.725
 70
     8
  0
VERTEX
  8
ガラス
 10
-54.075
 20
18.675
 70
     8
  0
VERTEX
  8
ガラス
 10
-54.075
 20
18.65
 70
     8
  0
VERTEX
  8
ガラス
 10
-54.075
 20
18.6
 70
     8
  0
VERTEX
  8
ガラス
 10
-54.075
 20
18.55
 70
     8
  0
VERTEX
  8
ガラス
 10
-54.075
 20
18.5
 70
     8
  0
VERTEX
  8
ガラス
 10
-54.075
 20
18.475
 70
     8
  0
VERTEX
  8
ガラス
 10
-54.075
 20
18.425
 70
     8
  0
SEQEND
  0
ARC
  8
ガラス
  6
CONTINUOUS
 10
-54.721685
 20
18.436906
 40
0.668594
 50
180.0
 51
360.0
  0
ENDBLK
  0
BLOCK
  2
*GRP_0021
 70
    65
 10
0.0
 20
0.0
  0
POLYLINE
  8
ガラス
  6
CONTINUOUS
 66
     1
 70
     4
  0
VERTEX
  8
ガラス
 10
-55.4
 20
1.05
 70
     8
  0
VERTEX
  8
ガラス
 10
-55.375
 20
1.1
 70
     8
  0
VERTEX
  8
ガラス
 10
-55.375
 20
1.175
 70
     8
  0
VERTEX
  8
ガラス
 10
-55.35
 20
1.225
 70
     8
  0
VERTEX
  8
ガラス
 10
-55.325
 20
1.3
 70
     8
  0
VERTEX
  8
ガラス
 10
-55.3
 20
1.35
 70
     8
  0
VERTEX
  8
ガラス
 10
-55.3
 20
1.425
 70
     8
  0
VERTEX
  8
ガラス
 10
-55.275
 20
1.475
 70
     8
  0
VERTEX
  8
ガラス
 10
-55.25
 20
1.525
 70
     8
  0
VERTEX
  8
ガラス
 10
-55.225
 20
1.6
 70
     8
  0
VERTEX
  8
ガラス
 10
-55.2
 20
1.65
 70
     8
  0
VERTEX
  8
ガラス
 10
-55.175
 20
1.7
 70
     8
  0
VERTEX
  8
ガラス
 10
-55.15
 20
1.775
 70
     8
  0
VERTEX
  8
ガラス
 10
-55.125
 20
1.825
 70
     8
  0
VERTEX
  8
ガラス
 10
-55.1
 20
1.875
 70
     8
  0
VERTEX
  8
ガラス
 10
-55.075
 20
1.925
 70
     8
  0
VERTEX
  8
ガラス
 10
-55.05
 20
1.975
 70
     8
  0
VERTEX
  8
ガラス
 10
-55.025
 20
2.025
 70
     8
  0
VERTEX
  8
ガラス
 10
-54.975
 20
2.075
 70
     8
  0
VERTEX
  8
ガラス
 10
-54.95
 20
2.125
 70
     8
  0
VERTEX
  8
ガラス
 10
-54.9
 20
2.175
 70
     8
  0
VERTEX
  8
ガラス
 10
-54.875
 20
2.2
 70
     8
  0
VERTEX
  8
ガラス
 10
-54.825
 20
2.25
 70
     8
  0
VERTEX
  8
ガラス
 10
-54.775
 20
2.275
 70
     8
  0
VERTEX
  8
ガラス
 10
-54.725
 20
2.325
 70
     8
  0
VERTEX
  8
ガラス
 10
-54.675
 20
2.35
 70
     8
  0
VERTEX
  8
ガラス
 10
-54.625
 20
2.4
 70
     8
  0
VERTEX
  8
ガラス
 10
-54.575
 20
2.425
 70
     8
  0
VERTEX
  8
ガラス
 10
-54.525
 20
2.45
 70
     8
  0
VERTEX
  8
ガラス
 10
-54.475
 20
2.475
 70
     8
  0
VERTEX
  8
ガラス
 10
-54.425
 20
2.5
 70
     8
  0
VERTEX
  8
ガラス
 10
-54.375
 20
2.525
 70
     8
  0
VERTEX
  8
ガラス
 10
-54.3
 20
2.55
 70
     8
  0
VERTEX
  8
ガラス
 10
-54.25
 20
2.575
 70
     8
  0
VERTEX
  8
ガラス
 10
-54.2
 20
2.6
 70
     8
  0
VERTEX
  8
ガラス
 10
-54.125
 20
2.625
 70
     8
  0
VERTEX
  8
ガラス
 10
-54.075
 20
2.65
 70
     8
  0
VERTEX
  8
ガラス
 10
-54.0
 20
2.675
 70
     8
  0
VERTEX
  8
ガラス
 10
-53.95
 20
2.7
 70
     8
  0
VERTEX
  8
ガラス
 10
-53.9
 20
2.7
 70
     8
  0
VERTEX
  8
ガラス
 10
-53.825
 20
2.725
 70
     8
  0
SEQEND
  0
POLYLINE
  8
ガラス
  6
CONTINUOUS
 66
     1
 70
     4
  0
VERTEX
  8
ガラス
 10
-53.825
 20
2.725
 70
     8
  0
VERTEX
  8
ガラス
 10
-53.85
 20
2.7
 70
     8
  0
VERTEX
  8
ガラス
 10
-53.85
 20
2.65
 70
     8
  0
VERTEX
  8
ガラス
 10
-53.85
 20
2.6
 70
     8
  0
VERTEX
  8
ガラス
 10
-53.875
 20
2.575
 70
     8
  0
VERTEX
  8
ガラス
 10
-53.875
 20
2.525
 70
     8
  0
VERTEX
  8
ガラス
 10
-53.9
 20
2.475
 70
     8
  0
VERTEX
  8
ガラス
 10
-53.9
 20
2.45
 70
     8
  0
VERTEX
  8
ガラス
 10
-53.925
 20
2.4
 70
     8
  0
VERTEX
  8
ガラス
 10
-53.925
 20
2.35
 70
     8
  0
VERTEX
  8
ガラス
 10
-53.95
 20
2.325
 70
     8
  0
VERTEX
  8
ガラス
 10
-53.95
 20
2.275
 70
     8
  0
VERTEX
  8
ガラス
 10
-53.95
 20
2.225
 70
     8
  0
VERTEX
  8
ガラス
 10
-53.975
 20
2.2
 70
     8
  0
VERTEX
  8
ガラス
 10
-53.975
 20
2.15
 70
     8
  0
VERTEX
  8
ガラス
 10
-54.0
 20
2.1
 70
     8
  0
VERTEX
  8
ガラス
 10
-54.0
 20
2.075
 70
     8
  0
VERTEX
  8
ガラス
 10
-54.0
 20
2.025
 70
     8
  0
VERTEX
  8
ガラス
 10
-54.025
 20
1.975
 70
     8
  0
VERTEX
  8
ガラス
 10
-54.025
 20
1.95
 70
     8
  0
VERTEX
  8
ガラス
 10
-54.025
 20
1.9
 70
     8
  0
VERTEX
  8
ガラス
 10
-54.025
 20
1.85
 70
     8
  0
VERTEX
  8
ガラス
 10
-54.05
 20
1.825
 70
     8
  0
VERTEX
  8
ガラス
 10
-54.05
 20
1.775
 70
     8
  0
VERTEX
  8
ガラス
 10
-54.05
 20
1.725
 70
     8
  0
VERTEX
  8
ガラス
 10
-54.05
 20
1.675
 70
     8
  0
VERTEX
  8
ガラス
 10
-54.05
 20
1.65
 70
     8
  0
VERTEX
  8
ガラス
 10
-54.05
 20
1.6
 70
     8
  0
VERTEX
  8
ガラス
 10
-54.05
 20
1.55
 70
     8
  0
VERTEX
  8
ガラス
 10
-54.05
 20
1.525
 70
     8
  0
VERTEX
  8
ガラス
 10
-54.075
 20
1.475
 70
     8
  0
VERTEX
  8
ガラス
 10
-54.075
 20
1.425
 70
     8
  0
VERTEX
  8
ガラス
 10
-54.075
 20
1.375
 70
     8
  0
VERTEX
  8
ガラス
 10
-54.075
 20
1.35
 70
     8
  0
VERTEX
  8
ガラス
 10
-54.075
 20
1.3
 70
     8
  0
VERTEX
  8
ガラス
 10
-54.075
 20
1.25
 70
     8
  0
VERTEX
  8
ガラス
 10
-54.075
 20
1.225
 70
     8
  0
VERTEX
  8
ガラス
 10
-54.075
 20
1.175
 70
     8
  0
VERTEX
  8
ガラス
 10
-54.075
 20
1.125
 70
     8
  0
VERTEX
  8
ガラス
 10
-54.075
 20
1.075
 70
     8
  0
VERTEX
  8
ガラス
 10
-54.075
 20
1.05
 70
     8
  0
SEQEND
  0
ARC
  8
ガラス
  6
CONTINUOUS
 10
-54.721685
 20
1.053464
 40
0.668594
 50
180.0
 51
360.0
  0
ENDBLK
  0
BLOCK
  2
*GRP_0022
 70
    65
 10
0.0
 20
0.0
  0
LINE
  8
ゴム等
  6
CONTINUOUS
 10
-26.451375
 20
-25.335815
 11
-26.951378
 21
-22.835818
  0
LINE
  8
ゴム等
  6
CONTINUOUS
 10
-21.151372
 20
-22.835818
 11
-21.651375
 21
-25.335815
  0
LINE
  8
ゴム等
  6
CONTINUOUS
 10
-19.051372
 20
-17.835815
 11
-19.051372
 21
-22.835818
  0
LINE
  8
ゴム等
  6
CONTINUOUS
 10
-29.051378
 20
-17.835815
 11
-29.051378
 21
-22.835818
  0
LINE
  8
ゴム等
  6
CONTINUOUS
 10
-26.451375
 20
-25.335815
 11
-21.651375
 21
-25.335815
  0
LINE
  8
ゴム等
  6
CONTINUOUS
 10
-19.051372
 20
-22.835818
 11
-21.151372
 21
-22.835818
  0
LINE
  8
ゴム等
  6
CONTINUOUS
 10
-26.951378
 20
-22.835818
 11
-29.051378
 21
-22.835818
  0
LINE
  8
ゴム等
  6
CONTINUOUS
 10
-24.051375
 20
-18.335818
 11
-23.551372
 21
-17.835815
  0
LINE
  8
ゴム等
  6
CONTINUOUS
 10
-24.051375
 20
-18.335818
 11
-24.551378
 21
-17.835815
  0
LINE
  8
ゴム等
  6
CONTINUOUS
 10
-29.051378
 20
-17.835815
 11
-24.551378
 21
-17.835815
  0
LINE
  8
ゴム等
  6
CONTINUOUS
 10
-23.551372
 20
-17.835815
 11
-19.051372
 21
-17.835815
  0
LINE
  8
ゴム等
  6
CONTINUOUS
 10
-29.051378
 20
-19.613502
 11
-23.329065
 21
-25.335815
  0
LINE
  8
ゴム等
  6
CONTINUOUS
 10
-28.707743
 20
-17.835815
 11
-21.577433
 21
-24.966118
  0
LINE
  8
ゴム等
  6
CONTINUOUS
 10
-26.58642
 20
-17.835815
 11
-21.223883
 21
-23.198352
  0
LINE
  8
ゴム等
  6
CONTINUOUS
 10
-24.008235
 20
-18.292677
 11
-19.465095
 21
-22.835818
  0
LINE
  8
ゴム等
  6
CONTINUOUS
 10
-20.22246
 20
-17.835815
 11
-19.051372
 21
-19.006902
  0
LINE
  8
ゴム等
  6
CONTINUOUS
 10
-22.343775
 20
-17.835815
 11
-19.051372
 21
-21.128218
  0
LINE
  8
ゴム等
  6
CONTINUOUS
 10
-29.051378
 20
-21.734818
 11
-27.950378
 21
-22.835818
  0
LINE
  8
ゴム等
  6
CONTINUOUS
 10
-26.701627
 20
-24.084567
 11
-25.45038
 21
-25.335815
  0
ENDBLK
  0
BLOCK
  2
*GRP_0023
 70
    65
 10
0.0
 20
0.0
  0
LINE
  8
ゴム等
  6
CONTINUOUS
 10
-59.051385
 20
48.064083
 11
-56.551387
 21
48.564077
  0
LINE
  8
ゴム等
  6
CONTINUOUS
 10
-56.551387
 20
42.76408
 11
-59.051385
 21
43.264083
  0
LINE
  8
ゴム等
  6
CONTINUOUS
 10
-51.551385
 20
40.664072
 11
-56.551387
 21
40.66408
  0
LINE
  8
ゴム等
  6
CONTINUOUS
 10
-51.551385
 20
50.664077
 11
-56.551387
 21
50.664077
  0
LINE
  8
ゴム等
  6
CONTINUOUS
 10
-59.051385
 20
48.064083
 11
-59.051385
 21
43.264083
  0
LINE
  8
ゴム等
  6
CONTINUOUS
 10
-56.551387
 20
40.66408
 11
-56.551387
 21
42.76408
  0
LINE
  8
ゴム等
  6
CONTINUOUS
 10
-56.551387
 20
48.564077
 11
-56.551387
 21
50.664077
  0
LINE
  8
ゴム等
  6
CONTINUOUS
 10
-52.051387
 20
45.664075
 11
-51.551385
 21
45.164072
  0
LINE
  8
ゴム等
  6
CONTINUOUS
 10
-52.051387
 20
45.664075
 11
-51.551385
 21
46.164077
  0
LINE
  8
ゴム等
  6
CONTINUOUS
 10
-51.551385
 20
50.664077
 11
-51.551385
 21
46.164077
  0
LINE
  8
ゴム等
  6
CONTINUOUS
 10
-51.551385
 20
45.164072
 11
-51.551385
 21
40.664072
  0
LINE
  8
ゴム等
  6
CONTINUOUS
 10
-53.329072
 20
50.664077
 11
-59.051385
 21
44.941772
  0
LINE
  8
ゴム等
  6
CONTINUOUS
 10
-51.551385
 20
50.320442
 11
-58.681688
 21
43.19014
  0
LINE
  8
ゴム等
  6
CONTINUOUS
 10
-51.551385
 20
48.19912
 11
-56.913922
 21
42.83659
  0
LINE
  8
ゴム等
  6
CONTINUOUS
 10
-52.008248
 20
45.620935
 11
-56.551387
 21
41.077795
  0
LINE
  8
ゴム等
  6
CONTINUOUS
 10
-51.551385
 20
41.83516
 11
-52.722473
 21
40.66408
  0
LINE
  8
ゴム等
  6
CONTINUOUS
 10
-51.551385
 20
43.956482
 11
-54.843787
 21
40.66408
  0
LINE
  8
ゴム等
  6
CONTINUOUS
 10
-55.450388
 20
50.664077
 11
-56.551387
 21
49.563077
  0
LINE
  8
ゴム等
  6
CONTINUOUS
 10
-57.800137
 20
48.314335
 11
-59.051385
 21
47.063088
  0
ENDBLK
  0
BLOCK
  2
*GRP_0024
 70
    65
 10
0.0
 20
0.0
  0
LINE
  8
ゴム等
  6
CONTINUOUS
 10
-43.751393
 20
55.66405
 11
-43.751393
 21
50.664048
  0
LINE
  8
ゴム等
  6
CONTINUOUS
 10
-43.751393
 20
55.66405
 11
-33.751395
 21
55.66405
  0
LINE
  8
ゴム等
  6
CONTINUOUS
 10
-33.751395
 20
55.66405
 11
-33.751395
 21
50.664048
  0
LINE
  8
ゴム等
  6
CONTINUOUS
 10
-43.751393
 20
50.664048
 11
-33.751395
 21
50.664048
  0
LINE
  8
ゴム等
  6
CONTINUOUS
 10
-33.751395
 20
51.994173
 11
-35.08152
 21
50.664048
  0
LINE
  8
ゴム等
  6
CONTINUOUS
 10
-33.751395
 20
53.408388
 11
-36.495735
 21
50.664048
  0
LINE
  8
ゴム等
  6
CONTINUOUS
 10
-33.751395
 20
54.822595
 11
-37.909943
 21
50.664048
  0
LINE
  8
ゴム等
  6
CONTINUOUS
 10
-37.152585
 20
55.66405
 11
-42.152588
 21
50.664048
  0
LINE
  8
ゴム等
  6
CONTINUOUS
 10
-35.73837
 20
55.66405
 11
-40.738372
 21
50.664048
  0
LINE
  8
ゴム等
  6
CONTINUOUS
 10
-34.324162
 20
55.66405
 11
-39.324157
 21
50.664048
  0
LINE
  8
ゴム等
  6
CONTINUOUS
 10
-38.5668
 20
55.66405
 11
-43.566802
 21
50.664048
  0
LINE
  8
ゴム等
  6
CONTINUOUS
 10
-39.981015
 20
55.66405
 11
-43.751393
 21
51.893665
  0
LINE
  8
ゴム等
  6
CONTINUOUS
 10
-41.395223
 20
55.66405
 11
-43.751393
 21
53.30788
  0
LINE
  8
ゴム等
  6
CONTINUOUS
 10
-42.809437
 20
55.66405
 11
-43.751393
 21
54.722095
  0
ENDBLK
  0
BLOCK
  2
*GRP_0025
 70
    65
 10
0.0
 20
0.0
  0
LINE
  8
ゴム等
  6
CONTINUOUS
 10
-6.751305
 20
43.16407
 11
-8.751307
 21
43.16407
  0
LINE
  8
ゴム等
  6
CONTINUOUS
 10
-16.751303
 20
43.16407
 11
-18.751305
 21
43.16407
  0
LINE
  8
ゴム等
  6
CONTINUOUS
 10
-16.751303
 20
43.16407
 11
-16.751303
 21
43.16407
  0
ARC
  8
ゴム等
  6
CONTINUOUS
 10
-16.251302
 20
43.164073
 40
0.5
 50
180.0
 51
270.0
  0
LINE
  8
ゴム等
  6
CONTINUOUS
 10
-9.251303
 20
42.664068
 11
-16.251307
 21
42.664068
  0
LINE
  8
ゴム等
  6
CONTINUOUS
 10
-8.751307
 20
43.16407
 11
-8.751307
 21
43.16407
  0
ARC
  8
ゴム等
  6
CONTINUOUS
 10
-9.251302
 20
43.164073
 40
0.5
 50
270.0
 51
360.0
  0
LINE
  8
ゴム等
  6
CONTINUOUS
 10
-18.751305
 20
43.16407
 11
-18.751305
 21
40.16407
  0
LINE
  8
ゴム等
  6
CONTINUOUS
 10
-6.751305
 20
43.16407
 11
-6.751305
 21
40.16407
  0
LINE
  8
ゴム等
  6
CONTINUOUS
 10
-10.351305
 20
38.36407
 11
-10.351305
 21
40.16407
  0
LINE
  8
ゴム等
  6
CONTINUOUS
 10
-6.751305
 20
40.16407
 11
-10.351305
 21
40.16407
  0
LINE
  8
ゴム等
  6
CONTINUOUS
 10
-15.151305
 20
38.36407
 11
-15.151305
 21
40.16407
  0
LINE
  8
ゴム等
  6
CONTINUOUS
 10
-18.751305
 20
40.16407
 11
-15.151305
 21
40.16407
  0
LINE
  8
ゴム等
  6
CONTINUOUS
 10
-15.151305
 20
38.36407
 11
-16.151303
 21
38.36407
  0
LINE
  8
ゴム等
  6
CONTINUOUS
 10
-16.151303
 20
38.36407
 11
-16.151303
 21
37.864068
  0
LINE
  8
ゴム等
  6
CONTINUOUS
 10
-10.351305
 20
38.36407
 11
-9.351307
 21
38.36407
  0
LINE
  8
ゴム等
  6
CONTINUOUS
 10
-9.351307
 20
37.864068
 11
-9.351307
 21
38.36407
  0
ARC
  8
ゴム等
  6
CONTINUOUS
 10
-12.751302
 20
37.564073
 40
1.0
 50
180.0
 51
270.0
  0
LINE
  8
ゴム等
  6
CONTINUOUS
 10
-12.751305
 20
36.56407
 11
-12.751305
 21
36.56407
  0
ARC
  8
ゴム等
  6
CONTINUOUS
 10
-12.751302
 20
37.564073
 40
1.0
 50
270.0
 51
360.0
  0
LINE
  8
ゴム等
  6
CONTINUOUS
 10
-11.751307
 20
39.164072
 11
-11.751307
 21
37.564068
  0
ARC
  8
ゴム等
  6
CONTINUOUS
 10
-12.751302
 20
39.164073
 40
1.0
 50
0.0
 51
90.0
  0
LINE
  8
ゴム等
  6
CONTINUOUS
 10
-12.751305
 20
40.16407
 11
-12.751305
 21
40.16407
  0
LINE
  8
ゴム等
  6
CONTINUOUS
 10
-13.751303
 20
39.164072
 11
-13.751303
 21
37.564068
  0
ARC
  8
ゴム等
  6
CONTINUOUS
 10
-12.751302
 20
39.164073
 40
1.0
 50
90.0
 51
180.0
  0
LINE
  8
ゴム等
  6
CONTINUOUS
 10
-6.922883
 20
40.16407
 11
-6.751305
 21
40.335648
  0
LINE
  8
ゴム等
  6
CONTINUOUS
 10
-18.065017
 20
43.16407
 11
-18.751305
 21
42.477782
  0
LINE
  8
ゴム等
  6
CONTINUOUS
 10
-16.742775
 20
43.072098
 11
-18.751305
 21
41.063567
  0
LINE
  8
ゴム等
  6
CONTINUOUS
 10
-15.736582
 20
42.664068
 11
-18.236588
 21
40.16407
  0
LINE
  8
ゴム等
  6
CONTINUOUS
 10
-14.322375
 20
42.664068
 11
-16.822372
 21
40.16407
  0
LINE
  8
ゴム等
  6
CONTINUOUS
 10
-12.90816
 20
42.664068
 11
-15.408158
 21
40.16407
  0
LINE
  8
ゴム等
  6
CONTINUOUS
 10
-15.151305
 20
39.006708
 11
-11.493945
 21
42.664068
  0
LINE
  8
ゴム等
  6
CONTINUOUS
 10
-15.793942
 20
38.36407
 11
-16.151303
 21
38.00671
  0
LINE
  8
ゴム等
  6
CONTINUOUS
 10
-6.751305
 20
41.749855
 11
-8.33709
 21
40.16407
  0
LINE
  8
ゴム等
  6
CONTINUOUS
 10
-10.13709
 20
38.36407
 11
-12.83709
 21
35.66407
  0
LINE
  8
ゴム等
  6
CONTINUOUS
 10
-6.751305
 20
43.16407
 11
-9.751305
 21
40.16407
  0
LINE
  8
ゴム等
  6
CONTINUOUS
 10
-11.814818
 20
39.514773
 11
-8.16552
 21
43.16407
  0
LINE
  8
ゴム等
  6
CONTINUOUS
 10
-12.592432
 20
40.151373
 11
-10.07973
 21
42.664068
  0
LINE
  8
ゴム等
  6
CONTINUOUS
 10
-10.351305
 20
39.56407
 11
-11.751307
 21
38.164068
  0
LINE
  8
ゴム等
  6
CONTINUOUS
 10
-13.751303
 20
38.992495
 11
-15.487875
 21
37.255923
  0
LINE
  8
ゴム等
  6
CONTINUOUS
 10
-13.751303
 20
37.578288
 11
-14.750025
 21
36.579565
  0
LINE
  8
ゴム等
  6
CONTINUOUS
 10
-13.229535
 20
36.68584
 11
-14.012175
 21
35.9032
  0
LINE
  8
ゴム等
  6
CONTINUOUS
 10
-16.151303
 20
37.864068
 11
-13.751303
 21
35.66407
  0
LINE
  8
ゴム等
  6
CONTINUOUS
 10
-9.351307
 20
37.864068
 11
-11.751307
 21
35.66407
  0
LINE
  8
ゴム等
  6
CONTINUOUS
 10
-13.751303
 20
35.66407
 11
-11.751307
 21
35.66407
  0
ENDBLK
  0
BLOCK
  2
*GRP_0026
 70
    65
 10
0.0
 20
0.0
  0
LINE
  8
ボルト／ビス
  6
CONTINUOUS
 62
    64
 10
-62.351393
 20
42.164065
 11
-63.399562
 21
42.255768
  0
ARC
  8
ボルト／ビス
  6
CONTINUOUS
 62
    64
 10
-63.251394
 20
43.949295
 40
1.7
 50
180.0
 51
265.000011
  0
LINE
  8
ボルト／ビス
  6
CONTINUOUS
 62
    64
 10
-64.951395
 20
43.949297
 11
-64.951395
 21
45.664068
  0
LINE
  8
ボルト／ビス
  6
CONTINUOUS
 62
    64
 10
-62.351393
 20
49.164063
 11
-63.399562
 21
49.07236
  0
ARC
  8
ボルト／ビス
  6
CONTINUOUS
 62
    64
 10
-63.251394
 20
47.378829
 40
1.7
 50
94.999989
 51
180.0
  0
LINE
  8
ボルト／ビス
  6
CONTINUOUS
 62
    64
 10
-64.951395
 20
47.37883
 11
-64.951395
 21
45.664068
  0
LINE
  8
ボルト／ビス
  6
CONTINUOUS
 62
    64
 10
-64.566488
 20
43.267427
 11
-64.808655
 21
43.267427
  0
LINE
  8
ボルト／ビス
  6
CONTINUOUS
 62
    64
 10
-63.91641
 20
44.964062
 11
-63.91641
 21
45.664068
  0
LINE
  8
ボルト／ビス
  6
CONTINUOUS
 62
    64
 10
-64.566488
 20
44.564065
 11
-64.566488
 21
43.267427
  0
LINE
  8
ボルト／ビス
  6
CONTINUOUS
 62
    64
 10
-63.91641
 20
44.964062
 11
-64.16649
 21
44.964062
  0
ARC
  8
ボルト／ビス
  6
CONTINUOUS
 62
    64
 10
-64.166489
 20
44.564062
 40
0.4
 50
90.0
 51
180.0
  0
LINE
  8
ボルト／ビス
  6
CONTINUOUS
 62
    64
 10
-64.566488
 20
48.060707
 11
-64.808655
 21
48.060707
  0
LINE
  8
ボルト／ビス
  6
CONTINUOUS
 62
    64
 10
-63.91641
 20
46.364065
 11
-63.91641
 21
45.664068
  0
LINE
  8
ボルト／ビス
  6
CONTINUOUS
 62
    64
 10
-64.566488
 20
46.764063
 11
-64.566488
 21
48.060707
  0
LINE
  8
ボルト／ビス
  6
CONTINUOUS
 62
    64
 10
-63.91641
 20
46.364065
 11
-64.16649
 21
46.364065
  0
ARC
  8
ボルト／ビス
  6
CONTINUOUS
 62
    64
 10
-64.166489
 20
46.764062
 40
0.4
 50
180.0
 51
270.0
  0
LINE
  8
ボルト／ビス
  6
CONTINUOUS
 62
    64
 10
-62.351393
 20
42.164065
 11
-62.351393
 21
49.164063
  0
LINE
  8
ボルト／ビス
  6
CONTINUOUS
 62
    64
 10
-66.922785
 20
45.664068
 11
-46.708125
 21
45.664068
  0
LINE
  8
ボルト／ビス
  6
CONTINUOUS
 62
    64
 10
-48.851393
 20
43.664065
 11
-48.351397
 21
44.164068
  0
LINE
  8
ボルト／ビス
  6
CONTINUOUS
 62
    64
 10
-48.851393
 20
47.664063
 11
-48.351397
 21
47.164068
  0
LINE
  8
ボルト／ビス
  6
CONTINUOUS
 62
    64
 10
-48.851393
 20
43.664065
 11
-48.851393
 21
47.664063
  0
LINE
  8
ボルト／ビス
  6
CONTINUOUS
 62
    64
 10
-48.351397
 20
44.164068
 11
-48.351397
 21
47.164068
  0
LINE
  8
ボルト／ビス
  6
CONTINUOUS
 62
    64
 10
-62.351393
 20
47.664063
 11
-48.851393
 21
47.664063
  0
LINE
  8
ボルト／ビス
  6
CONTINUOUS
 62
    64
 10
-62.351393
 20
43.664065
 11
-48.851393
 21
43.664065
  0
LINE
  8
ボルト／ビス
  6
CONTINUOUS
 62
    64
 10
-62.351393
 20
44.164068
 11
-48.351397
 21
44.164068
  0
LINE
  8
ボルト／ビス
  6
CONTINUOUS
 62
    64
 10
-62.351393
 20
47.164068
 11
-48.351397
 21
47.164068
  0
ENDBLK
  0
BLOCK
  2
*GRP_0027
 70
    65
 10
0.0
 20
0.0
  0
LINE
  8
ボルト／ビス
  6
CONTINUOUS
 62
    64
 10
-20.551372
 20
-27.335938
 11
-20.643075
 21
-28.384108
  0
ARC
  8
ボルト／ビス
  6
CONTINUOUS
 62
    64
 10
-22.336612
 20
-28.235934
 40
1.7
 50
270.0
 51
355.000011
  0
LINE
  8
ボルト／ビス
  6
CONTINUOUS
 62
    64
 10
-22.336605
 20
-29.93594
 11
-24.051375
 21
-29.93594
  0
LINE
  8
ボルト／ビス
  6
CONTINUOUS
 62
    64
 10
-27.55137
 20
-27.335938
 11
-27.459667
 21
-28.384108
  0
ARC
  8
ボルト／ビス
  6
CONTINUOUS
 62
    64
 10
-25.766145
 20
-28.235934
 40
1.7
 50
184.999989
 51
270.0
  0
LINE
  8
ボルト／ビス
  6
CONTINUOUS
 62
    64
 10
-25.766137
 20
-29.93594
 11
-24.051375
 21
-29.93594
  0
LINE
  8
ボルト／ビス
  6
CONTINUOUS
 62
    64
 10
-21.654735
 20
-29.551033
 11
-21.654735
 21
-29.7932
  0
LINE
  8
ボルト／ビス
  6
CONTINUOUS
 62
    64
 10
-23.35137
 20
-28.900955
 11
-24.051375
 21
-28.900955
  0
LINE
  8
ボルト／ビス
  6
CONTINUOUS
 62
    64
 10
-22.951372
 20
-29.551033
 11
-21.654735
 21
-29.551033
  0
LINE
  8
ボルト／ビス
  6
CONTINUOUS
 62
    64
 10
-23.35137
 20
-28.900955
 11
-23.35137
 21
-29.151035
  0
ARC
  8
ボルト／ビス
  6
CONTINUOUS
 62
    64
 10
-22.951379
 20
-29.151029
 40
0.4
 50
180.0
 51
270.0
  0
LINE
  8
ボルト／ビス
  6
CONTINUOUS
 62
    64
 10
-26.448015
 20
-29.551033
 11
-26.448015
 21
-29.7932
  0
LINE
  8
ボルト／ビス
  6
CONTINUOUS
 62
    64
 10
-24.751372
 20
-28.900955
 11
-24.051375
 21
-28.900955
  0
LINE
  8
ボルト／ビス
  6
CONTINUOUS
 62
    64
 10
-25.15137
 20
-29.551033
 11
-26.448015
 21
-29.551033
  0
LINE
  8
ボルト／ビス
  6
CONTINUOUS
 62
    64
 10
-24.751372
 20
-28.900955
 11
-24.751372
 21
-29.151035
  0
ARC
  8
ボルト／ビス
  6
CONTINUOUS
 62
    64
 10
-25.151379
 20
-29.151029
 40
0.4
 50
270.0
 51
360.0
  0
LINE
  8
ボルト／ビス
  6
CONTINUOUS
 62
    64
 10
-20.551372
 20
-27.335938
 11
-27.55137
 21
-27.335938
  0
LINE
  8
ボルト／ビス
  6
CONTINUOUS
 62
    64
 10
-24.051375
 20
-31.90733
 11
-24.051375
 21
-11.69267
  0
LINE
  8
ボルト／ビス
  6
CONTINUOUS
 62
    64
 10
-22.051372
 20
-13.835938
 11
-22.551375
 21
-13.335942
  0
LINE
  8
ボルト／ビス
  6
CONTINUOUS
 62
    64
 10
-26.05137
 20
-13.835938
 11
-25.551375
 21
-13.335942
  0
LINE
  8
ボルト／ビス
  6
CONTINUOUS
 62
    64
 10
-22.051372
 20
-13.835938
 11
-26.05137
 21
-13.835938
  0
LINE
  8
ボルト／ビス
  6
CONTINUOUS
 62
    64
 10
-22.551375
 20
-13.335942
 11
-25.551375
 21
-13.335942
  0
LINE
  8
ボルト／ビス
  6
CONTINUOUS
 62
    64
 10
-26.05137
 20
-27.335938
 11
-26.05137
 21
-13.835938
  0
LINE
  8
ボルト／ビス
  6
CONTINUOUS
 62
    64
 10
-22.051372
 20
-27.335938
 11
-22.051372
 21
-13.835938
  0
LINE
  8
ボルト／ビス
  6
CONTINUOUS
 62
    64
 10
-22.551375
 20
-27.335938
 11
-22.551375
 21
-13.335942
  0
LINE
  8
ボルト／ビス
  6
CONTINUOUS
 62
    64
 10
-25.551375
 20
-27.335938
 11
-25.551375
 21
-13.335942
  0
ENDBLK
  0
BLOCK
  2
*GRP_0028
 70
    65
 10
0.0
 20
0.0
  0
LINE
  8
ボルト／ビス
  6
CONTINUOUS
 62
    64
 10
1.14864
 20
-12.335862
 11
1.648642
 21
-11.83586
  0
LINE
  8
ボルト／ビス
  6
CONTINUOUS
 62
    64
 10
5.148638
 20
-12.335862
 11
4.648642
 21
-11.83586
  0
LINE
  8
ボルト／ビス
  6
CONTINUOUS
 62
    64
 10
1.648642
 20
-11.83586
 11
4.648642
 21
-11.83586
  0
LINE
  8
ボルト／ビス
  6
CONTINUOUS
 62
    64
 10
1.14864
 20
-12.335862
 11
5.148638
 21
-12.335862
  0
LINE
  8
ボルト／ビス
  6
CONTINUOUS
 62
    64
 10
1.14864
 20
-12.335862
 11
1.14864
 21
-16.03586
  0
LINE
  8
ボルト／ビス
  6
CONTINUOUS
 62
    64
 10
1.648642
 20
-11.83586
 11
1.648642
 21
-16.03586
  0
LINE
  8
ボルト／ビス
  6
CONTINUOUS
 62
    64
 10
4.648642
 20
-11.83586
 11
4.648642
 21
-16.03586
  0
LINE
  8
ボルト／ビス
  6
CONTINUOUS
 62
    64
 10
5.148638
 20
-12.335862
 11
5.148638
 21
-16.03586
  0
LINE
  8
ボルト／ビス
  6
CONTINUOUS
 62
    64
 10
1.14864
 20
-16.03586
 11
5.148638
 21
-16.03586
  0
LINE
  8
ボルト／ビス
  6
CONTINUOUS
 62
    64
 10
0.148642
 20
-17.83586
 11
1.14864
 21
-16.03586
  0
LINE
  8
ボルト／ビス
  6
CONTINUOUS
 62
    64
 10
0.148642
 20
-17.83586
 11
6.148642
 21
-17.83586
  0
LINE
  8
ボルト／ビス
  6
CONTINUOUS
 62
    64
 10
6.148642
 20
-17.83586
 11
5.148638
 21
-16.03586
  0
LINE
  8
ボルト／ビス
  6
CONTINUOUS
 62
    64
 10
3.148642
 20
-10.255385
 11
3.148642
 21
-19.319398
  0
ENDBLK
  0
BLOCK
  2
*GRP_0029
 70
    65
 10
0.0
 20
0.0
  0
LINE
  8
ボルト／ビス
  6
CONTINUOUS
 62
    64
 10
-26.051378
 20
-12.335818
 11
-25.551375
 21
-11.835815
  0
LINE
  8
ボルト／ビス
  6
CONTINUOUS
 62
    64
 10
-22.05138
 20
-12.335818
 11
-22.551375
 21
-11.835815
  0
LINE
  8
ボルト／ビス
  6
CONTINUOUS
 62
    64
 10
-25.551375
 20
-11.835815
 11
-22.551375
 21
-11.835815
  0
LINE
  8
ボルト／ビス
  6
CONTINUOUS
 62
    64
 10
-26.051378
 20
-12.335818
 11
-22.05138
 21
-12.335818
  0
LINE
  8
ボルト／ビス
  6
CONTINUOUS
 62
    64
 10
-26.051378
 20
-12.335818
 11
-26.051378
 21
-16.035815
  0
LINE
  8
ボルト／ビス
  6
CONTINUOUS
 62
    64
 10
-25.551375
 20
-11.835815
 11
-25.551375
 21
-16.035815
  0
LINE
  8
ボルト／ビス
  6
CONTINUOUS
 62
    64
 10
-22.551375
 20
-11.835815
 11
-22.551375
 21
-16.035815
  0
LINE
  8
ボルト／ビス
  6
CONTINUOUS
 62
    64
 10
-22.05138
 20
-12.335818
 11
-22.05138
 21
-16.035815
  0
LINE
  8
ボルト／ビス
  6
CONTINUOUS
 62
    64
 10
-26.051378
 20
-16.035815
 11
-22.05138
 21
-16.035815
  0
LINE
  8
ボルト／ビス
  6
CONTINUOUS
 62
    64
 10
-27.051375
 20
-17.835815
 11
-26.051378
 21
-16.035815
  0
LINE
  8
ボルト／ビス
  6
CONTINUOUS
 62
    64
 10
-27.051375
 20
-17.835815
 11
-21.051375
 21
-17.835815
  0
LINE
  8
ボルト／ビス
  6
CONTINUOUS
 62
    64
 10
-21.051375
 20
-17.835815
 11
-22.05138
 21
-16.035815
  0
LINE
  8
ボルト／ビス
  6
CONTINUOUS
 62
    64
 10
-24.051375
 20
-10.25534
 11
-24.051375
 21
-19.319352
  0
ENDBLK
  0
BLOCK
  2
*GRP_0030
 70
    65
 10
0.0
 20
0.0
  0
LINE
  8
ボルト／ビス
  6
CONTINUOUS
 10
-62.351393
 20
37.164122
 11
-62.351393
 21
31.164122
  0
LINE
  8
ボルト／ビス
  6
CONTINUOUS
 10
-62.351393
 20
37.164122
 11
-62.851395
 21
36.66412
  0
LINE
  8
ボルト／ビス
  6
CONTINUOUS
 10
-62.351393
 20
31.164122
 11
-62.851387
 21
31.664118
  0
LINE
  8
ボルト／ビス
  6
CONTINUOUS
 10
-62.851395
 20
36.66412
 11
-62.851387
 21
31.664118
  0
LINE
  8
ボルト／ビス
  6
CONTINUOUS
 10
-57.851393
 20
37.164122
 11
-57.851385
 21
31.164122
  0
LINE
  8
ボルト／ビス
  6
CONTINUOUS
 10
-62.351393
 20
36.164118
 11
-57.851393
 21
36.164118
  0
LINE
  8
ボルト／ビス
  6
CONTINUOUS
 10
-62.351393
 20
32.16412
 11
-57.851385
 21
32.16412
  0
LINE
  8
ボルト／ビス
  6
CONTINUOUS
 10
-57.051443
 20
37.164122
 11
-57.051443
 21
31.164122
  0
LINE
  8
ボルト／ビス
  6
CONTINUOUS
 10
-57.051443
 20
36.164118
 11
-57.051443
 21
36.164118
  0
ARC
  8
ボルト／ビス
  6
CONTINUOUS
 10
-57.051444
 20
35.664128
 40
0.5
 50
0.000036
 51
90.0
  0
LINE
  8
ボルト／ビス
  6
CONTINUOUS
 10
-56.551447
 20
35.664122
 11
-56.55144
 21
32.664122
  0
LINE
  8
ボルト／ビス
  6
CONTINUOUS
 10
-57.051443
 20
32.16412
 11
-57.051443
 21
32.16412
  0
ARC
  8
ボルト／ビス
  6
CONTINUOUS
 10
-57.051442
 20
32.664128
 40
0.5
 50
-90.0
 51
0.000041
  0
LINE
  8
ボルト／ビス
  6
CONTINUOUS
 10
-57.851393
 20
37.164122
 11
-57.051443
 21
37.164122
  0
LINE
  8
ボルト／ビス
  6
CONTINUOUS
 10
-57.851385
 20
31.164122
 11
-57.051443
 21
31.164122
  0
ENDBLK
  0
BLOCK
  2
*GRP_0031
 70
    65
 10
0.0
 20
0.0
  0
LINE
  8
ボルト／ビス
  6
CONTINUOUS
 10
-62.351393
 20
-16.835877
 11
-62.351393
 21
-22.835877
  0
LINE
  8
ボルト／ビス
  6
CONTINUOUS
 10
-62.351393
 20
-16.835877
 11
-62.851395
 21
-17.33588
  0
LINE
  8
ボルト／ビス
  6
CONTINUOUS
 10
-62.351393
 20
-22.835877
 11
-62.851387
 21
-22.335883
  0
LINE
  8
ボルト／ビス
  6
CONTINUOUS
 10
-62.851395
 20
-17.33588
 11
-62.851387
 21
-22.335883
  0
LINE
  8
ボルト／ビス
  6
CONTINUOUS
 10
-57.851393
 20
-16.835877
 11
-57.851385
 21
-22.835877
  0
LINE
  8
ボルト／ビス
  6
CONTINUOUS
 10
-62.351393
 20
-17.835883
 11
-57.851393
 21
-17.835883
  0
LINE
  8
ボルト／ビス
  6
CONTINUOUS
 10
-62.351393
 20
-21.83588
 11
-57.851385
 21
-21.83588
  0
LINE
  8
ボルト／ビス
  6
CONTINUOUS
 10
-57.051443
 20
-16.835877
 11
-57.051443
 21
-22.835877
  0
LINE
  8
ボルト／ビス
  6
CONTINUOUS
 10
-57.051443
 20
-17.835883
 11
-57.051443
 21
-17.835883
  0
ARC
  8
ボルト／ビス
  6
CONTINUOUS
 10
-57.051444
 20
-18.335872
 40
0.5
 50
0.000036
 51
90.0
  0
LINE
  8
ボルト／ビス
  6
CONTINUOUS
 10
-56.551447
 20
-18.335877
 11
-56.55144
 21
-21.335877
  0
LINE
  8
ボルト／ビス
  6
CONTINUOUS
 10
-57.051443
 20
-21.83588
 11
-57.051443
 21
-21.83588
  0
ARC
  8
ボルト／ビス
  6
CONTINUOUS
 10
-57.051442
 20
-21.335872
 40
0.5
 50
-90.0
 51
0.000041
  0
LINE
  8
ボルト／ビス
  6
CONTINUOUS
 10
-57.851393
 20
-16.835877
 11
-57.051443
 21
-16.835877
  0
LINE
  8
ボルト／ビス
  6
CONTINUOUS
 10
-57.851385
 20
-22.835877
 11
-57.051443
 21
-22.835877
  0
ENDBLK
  0
BLOCK
  2
*GRP_0032
 70
    65
 10
0.0
 20
0.0
  0
LINE
  8
ボルト／ビス
  6
CONTINUOUS
 62
    64
 10
-66.2514
 20
42.16405
 11
-67.299562
 21
42.072348
  0
ARC
  8
ボルト／ビス
  6
CONTINUOUS
 62
    64
 10
-67.151393
 20
40.378819
 40
1.7
 50
94.999989
 51
180.0
  0
LINE
  8
ボルト／ビス
  6
CONTINUOUS
 62
    64
 10
-68.851395
 20
40.378817
 11
-68.851395
 21
38.664048
  0
LINE
  8
ボルト／ビス
  6
CONTINUOUS
 62
    64
 10
-66.2514
 20
35.164053
 11
-67.299562
 21
35.255755
  0
ARC
  8
ボルト／ビス
  6
CONTINUOUS
 62
    64
 10
-67.151393
 20
36.949286
 40
1.7
 50
180.0
 51
265.000011
  0
LINE
  8
ボルト／ビス
  6
CONTINUOUS
 62
    64
 10
-68.851395
 20
36.949285
 11
-68.851395
 21
38.664048
  0
LINE
  8
ボルト／ビス
  6
CONTINUOUS
 62
    64
 10
-68.466495
 20
41.060687
 11
-68.708655
 21
41.060687
  0
LINE
  8
ボルト／ビス
  6
CONTINUOUS
 62
    64
 10
-67.81641
 20
39.364053
 11
-67.81641
 21
38.664048
  0
LINE
  8
ボルト／ビス
  6
CONTINUOUS
 62
    64
 10
-68.466495
 20
39.76405
 11
-68.466495
 21
41.060687
  0
LINE
  8
ボルト／ビス
  6
CONTINUOUS
 62
    64
 10
-67.81641
 20
39.364053
 11
-68.06649
 21
39.364053
  0
ARC
  8
ボルト／ビス
  6
CONTINUOUS
 62
    64
 10
-68.066488
 20
39.764052
 40
0.4
 50
180.0
 51
270.0
  0
LINE
  8
ボルト／ビス
  6
CONTINUOUS
 62
    64
 10
-68.466495
 20
36.267408
 11
-68.708655
 21
36.267408
  0
LINE
  8
ボルト／ビス
  6
CONTINUOUS
 62
    64
 10
-67.81641
 20
37.96405
 11
-67.81641
 21
38.664048
  0
LINE
  8
ボルト／ビス
  6
CONTINUOUS
 62
    64
 10
-68.466495
 20
37.564053
 11
-68.466495
 21
36.267408
  0
LINE
  8
ボルト／ビス
  6
CONTINUOUS
 62
    64
 10
-67.81641
 20
37.96405
 11
-68.06649
 21
37.96405
  0
ARC
  8
ボルト／ビス
  6
CONTINUOUS
 62
    64
 10
-68.066488
 20
37.564052
 40
0.4
 50
90.0
 51
180.0
  0
LINE
  8
ボルト／ビス
  6
CONTINUOUS
 62
    64
 10
-66.2514
 20
42.16405
 11
-66.2514
 21
35.164053
  0
LINE
  8
ボルト／ビス
  6
CONTINUOUS
 62
    64
 10
-54.751395
 20
40.66405
 11
-54.2514
 21
40.164048
  0
LINE
  8
ボルト／ビス
  6
CONTINUOUS
 62
    64
 10
-54.751395
 20
36.664053
 11
-54.2514
 21
37.164048
  0
LINE
  8
ボルト／ビス
  6
CONTINUOUS
 62
    64
 10
-54.751395
 20
40.66405
 11
-54.751395
 21
36.664053
  0
LINE
  8
ボルト／ビス
  6
CONTINUOUS
 62
    64
 10
-54.2514
 20
40.164048
 11
-54.2514
 21
37.164048
  0
LINE
  8
ボルト／ビス
  6
CONTINUOUS
 62
    64
 10
-66.2514
 20
40.164048
 11
-54.2514
 21
40.164048
  0
LINE
  8
ボルト／ビス
  6
CONTINUOUS
 62
    64
 10
-66.2514
 20
37.164048
 11
-54.2514
 21
37.164048
  0
LINE
  8
ボルト／ビス
  6
CONTINUOUS
 62
    64
 10
-66.2514
 20
36.664053
 11
-54.751395
 21
36.664053
  0
LINE
  8
ボルト／ビス
  6
CONTINUOUS
 62
    64
 10
-66.2514
 20
40.66405
 11
-54.751395
 21
40.66405
  0
LINE
  8
ボルト／ビス
  6
DASHDOT
 62
    64
 10
-71.851395
 20
38.664048
 11
-51.2514
 21
38.664048
  0
ENDBLK
  0
BLOCK
  2
*GRP_0033
 70
    65
 10
0.0
 20
0.0
  0
LINE
  8
ボルト／ビス
  6
CONTINUOUS
 62
    64
 10
-46.451632
 20
-58.635808
 11
-46.35993
 21
-59.68397
  0
ARC
  8
ボルト／ビス
  6
CONTINUOUS
 62
    64
 10
-44.666399
 20
-59.535806
 40
1.7
 50
184.999989
 51
270.0
  0
LINE
  8
ボルト／ビス
  6
CONTINUOUS
 62
    64
 10
-44.6664
 20
-61.23581
 11
-42.95163
 21
-61.23581
  0
LINE
  8
ボルト／ビス
  6
CONTINUOUS
 62
    64
 10
-39.451627
 20
-58.635808
 11
-39.54333
 21
-59.68397
  0
ARC
  8
ボルト／ビス
  6
CONTINUOUS
 62
    64
 10
-41.236866
 20
-59.535806
 40
1.7
 50
270.0
 51
355.000011
  0
LINE
  8
ボルト／ビス
  6
CONTINUOUS
 62
    64
 10
-41.23686
 20
-61.23581
 11
-42.95163
 21
-61.23581
  0
LINE
  8
ボルト／ビス
  6
CONTINUOUS
 62
    64
 10
-45.34827
 20
-60.850903
 11
-45.34827
 21
-61.093062
  0
LINE
  8
ボルト／ビス
  6
CONTINUOUS
 62
    64
 10
-43.651627
 20
-60.200817
 11
-42.95163
 21
-60.200817
  0
LINE
  8
ボルト／ビス
  6
CONTINUOUS
 62
    64
 10
-44.051632
 20
-60.850903
 11
-45.34827
 21
-60.850903
  0
LINE
  8
ボルト／ビス
  6
CONTINUOUS
 62
    64
 10
-43.651627
 20
-60.200817
 11
-43.651627
 21
-60.450905
  0
ARC
  8
ボルト／ビス
  6
CONTINUOUS
 62
    64
 10
-44.051632
 20
-60.450901
 40
0.4
 50
270.0
 51
360.0
  0
LINE
  8
ボルト／ビス
  6
CONTINUOUS
 62
    64
 10
-40.55499
 20
-60.850903
 11
-40.55499
 21
-61.093062
  0
LINE
  8
ボルト／ビス
  6
CONTINUOUS
 62
    64
 10
-42.251632
 20
-60.200817
 11
-42.95163
 21
-60.200817
  0
LINE
  8
ボルト／ビス
  6
CONTINUOUS
 62
    64
 10
-41.851627
 20
-60.850903
 11
-40.55499
 21
-60.850903
  0
LINE
  8
ボルト／ビス
  6
CONTINUOUS
 62
    64
 10
-42.251632
 20
-60.200817
 11
-42.251632
 21
-60.450905
  0
ARC
  8
ボルト／ビス
  6
CONTINUOUS
 62
    64
 10
-41.851632
 20
-60.450901
 40
0.4
 50
180.0
 51
270.0
  0
LINE
  8
ボルト／ビス
  6
CONTINUOUS
 62
    64
 10
-46.451632
 20
-58.635808
 11
-39.451627
 21
-58.635808
  0
LINE
  8
ボルト／ビス
  6
CONTINUOUS
 62
    64
 10
-44.951632
 20
-49.135805
 11
-44.45163
 21
-48.63581
  0
LINE
  8
ボルト／ビス
  6
CONTINUOUS
 62
    64
 10
-40.951627
 20
-49.135805
 11
-41.45163
 21
-48.63581
  0
LINE
  8
ボルト／ビス
  6
CONTINUOUS
 62
    64
 10
-44.951632
 20
-49.135805
 11
-40.951627
 21
-49.135805
  0
LINE
  8
ボルト／ビス
  6
CONTINUOUS
 62
    64
 10
-44.45163
 20
-48.63581
 11
-41.45163
 21
-48.63581
  0
LINE
  8
ボルト／ビス
  6
CONTINUOUS
 62
    64
 10
-42.95163
 20
-63.207193
 11
-42.95163
 21
-47.060938
  0
LINE
  8
ボルト／ビス
  6
CONTINUOUS
 62
    64
 10
-44.951632
 20
-58.635808
 11
-44.951632
 21
-49.135805
  0
LINE
  8
ボルト／ビス
  6
CONTINUOUS
 62
    64
 10
-40.951627
 20
-58.635808
 11
-40.951627
 21
-49.135805
  0
LINE
  8
ボルト／ビス
  6
CONTINUOUS
 62
    64
 10
-41.45163
 20
-58.635808
 11
-41.45163
 21
-48.63581
  0
LINE
  8
ボルト／ビス
  6
CONTINUOUS
 62
    64
 10
-44.45163
 20
-58.635808
 11
-44.45163
 21
-48.63581
  0
ENDBLK
  0
BLOCK
  2
*GRP_0034
 70
    65
 10
0.0
 20
0.0
  0
LINE
  8
ボルト／ビス
  6
CONTINUOUS
 62
    64
 10
-102.551648
 20
-57.03581
 11
-102.459945
 21
-58.083972
  0
ARC
  8
ボルト／ビス
  6
CONTINUOUS
 62
    64
 10
-100.766411
 20
-57.935805
 40
1.7
 50
184.999989
 51
270.0
  0
LINE
  8
ボルト／ビス
  6
CONTINUOUS
 62
    64
 10
-100.766415
 20
-59.635812
 11
-99.051645
 21
-59.635812
  0
LINE
  8
ボルト／ビス
  6
CONTINUOUS
 62
    64
 10
-95.551642
 20
-57.03581
 11
-95.643345
 21
-58.083972
  0
ARC
  8
ボルト／ビス
  6
CONTINUOUS
 62
    64
 10
-97.336878
 20
-57.935805
 40
1.7
 50
270.0
 51
355.000011
  0
LINE
  8
ボルト／ビス
  6
CONTINUOUS
 62
    64
 10
-97.336875
 20
-59.635812
 11
-99.051645
 21
-59.635812
  0
LINE
  8
ボルト／ビス
  6
CONTINUOUS
 62
    64
 10
-101.448285
 20
-59.250905
 11
-101.448285
 21
-59.493065
  0
LINE
  8
ボルト／ビス
  6
CONTINUOUS
 62
    64
 10
-99.751642
 20
-58.60082
 11
-99.051645
 21
-58.60082
  0
LINE
  8
ボルト／ビス
  6
CONTINUOUS
 62
    64
 10
-100.151648
 20
-59.250905
 11
-101.448285
 21
-59.250905
  0
LINE
  8
ボルト／ビス
  6
CONTINUOUS
 62
    64
 10
-99.751642
 20
-58.60082
 11
-99.751642
 21
-58.850907
  0
ARC
  8
ボルト／ビス
  6
CONTINUOUS
 62
    64
 10
-100.151644
 20
-58.8509
 40
0.4
 50
270.0
 51
360.0
  0
LINE
  8
ボルト／ビス
  6
CONTINUOUS
 62
    64
 10
-96.655005
 20
-59.250905
 11
-96.655005
 21
-59.493065
  0
LINE
  8
ボルト／ビス
  6
CONTINUOUS
 62
    64
 10
-98.351648
 20
-58.60082
 11
-99.051645
 21
-58.60082
  0
LINE
  8
ボルト／ビス
  6
CONTINUOUS
 62
    64
 10
-97.951642
 20
-59.250905
 11
-96.655005
 21
-59.250905
  0
LINE
  8
ボルト／ビス
  6
CONTINUOUS
 62
    64
 10
-98.351648
 20
-58.60082
 11
-98.351648
 21
-58.850907
  0
ARC
  8
ボルト／ビス
  6
CONTINUOUS
 62
    64
 10
-97.951644
 20
-58.8509
 40
0.4
 50
180.0
 51
270.0
  0
LINE
  8
ボルト／ビス
  6
CONTINUOUS
 62
    64
 10
-102.551648
 20
-57.03581
 11
-95.551642
 21
-57.03581
  0
LINE
  8
ボルト／ビス
  6
CONTINUOUS
 62
    64
 10
-101.051648
 20
-47.535808
 11
-100.551645
 21
-47.035812
  0
LINE
  8
ボルト／ビス
  6
CONTINUOUS
 62
    64
 10
-97.051642
 20
-47.535808
 11
-97.551645
 21
-47.035812
  0
LINE
  8
ボルト／ビス
  6
CONTINUOUS
 62
    64
 10
-101.051648
 20
-47.535808
 11
-97.051642
 21
-47.535808
  0
LINE
  8
ボルト／ビス
  6
CONTINUOUS
 62
    64
 10
-100.551645
 20
-47.035812
 11
-97.551645
 21
-47.035812
  0
LINE
  8
ボルト／ビス
  6
CONTINUOUS
 62
    64
 10
-99.051645
 20
-61.607195
 11
-99.051645
 21
-45.46094
  0
LINE
  8
ボルト／ビス
  6
CONTINUOUS
 62
    64
 10
-101.051648
 20
-57.03581
 11
-101.051648
 21
-47.535808
  0
LINE
  8
ボルト／ビス
  6
CONTINUOUS
 62
    64
 10
-97.051642
 20
-57.03581
 11
-97.051642
 21
-47.535808
  0
LINE
  8
ボルト／ビス
  6
CONTINUOUS
 62
    64
 10
-97.551645
 20
-57.03581
 11
-97.551645
 21
-47.035812
  0
LINE
  8
ボルト／ビス
  6
CONTINUOUS
 62
    64
 10
-100.551645
 20
-57.03581
 11
-100.551645
 21
-47.035812
  0
ENDBLK
  0
BLOCK
  2
*DIM_0035
 70
    65
 10
0.0
 20
0.0
  0
LINE
  8
寸法
  6
CONTINUOUS
 10
60.107963
 20
-2.33582
 11
60.107963
 21
32.664077
  0
POINT
  8
寸法
 10
60.107963
 20
-2.33582
  0
POINT
  8
寸法
 10
60.107963
 20
32.664077
  0
TEXT
  7
TextStyle03
  8
寸法
  6
CONTINUOUS
 10
59.7
 20
13.55625
  1
35
 40
3.0
 50
90.0
 72
     5
 11
59.7
 21
16.74375
  0
ENDBLK
  0
BLOCK
  2
*DIM_0036
 70
    65
 10
0.0
 20
0.0
  0
LINE
  8
寸法
  6
CONTINUOUS
 10
60.107963
 20
32.664077
 11
60.107963
 21
43.16407
  0
POINT
  8
寸法
 10
60.107963
 20
43.16407
  0
TEXT
  7
TextStyle03
  8
寸法
  6
CONTINUOUS
 10
59.7
 20
34.61875
  1
10.5
 40
3.0
 50
90.0
 72
     5
 11
59.7
 21
41.18125
  0
ENDBLK
  0
BLOCK
  2
*DIM_0037
 70
    65
 10
0.0
 20
0.0
  0
LINE
  8
寸法
  6
CONTINUOUS
 10
60.107963
 20
43.16407
 11
60.107963
 21
60.964075
  0
POINT
  8
寸法
 10
60.107963
 20
60.964075
  0
TEXT
  7
TextStyle03
  8
寸法
  6
CONTINUOUS
 10
59.7
 20
48.76875
  1
17.8
 40
3.0
 50
90.0
 72
     5
 11
59.7
 21
55.33125
  0
ENDBLK
  0
BLOCK
  2
*DIM_0038
 70
    65
 10
0.0
 20
0.0
  0
LINE
  8
寸法
  6
CONTINUOUS
 10
60.107963
 20
60.964075
 11
60.107963
 21
71.96407
  0
POINT
  8
寸法
 10
60.107963
 20
60.964075
  0
POINT
  8
寸法
 10
60.107963
 20
71.96407
  0
TEXT
  7
TextStyle03
  8
寸法
  6
CONTINUOUS
 10
59.725
 20
64.85625
  1
11
 40
3.0
 50
90.0
 72
     5
 11
59.725
 21
68.04375
  0
ENDBLK
  0
BLOCK
  2
*DIM_0039
 70
    65
 10
0.0
 20
0.0
  0
LINE
  8
寸法
  6
CONTINUOUS
 10
60.107963
 20
-2.33582
 11
60.107963
 21
-17.835875
  0
POINT
  8
寸法
 10
60.107963
 20
-2.33582
  0
POINT
  8
寸法
 10
60.107963
 20
-17.835875
  0
TEXT
  7
TextStyle03
  8
寸法
  6
CONTINUOUS
 10
59.7
 20
-13.38125
  1
15.5
 40
3.0
 50
90.0
 72
     5
 11
59.7
 21
-6.81875
  0
ENDBLK
  0
BLOCK
  2
*DIM_0040
 70
    65
 10
0.0
 20
0.0
  0
LINE
  8
寸法
  6
CONTINUOUS
 10
60.107963
 20
-17.835875
 11
60.107963
 21
-53.835935
  0
POINT
  8
寸法
 10
60.107963
 20
-53.835935
  0
TEXT
  7
TextStyle03
  8
寸法
  6
CONTINUOUS
 10
59.7
 20
-37.44375
  1
36
 40
3.0
 50
90.0
 72
     5
 11
59.7
 21
-34.25625
  0
ENDBLK
  0
BLOCK
  2
*DIM_0041
 70
    65
 10
0.0
 20
0.0
  0
LINE
  8
寸法
  6
CONTINUOUS
 10
60.107963
 20
71.96407
 11
60.107963
 21
75.164072
  0
POINT
  8
寸法
 10
60.107963
 20
75.164072
  0
TEXT
  7
TextStyle03
  8
寸法
  6
CONTINUOUS
 10
65.1
 20
71.4625
  1
3.2
 40
3.0
 50
90.0
 72
     5
 11
65.1
 21
76.3375
  0
ENDBLK
  0
BLOCK
  2
*DIM_0042
 70
    65
 10
0.0
 20
0.0
  0
LINE
  8
寸法
  6
CONTINUOUS
 10
-120.5514
 20
117.33943
 11
-25.551357
 21
117.33943
  0
POINT
  8
寸法
 10
-120.5514
 20
117.33943
  0
POINT
  8
寸法
 10
-25.551357
 20
117.33943
  0
TEXT
  7
TextStyle03
  8
寸法
  6
CONTINUOUS
 10
-74.66875
 20
117.7
  1
95
 40
3.0
 72
     5
 11
-71.48125
 21
117.7
  0
ENDBLK
  0
BLOCK
  2
*DIM_0043
 70
    65
 10
0.0
 20
0.0
  0
LINE
  8
寸法
  6
CONTINUOUS
 10
-77.947043
 20
107.33943
 11
-25.551357
 21
107.33943
  0
POINT
  8
寸法
 10
-77.947043
 20
107.33943
  0
POINT
  8
寸法
 10
-25.551357
 20
107.33943
  0
TEXT
  7
TextStyle03
  8
寸法
  6
CONTINUOUS
 10
-55.05625
 20
107.7
  1
52.4
 40
3.0
 72
     5
 11
-48.49375
 21
107.7
  0
ENDBLK
  0
BLOCK
  2
*DIM_0044
 70
    65
 10
0.0
 20
0.0
  0
LINE
  8
寸法
  6
CONTINUOUS
 10
-25.551357
 20
107.33943
 11
9.448642
 21
107.33943
  0
POINT
  8
寸法
 10
9.448642
 20
107.33943
  0
TEXT
  7
TextStyle03
  8
寸法
  6
CONTINUOUS
 10
-9.66875
 20
107.7
  1
35
 40
3.0
 72
     5
 11
-6.48125
 21
107.7
  0
ENDBLK
  0
BLOCK
  2
*DIM_0045
 70
    65
 10
0.0
 20
0.0
  0
LINE
  8
寸法
  6
CONTINUOUS
 10
-25.551357
 20
97.33943
 11
-2.947043
 21
97.33943
  0
POINT
  8
寸法
 10
-25.551357
 20
97.33943
  0
POINT
  8
寸法
 10
-2.947043
 20
97.33943
  0
TEXT
  7
TextStyle03
  8
寸法
  6
CONTINUOUS
 10
-17.55625
 20
97.7
  1
22.6
 40
3.0
 72
     5
 11
-10.99375
 21
97.7
  0
ENDBLK
  0
BLOCK
  2
*DIM_0046
 70
    65
 10
0.0
 20
0.0
  0
LINE
  8
寸法
  6
CONTINUOUS
 10
-2.947043
 20
97.33943
 11
9.448642
 21
97.33943
  0
POINT
  8
寸法
 10
9.448642
 20
97.33943
  0
TEXT
  7
TextStyle03
  8
寸法
  6
CONTINUOUS
 10
-0.05625
 20
97.7
  1
12.4
 40
3.0
 72
     5
 11
6.50625
 21
97.7
  0
ENDBLK
  0
BLOCK
  2
*DIM_0047
 70
    65
 10
0.0
 20
0.0
  0
LINE
  8
寸法
  6
BYBLOCK
 62
     0
 10
-120.5514
 20
-56.835935
 11
-120.5514
 21
-123.769278
  0
LINE
  8
寸法
  6
BYBLOCK
 62
     0
 10
-105.551648
 20
-66.83591
 11
-105.551648
 21
-123.769278
  0
LINE
  8
寸法
  6
BYBLOCK
 62
     0
 10
-120.5514
 20
-123.769278
 11
-105.551648
 21
-123.769278
  0
POINT
  8
寸法
 62
     0
 10
-120.5514
 20
-123.769278
  0
POINT
  8
寸法
 62
     0
 10
-105.551648
 20
-123.769278
  0
TEXT
  7
TextStyle03
  8
寸法
  6
CONTINUOUS
 62
     0
 10
-115.225
 20
-123.4
  1
15
 40
4.0
 72
     5
 11
-110.975
 21
-123.4
  0
ENDBLK
  0
BLOCK
  2
*DIM_0048
 70
    65
 10
0.0
 20
0.0
  0
LINE
  8
寸法
  6
BYBLOCK
 62
     0
 10
9.448642
 20
-20.835875
 11
9.448642
 21
-123.769278
  0
LINE
  8
寸法
  6
BYBLOCK
 62
     0
 10
-17.451487
 20
-123.769278
 11
9.448642
 21
-123.769278
  0
POINT
  8
寸法
 62
     0
 10
9.448642
 20
-123.769278
  0
TEXT
  7
TextStyle03
  8
寸法
  6
CONTINUOUS
 62
     0
 10
-6.175
 20
-123.4
  1
27
 40
4.0
 72
     5
 11
-1.925
 21
-123.4
  0
ENDBLK
  0
BLOCK
  2
*DIM_0049
 70
    65
 10
0.0
 20
0.0
  0
LINE
  8
寸法
  6
BYBLOCK
 62
     0
 10
-17.451487
 20
-28.63589
 11
-17.451487
 21
-123.769278
  0
LINE
  8
寸法
  6
BYBLOCK
 62
     0
 10
-105.551648
 20
-123.769278
 11
-17.451487
 21
-123.769278
  0
POINT
  8
寸法
 62
     0
 10
-17.451487
 20
-123.769278
  0
TEXT
  7
TextStyle03
  8
寸法
  6
CONTINUOUS
 62
     0
 10
-63.675
 20
-123.4
  1
88
 40
4.0
 72
     5
 11
-59.425
 21
-123.4
  0
ENDBLK
  0
BLOCK
  2
*GRP_0050
 70
    65
 10
0.0
 20
0.0
  0
LINE
  8
別途部材
  6
CONTINUOUS
 10
-77.947043
 20
70.16407
 11
-76.447043
 21
70.16407
  0
LINE
  8
別途部材
  6
CONTINUOUS
 10
-77.947043
 20
72.164072
 11
-77.947043
 21
70.16407
  0
ARC
  8
別途部材
  6
CONTINUOUS
 10
-74.947045
 20
72.164085
 40
3.0
 50
90.0
 51
180.0
  0
LINE
  8
別途部材
  6
CONTINUOUS
 10
-76.447043
 20
72.164072
 11
-76.447043
 21
70.16407
  0
ARC
  8
別途部材
  6
CONTINUOUS
 10
-74.947045
 20
72.164085
 40
1.5
 50
90.0
 51
180.0
  0
LINE
  8
別途部材
  6
CONTINUOUS
 10
-74.947043
 20
73.664072
 11
-73.251397
 21
73.664072
  0
LINE
  8
別途部材
  6
CONTINUOUS
 10
-10.947045
 20
71.96407
 11
-10.947045
 21
73.16407
  0
LINE
  8
別途部材
  6
CONTINUOUS
 10
-2.947043
 20
74.164075
 11
-2.947043
 21
71.96407
  0
ARC
  8
別途部材
  6
CONTINUOUS
 10
-3.947045
 20
74.164085
 40
1.0
 50
0.0
 51
90.0
  0
LINE
  8
別途部材
  6
CONTINUOUS
 10
-2.947043
 20
71.96407
 11
-10.947045
 21
71.96407
  0
LINE
  8
別途部材
  6
CONTINUOUS
 10
-74.947043
 20
75.164072
 11
-3.94704
 21
75.164072
  0
LINE
  8
別途部材
  6
CONTINUOUS
 10
-30.751395
 20
73.16407
 11
-10.947045
 21
73.16407
  0
ARC
  8
別途部材
  6
CONTINUOUS
 10
-30.751402
 20
70.164075
 40
3.0
 50
90.0
 51
180.0
  0
LINE
  8
別途部材
  6
CONTINUOUS
 10
-34.051395
 20
62.164053
 11
-33.751395
 21
62.464053
  0
LINE
  8
別途部材
  6
CONTINUOUS
 10
-34.051395
 20
62.164053
 11
-33.751395
 21
61.864053
  0
LINE
  8
別途部材
  6
CONTINUOUS
 10
-33.751395
 20
70.16407
 11
-33.751395
 21
62.464053
  0
LINE
  8
別途部材
  6
CONTINUOUS
 10
-33.751395
 20
61.864053
 11
-33.751395
 21
55.66405
  0
LINE
  8
別途部材
  6
CONTINUOUS
 10
-72.951397
 20
38.664048
 11
-73.251397
 21
38.964048
  0
LINE
  8
別途部材
  6
CONTINUOUS
 10
-72.951397
 20
38.664048
 11
-73.251397
 21
38.364048
  0
LINE
  8
別途部材
  6
CONTINUOUS
 10
-73.251397
 20
73.664072
 11
-73.251397
 21
38.964048
  0
LINE
  8
別途部材
  6
CONTINUOUS
 10
-73.251397
 20
38.364048
 11
-73.251397
 21
25.16407
  0
LINE
  8
別途部材
  6
CONTINUOUS
 10
-64.7514
 20
50.664048
 11
-64.7514
 21
33.664045
  0
LINE
  8
別途部材
  6
CONTINUOUS
 10
-66.2514
 20
33.664045
 11
-64.7514
 21
33.664045
  0
LINE
  8
別途部材
  6
CONTINUOUS
 10
-73.251397
 20
25.16407
 11
-71.751397
 21
25.16407
  0
LINE
  8
別途部材
  6
CONTINUOUS
 10
-64.7514
 20
50.664048
 11
-71.751397
 21
50.664048
  0
LINE
  8
別途部材
  6
CONTINUOUS
 10
-66.2514
 20
49.164048
 11
-71.751397
 21
49.164048
  0
LINE
  8
別途部材
  6
CONTINUOUS
 10
-71.751397
 20
49.164048
 11
-71.751397
 21
25.16407
  0
LINE
  8
別途部材
  6
CONTINUOUS
 10
-71.751397
 20
55.66405
 11
-71.751397
 21
50.664048
  0
LINE
  8
別途部材
  6
CONTINUOUS
 10
-65.9514
 20
38.664048
 11
-66.2514
 21
38.964048
  0
LINE
  8
別途部材
  6
CONTINUOUS
 10
-65.9514
 20
38.664048
 11
-66.2514
 21
38.364048
  0
LINE
  8
別途部材
  6
CONTINUOUS
 10
-66.2514
 20
49.164048
 11
-66.2514
 21
38.964048
  0
LINE
  8
別途部材
  6
CONTINUOUS
 10
-66.2514
 20
38.364048
 11
-66.2514
 21
33.664045
  0
LINE
  8
別途部材
  6
DOT
 10
-73.251397
 20
43.66405
 11
-71.751397
 21
43.66405
  0
LINE
  8
別途部材
  6
DOT
 10
-73.251397
 20
33.664045
 11
-71.751397
 21
33.664045
  0
LINE
  8
別途部材
  6
CONTINUOUS
 10
-71.751397
 20
73.664072
 11
-35.251395
 21
73.664072
  0
LINE
  8
別途部材
  6
DOT
 10
-72.876397
 20
43.66405
 11
-72.876397
 21
33.664045
  0
LINE
  8
別途部材
  6
DOT
 10
-72.501397
 20
43.66405
 11
-72.501397
 21
33.664045
  0
LINE
  8
別途部材
  6
DOT
 10
-72.126397
 20
43.66405
 11
-72.126397
 21
33.664045
  0
LINE
  8
別途部材
  6
CONTINUOUS
 10
-35.251395
 20
73.664072
 11
-35.251395
 21
57.16405
  0
LINE
  8
別途部材
  6
CONTINUOUS
 10
-71.751397
 20
73.664072
 11
-71.751397
 21
57.16405
  0
LINE
  8
別途部材
  6
CONTINUOUS
 10
-35.251395
 20
57.16405
 11
-71.751397
 21
57.16405
  0
LINE
  8
別途部材
  6
CONTINUOUS
 10
-57.001403
 20
55.96405
 11
-56.701403
 21
55.66405
  0
LINE
  8
別途部材
  6
CONTINUOUS
 10
-57.001403
 20
55.96405
 11
-57.301403
 21
55.66405
  0
LINE
  8
別途部材
  6
CONTINUOUS
 10
-44.5014
 20
55.96405
 11
-44.2014
 21
55.66405
  0
LINE
  8
別途部材
  6
CONTINUOUS
 10
-44.5014
 20
55.96405
 11
-44.8014
 21
55.66405
  0
LINE
  8
別途部材
  6
CONTINUOUS
 10
-56.701403
 20
55.66405
 11
-44.8014
 21
55.66405
  0
LINE
  8
別途部材
  6
CONTINUOUS
 10
-33.751395
 20
55.66405
 11
-44.2014
 21
55.66405
  0
LINE
  8
別途部材
  6
CONTINUOUS
 10
-71.751397
 20
55.66405
 11
-57.301403
 21
55.66405
  0
ENDBLK
  0
BLOCK
  2
*GRP_0051
 70
    65
 10
0.0
 20
0.0
  0
LINE
  8
曲げ物
  6
CONTINUOUS
 10
-36.751395
 20
65.664048
 11
-36.751395
 21
58.66405
  0
LINE
  8
曲げ物
  6
CONTINUOUS
 10
-36.751395
 20
58.66405
 11
-63.751395
 21
58.66405
  0
LINE
  8
曲げ物
  6
CONTINUOUS
 10
-63.751395
 20
58.66405
 11
-63.751395
 21
65.664048
  0
LINE
  8
曲げ物
  6
CONTINUOUS
 10
-36.751395
 20
65.664048
 11
-63.751395
 21
65.664048
  0
LINE
  8
曲げ物
  6
CONTINUOUS
 10
-65.251395
 20
67.164048
 11
-65.251395
 21
57.16405
  0
LINE
  8
曲げ物
  6
CONTINUOUS
 10
-65.251395
 20
57.16405
 11
-35.251395
 21
57.16405
  0
LINE
  8
曲げ物
  6
CONTINUOUS
 10
-35.251395
 20
57.16405
 11
-35.251395
 21
67.164048
  0
LINE
  8
曲げ物
  6
CONTINUOUS
 10
-65.251395
 20
67.164048
 11
-35.251395
 21
67.164048
  0
ENDBLK
  0
BLOCK
  2
*GRP_0052
 70
    65
 10
0.0
 20
0.0
  0
LINE
  8
St
  6
CONTINUOUS
 10
-113.9514
 20
-50.235935
 11
-55.95882
 21
-50.235935
  0
ARC
  8
St
  6
CONTINUOUS
 10
-55.950394
 20
-50.235934
 40
1.6
 50
-90.0
 51
0.0
  0
LINE
  8
St
  6
CONTINUOUS
 10
-86.983995
 20
-51.835933
 11
-85.38399
 21
-50.235935
  0
LINE
  8
St
  6
CONTINUOUS
 10
-86.276887
 20
-51.835933
 11
-84.676883
 21
-50.235935
  0
LINE
  8
St
  6
CONTINUOUS
 10
-59.962717
 20
-51.835933
 11
-58.362713
 21
-50.235935
  0
LINE
  8
St
  6
CONTINUOUS
 10
-59.25561
 20
-51.835933
 11
-57.655605
 21
-50.235935
  0
LINE
  8
St
  6
CONTINUOUS
 10
-113.9514
 20
-51.835933
 11
-113.9514
 21
-44.819293
  0
LINE
  8
St
  6
CONTINUOUS
 10
-115.551397
 20
-51.835933
 11
-115.551397
 21
-44.8193
  0
ARC
  8
St
  6
CONTINUOUS
 10
-113.951401
 20
-44.819298
 40
1.6
 50
94.332724
 51
180.0
  0
LINE
  8
St
  6
CONTINUOUS
 10
-36.463282
 20
-37.34384
 11
-36.463282
 21
-38.948427
  0
LINE
  8
St
  6
CONTINUOUS
 10
-55.95882
 20
-50.235935
 11
-55.95882
 21
-40.4255
  0
LINE
  8
St
  6
CONTINUOUS
 10
-54.350392
 20
-51.835933
 11
-54.350392
 21
-40.30364
  0
LINE
  8
St
  6
CONTINUOUS
 10
-56.823592
 20
-38.886432
 11
-58.559723
 21
-40.622563
  0
LINE
  8
St
  6
CONTINUOUS
 10
-57.588667
 20
-38.9444
 11
-59.324798
 21
-40.680523
  0
LINE
  8
St
  6
CONTINUOUS
 10
-84.308205
 20
-40.9688
 11
-86.044335
 21
-42.704922
  0
LINE
  8
St
  6
CONTINUOUS
 10
-85.07328
 20
-41.026768
 11
-86.80941
 21
-42.76289
  0
LINE
  8
St
  6
CONTINUOUS
 10
-114.072278
 20
-43.22387
 11
-36.463282
 21
-37.34384
  0
LINE
  8
St
  6
CONTINUOUS
 10
-113.9514
 20
-44.819293
 11
-36.463282
 21
-38.948427
  0
LINE
  8
St
  6
CONTINUOUS
 10
-115.551397
 20
-51.835933
 11
-54.350392
 21
-51.835933
  0
ENDBLK
  0
BLOCK
  2
*GRP_0053
 70
    65
 10
0.0
 20
0.0
  0
LINE
  8
St
  6
CONTINUOUS
 10
-75.356992
 20
-93.83591
 11
-78.556995
 21
-93.83591
  0
LINE
  8
St
  6
CONTINUOUS
 10
-75.356992
 20
-83.835905
 11
-78.556995
 21
-83.835905
  0
LINE
  8
St
  6
CONTINUOUS
 62
   127
 10
-104.069505
 20
-57.03581
 11
-104.051648
 21
-53.835808
  0
LINE
  8
St
  6
CONTINUOUS
 10
-53.634083
 20
-53.835808
 11
-56.834077
 21
-57.03581
  0
LINE
  8
St
  6
CONTINUOUS
 10
-54.34119
 20
-53.835808
 11
-57.541185
 21
-57.03581
  0
LINE
  8
St
  6
CONTINUOUS
 10
-82.275555
 20
-53.835808
 11
-85.47555
 21
-57.03581
  0
LINE
  8
St
  6
CONTINUOUS
 10
-82.982662
 20
-53.835808
 11
-86.182658
 21
-57.03581
  0
LINE
  8
St
  6
CONTINUOUS
 62
   127
 10
-104.172443
 20
-53.835808
 11
-32.551403
 21
-53.835808
  0
LINE
  8
St
  6
CONTINUOUS
 62
   127
 10
-104.069505
 20
-57.03581
 11
-32.551403
 21
-57.03581
  0
LINE
  8
St
  6
CONTINUOUS
 10
-32.551403
 20
-53.835935
 11
-32.551403
 21
-57.03581
  0
ARC
  8
St
  6
CONTINUOUS
 62
   127
 10
-75.356992
 20
-57.035916
 40
3.2
 50
90.0
 51
180.0
  0
LINE
  8
St
  6
CONTINUOUS
 10
-45.20163
 20
-53.835808
 11
-45.20163
 21
-57.03581
  0
LINE
  8
St
  6
CONTINUOUS
 10
-40.70163
 20
-53.835808
 11
-40.70163
 21
-57.03581
  0
LINE
  8
St
  6
CONTINUOUS
 10
-40.70163
 20
-54.63581
 11
-45.20163
 21
-54.63581
  0
LINE
  8
St
  6
CONTINUOUS
 10
-40.70163
 20
-55.435805
 11
-45.20163
 21
-55.435805
  0
LINE
  8
St
  6
CONTINUOUS
 10
-40.70163
 20
-56.235808
 11
-45.20163
 21
-56.235808
  0
LINE
  8
St
  6
CONTINUOUS
 10
-42.95163
 20
-60.086683
 11
-42.95163
 21
-50.614048
  0
LINE
  8
St
  6
CONTINUOUS
 10
-101.301645
 20
-53.835808
 11
-101.301645
 21
-57.03581
  0
LINE
  8
St
  6
CONTINUOUS
 10
-96.801645
 20
-53.835808
 11
-96.801645
 21
-57.03581
  0
LINE
  8
St
  6
CONTINUOUS
 10
-96.801645
 20
-54.63581
 11
-101.301645
 21
-54.63581
  0
LINE
  8
St
  6
CONTINUOUS
 10
-96.801645
 20
-55.435805
 11
-101.301645
 21
-55.435805
  0
LINE
  8
St
  6
CONTINUOUS
 10
-96.801645
 20
-56.235808
 11
-101.301645
 21
-56.235808
  0
LINE
  8
St
  6
CONTINUOUS
 10
-99.051645
 20
-60.086683
 11
-99.051645
 21
-50.614048
  0
LINE
  8
St
  6
CONTINUOUS
 10
-70.18533
 20
-88.835908
 11
-84.022508
 21
-88.835908
  0
LINE
  8
St
  6
CONTINUOUS
 10
-75.356992
 20
-103.83581
 11
-78.556995
 21
-103.83581
  0
LINE
  8
St
  6
CONTINUOUS
 62
   127
 10
-75.356992
 20
-57.035923
 11
-75.356992
 21
-103.83581
  0
LINE
  8
St
  6
CONTINUOUS
 62
   127
 10
-78.556995
 20
-57.035923
 11
-78.556995
 21
-103.83581
  0
LINE
  8
St
  6
CONTINUOUS
 62
   127
 10
-76.156995
 20
-83.835905
 11
-76.156995
 21
-93.83591
  0
LINE
  8
St
  6
CONTINUOUS
 62
   127
 10
-76.95699
 20
-83.835905
 11
-76.95699
 21
-93.83591
  0
LINE
  8
St
  6
CONTINUOUS
 62
   127
 10
-77.756992
 20
-83.835905
 11
-77.756992
 21
-93.83591
  0
ENDBLK
  0
BLOCK
  2
*DIM_0054
 70
    65
 10
0.0
 20
0.0
  0
LINE
  8
寸法
  6
CONTINUOUS
 10
-167.224838
 20
75.164072
 11
-167.224838
 21
-53.835935
  0
POINT
  8
寸法
 10
-167.224838
 20
75.164072
  0
POINT
  8
寸法
 10
-167.224838
 20
-53.835935
  0
TEXT
  7
TextStyle03
  8
寸法
  6
CONTINUOUS
 10
-167.6
 20
8.2125
  1
129
 40
3.0
 50
90.0
 72
     5
 11
-167.6
 21
13.0875
  0
ENDBLK
  0
BLOCK
  2
*DIM_0055
 70
    65
 10
0.0
 20
0.0
  0
LINE
  8
寸法
  6
CONTINUOUS
 10
-167.224838
 20
-53.835935
 11
-167.224838
 21
-63.83591
  0
POINT
  8
寸法
 10
-167.224838
 20
-63.83591
  0
TEXT
  7
TextStyle03
  8
寸法
  6
CONTINUOUS
 10
-167.6
 20
-60.44375
  1
10
 40
3.0
 50
90.0
 72
     5
 11
-167.6
 21
-57.25625
  0
ENDBLK
  0
BLOCK
  2
*DIM_0056
 70
    65
 10
0.0
 20
0.0
  0
LINE
  8
寸法
  6
CONTINUOUS
 10
-157.224838
 20
-53.835935
 11
-157.224838
 21
-38.835935
  0
POINT
  8
寸法
 10
-157.224838
 20
-53.835935
  0
POINT
  8
寸法
 10
-157.224838
 20
-38.835935
  0
TEXT
  7
TextStyle03
  8
寸法
  6
CONTINUOUS
 10
-157.6
 20
-47.94375
  1
15
 40
3.0
 50
90.0
 72
     5
 11
-157.6
 21
-44.75625
  0
ENDBLK
  0
BLOCK
  2
*DIM_0057
 70
    65
 10
0.0
 20
0.0
  0
LINE
  8
寸法
  6
CONTINUOUS
 10
-157.224838
 20
-38.835935
 11
-157.224838
 21
25.16407
  0
POINT
  8
寸法
 10
-157.224838
 20
25.16407
  0
TEXT
  7
TextStyle03
  8
寸法
  6
CONTINUOUS
 10
-157.6
 20
-8.44375
  1
64
 40
3.0
 50
90.0
 72
     5
 11
-157.6
 21
-5.25625
  0
ENDBLK
  0
BLOCK
  2
*DIM_0058
 70
    65
 10
0.0
 20
0.0
  0
LINE
  8
寸法
  6
CONTINUOUS
 10
-157.224838
 20
25.16407
 11
-157.224838
 21
75.164072
  0
POINT
  8
寸法
 10
-157.224838
 20
75.164072
  0
TEXT
  7
TextStyle03
  8
寸法
  6
CONTINUOUS
 10
-157.6
 20
48.55625
  1
50
 40
3.0
 50
90.0
 72
     5
 11
-157.6
 21
51.74375
  0
ENDBLK
  0
BLOCK
  2
*DIM_0059
 70
    65
 10
0.0
 20
0.0
  0
LINE
  8
寸法
  6
CONTINUOUS
 10
-147.224838
 20
-38.835935
 11
-147.224838
 21
-33.83588
  0
POINT
  8
寸法
 10
-147.224838
 20
-38.835935
  0
POINT
  8
寸法
 10
-147.224838
 20
-33.83588
  0
TEXT
  7
TextStyle03
  8
寸法
  6
CONTINUOUS
 10
-147.6
 20
-37.1
  1
5
 40
3.0
 50
90.0
 72
     5
 11
-147.6
 21
-35.6
  0
ENDBLK
  0
BLOCK
  2
*GRP_0060
 70
    65
 10
0.0
 20
0.0
  0
POLYLINE
  8
寸法
  6
CONTINUOUS
 66
     1
  0
VERTEX
  8
寸法
 10
-54.149593
 20
42.430708
  0
VERTEX
  8
寸法
 10
-77.71031
 20
18.86999
  0
VERTEX
  8
寸法
 10
-83.981885
 20
18.86999
  0
SEQEND
  0
ENDBLK
  0
BLOCK
  2
*GRP_0061
 70
    65
 10
0.0
 20
0.0
  0
POLYLINE
  8
寸法
  6
BYBLOCK
 62
     0
 66
     1
  0
VERTEX
  8
寸法
 10
-59.37272
 20
15.469518
  0
VERTEX
  8
寸法
 10
-68.549505
 20
6.29273
  0
VERTEX
  8
寸法
 10
-71.938025
 20
6.29273
  0
SEQEND
  0
ENDBLK
  0
BLOCK
  2
*GRP_0062
 70
    65
 10
0.0
 20
0.0
  0
POLYLINE
  8
寸法
  6
CONTINUOUS
 62
     0
 66
     1
  0
VERTEX
  8
寸法
 10
-62.85139
 20
-19.835883
  0
VERTEX
  8
寸法
 10
-70.285182
 20
-12.402092
  0
VERTEX
  8
寸法
 10
-74.933093
 20
-12.402092
  0
SEQEND
  0
ENDBLK
  0
BLOCK
  2
*GRP_0063
 70
    65
 10
0.0
 20
0.0
  0
POLYLINE
  8
寸法
  6
BYBLOCK
 62
     0
 66
     1
  0
VERTEX
  8
寸法
 10
-61.770612
 20
-29.8678
  0
VERTEX
  8
寸法
 10
-64.84624
 20
-26.792173
  0
VERTEX
  8
寸法
 10
-74.39568
 20
-26.792173
  0
SEQEND
  0
ENDBLK
  0
BLOCK
  2
*GRP_0064
 70
    65
 10
0.0
 20
0.0
  0
POLYLINE
  8
寸法
  6
BYBLOCK
 62
     0
 66
     1
  0
VERTEX
  8
寸法
 10
-117.353492
 20
-50.47099
  0
VERTEX
  8
寸法
 10
-124.126198
 20
-57.243695
  0
VERTEX
  8
寸法
 10
-128.053748
 20
-57.243695
  0
SEQEND
  0
ENDBLK
  0
BLOCK
  2
*GRP_0065
 70
    65
 10
0.0
 20
0.0
  0
POLYLINE
  8
寸法
  6
BYBLOCK
 62
     0
 66
     1
  0
VERTEX
  8
寸法
 10
-72.411498
 20
-51.150882
  0
VERTEX
  8
寸法
 10
-63.550273
 20
-76.283025
  0
VERTEX
  8
寸法
 10
-60.182925
 20
-76.283025
  0
SEQEND
  0
ENDBLK
  0
BLOCK
  2
*GRP_0066
 70
    65
 10
0.0
 20
0.0
  0
POLYLINE
  8
寸法
  6
BYBLOCK
 62
     0
 66
     1
  0
VERTEX
  8
寸法
 10
-32.4045
 20
-30.206615
  0
VERTEX
  8
寸法
 10
-23.091255
 20
-47.990308
  0
VERTEX
  8
寸法
 10
13.779663
 20
-47.990308
  0
SEQEND
  0
ENDBLK
  0
BLOCK
  2
*GRP_0067
 70
    65
 10
0.0
 20
0.0
  0
POLYLINE
  8
寸法
  6
BYBLOCK
 62
     0
 66
     1
  0
VERTEX
  8
寸法
 10
-19.051372
 20
-20.335818
  0
VERTEX
  8
寸法
 10
-0.83514
 20
-38.55205
  0
VERTEX
  8
寸法
 10
13.565378
 20
-38.55205
  0
SEQEND
  0
ENDBLK
  0
BLOCK
  2
*GRP_0068
 70
    65
 10
0.0
 20
0.0
  0
POLYLINE
  8
寸法
  6
BYBLOCK
 62
     0
 66
     1
  0
VERTEX
  8
寸法
 10
-11.42799
 20
-15.606635
  0
VERTEX
  8
寸法
 10
1.811808
 20
-28.84643
  0
VERTEX
  8
寸法
 10
13.14752
 20
-28.84643
  0
SEQEND
  0
ENDBLK
  0
BLOCK
  2
*GRP_0069
 70
    65
 10
0.0
 20
0.0
  0
POLYLINE
  8
寸法
  6
BYBLOCK
 62
     0
 66
     1
  0
VERTEX
  8
寸法
 10
0.51836
 20
-13.005357
  0
VERTEX
  8
寸法
 10
12.244125
 20
3.680612
  0
VERTEX
  8
寸法
 10
20.15739
 20
3.680612
  0
SEQEND
  0
ENDBLK
  0
ENDSEC
  0
SECTION
  2
ENTITIES
  0
POLYLINE
  8
通り芯
  6
CONTINUOUS
 66
     1
 70
     1
  0
VERTEX
  8
通り芯
 10
-210.0
 20
-148.5
  0
VERTEX
  8
通り芯
 10
210.0
 20
-148.5
  0
VERTEX
  8
通り芯
 10
210.0
 20
148.5
  0
VERTEX
  8
通り芯
 10
-210.0
 20
148.5
  0
SEQEND
  0
LINE
  8
通り芯
  6
CONTINUOUS
 10
-60.851393
 20
41.164068
 11
-57.851393
 21
41.164068
  0
LINE
  8
通り芯
  6
CONTINUOUS
 10
-57.851393
 20
-33.83588
 11
-57.851393
 21
41.164068
  0
LINE
  8
通り芯
  6
CONTINUOUS
 10
-60.851393
 20
-33.83588
 11
-57.851393
 21
-33.83588
  0
LINE
  8
通り芯
  6
CONTINUOUS
 10
-60.851393
 20
-33.83588
 11
-60.851393
 21
41.164068
  0
LINE
  8
通り芯
  6
CONTINUOUS
 10
7.64865
 20
-14.33585
 11
7.64865
 21
-16.335852
  0
LINE
  8
通り芯
  6
CONTINUOUS
 10
7.64865
 20
-14.33585
 11
-28.251382
 21
-14.335887
  0
LINE
  8
通り芯
  6
CONTINUOUS
 10
-28.251382
 20
-14.335887
 11
-28.251382
 21
-16.33589
  0
LINE
  8
通り芯
  6
CONTINUOUS
 10
7.64865
 20
-16.335852
 11
-28.251382
 21
-16.33589
  0
INSERT
  2
*GRP_0001
  8
型材断面
  6
CONTINUOUS
 10
0.0
 20
0.0
  0
INSERT
  2
*GRP_0002
  8
型材断面
  6
CONTINUOUS
 62
    14
 10
0.0
 20
0.0
  0
INSERT
  2
*GRP_0003
  8
型材断面
  6
CONTINUOUS
 62
    14
 10
0.0
 20
0.0
  0
LINE
  8
型材断面
  6
DOT
 10
-30.051382
 20
-9.83582
 11
-28.551382
 21
-9.83582
  0
LINE
  8
型材断面
  6
DOT
 10
-30.051382
 20
-1.835818
 11
-28.551382
 21
-1.835818
  0
LINE
  8
型材断面
  6
DOT
 10
-29.676382
 20
-9.83582
 11
-29.676382
 21
-1.835818
  0
LINE
  8
型材断面
  6
DOT
 10
-29.301382
 20
-9.83582
 11
-29.301382
 21
-1.835818
  0
LINE
  8
型材断面
  6
DOT
 10
-28.926382
 20
-9.83582
 11
-28.926382
 21
-1.835818
  0
LINE
  8
型材断面
  6
DOT
 10
-51.551385
 20
-9.83582
 11
-50.051385
 21
-9.83582
  0
LINE
  8
型材断面
  6
DOT
 10
-51.551385
 20
-1.835818
 11
-50.051385
 21
-1.835818
  0
LINE
  8
型材断面
  6
DOT
 10
-51.176385
 20
-9.83582
 11
-51.176385
 21
-1.835818
  0
LINE
  8
型材断面
  6
DOT
 10
-50.801385
 20
-9.83582
 11
-50.801385
 21
-1.835818
  0
LINE
  8
型材断面
  6
DOT
 10
-50.426385
 20
-9.83582
 11
-50.426385
 21
-1.835818
  0
LINE
  8
型材断面
  6
DOT
 10
-60.851393
 20
-33.83588
 11
-62.351393
 21
-33.83588
  0
LINE
  8
型材断面
  6
DOT
 10
-60.851393
 20
-25.835877
 11
-62.351393
 21
-25.835877
  0
LINE
  8
型材断面
  6
DOT
 10
-61.976393
 20
-33.83588
 11
-61.976393
 21
-25.835877
  0
LINE
  8
型材断面
  6
DOT
 10
-61.601393
 20
-33.83588
 11
-61.601393
 21
-25.835877
  0
LINE
  8
型材断面
  6
DOT
 10
-61.226393
 20
-33.83588
 11
-61.226393
 21
-25.835877
  0
INSERT
  2
*GRP_0004
  8
型材断面
  6
CONTINUOUS
 62
    47
 10
0.0
 20
0.0
  0
INSERT
  2
*GRP_0005
  8
ガラス
  6
DOT
 10
0.0
 20
0.0
  0
INSERT
  2
*GRP_0006
  8
ガラス
  6
DOT
 10
0.0
 20
0.0
  0
INSERT
  2
*GRP_0007
  8
ガラス
  6
DOT
 10
0.0
 20
0.0
  0
INSERT
  2
*GRP_0008
  8
ガラス
  6
DOT
 10
0.0
 20
0.0
  0
INSERT
  2
*GRP_0009
  8
ガラス
  6
DOT
 10
0.0
 20
0.0
  0
INSERT
  2
*GRP_0010
  8
ガラス
  6
DOT
 10
0.0
 20
0.0
  0
INSERT
  2
*GRP_0011
  8
ガラス
  6
DOT
 10
0.0
 20
0.0
  0
INSERT
  2
*GRP_0012
  8
ガラス
  6
DOT
 10
0.0
 20
0.0
  0
INSERT
  2
*GRP_0013
  8
ガラス
  6
DOT
 10
0.0
 20
0.0
  0
INSERT
  2
*GRP_0014
  8
ガラス
  6
DOT
 10
0.0
 20
0.0
  0
INSERT
  2
*GRP_0015
  8
ガラス
  6
DOT
 10
0.0
 20
0.0
  0
INSERT
  2
*GRP_0016
  8
ガラス
  6
DOT
 10
0.0
 20
0.0
  0
INSERT
  2
*GRP_0017
  8
ガラス
  6
DOT
 10
0.0
 20
0.0
  0
INSERT
  2
*GRP_0018
  8
ガラス
  6
DOT
 10
0.0
 20
0.0
  0
INSERT
  2
*GRP_0019
  8
ガラス
  6
DOT
 10
0.0
 20
0.0
  0
INSERT
  2
*GRP_0020
  8
ガラス
  6
DOT
 10
0.0
 20
0.0
  0
INSERT
  2
*GRP_0021
  8
ガラス
  6
DOT
 10
0.0
 20
0.0
  0
LINE
  8
ガラス
  6
CONTINUOUS
 10
-20.551357
 20
43.16407
 11
-20.551357
 21
60.964075
  0
LINE
  8
ガラス
  6
CONTINUOUS
 10
-14.551357
 20
55.964072
 11
-14.551357
 21
49.964072
  0
LINE
  8
ガラス
  6
CONTINUOUS
 10
-14.551357
 20
49.964072
 11
-20.551357
 21
55.964072
  0
LINE
  8
ガラス
  6
CONTINUOUS
 10
-14.551357
 20
55.964072
 11
-20.551357
 21
49.964072
  0
LINE
  8
ガラス
  6
CONTINUOUS
 10
-20.551335
 20
60.464072
 11
40.197115
 21
60.464072
  0
LINE
  8
ガラス
  6
CONTINUOUS
 10
-20.551335
 20
60.964075
 11
40.197115
 21
60.964075
  0
LINE
  8
ガラス
  6
CONTINUOUS
 10
-20.551343
 20
55.964072
 11
40.197115
 21
55.964072
  0
LINE
  8
ガラス
  6
CONTINUOUS
 10
-20.551343
 20
56.464075
 11
40.197115
 21
56.464075
  0
LINE
  8
ガラス
  6
CONTINUOUS
 10
-20.55135
 20
49.46407
 11
40.197115
 21
49.46407
  0
LINE
  8
ガラス
  6
CONTINUOUS
 10
-20.55135
 20
49.964072
 11
40.197115
 21
49.964072
  0
LINE
  8
ガラス
  6
CONTINUOUS
 10
-20.551357
 20
43.16407
 11
40.197115
 21
43.16407
  0
LINE
  8
ガラス
  6
CONTINUOUS
 10
-20.551357
 20
43.664072
 11
40.197115
 21
43.664072
  0
INSERT
  2
*GRP_0022
  8
ゴム等
  6
CONTINUOUS
 10
0.0
 20
0.0
  0
INSERT
  2
*GRP_0023
  8
ゴム等
  6
CONTINUOUS
 10
0.0
 20
0.0
  0
INSERT
  2
*GRP_0024
  8
ゴム等
  6
CONTINUOUS
 10
0.0
 20
0.0
  0
INSERT
  2
*GRP_0025
  8
ゴム等
  6
CONTINUOUS
 10
0.0
 20
0.0
  0
INSERT
  2
*GRP_0026
  8
ボルト／ビス
  6
CONTINUOUS
 62
    64
 10
0.0
 20
0.0
  0
INSERT
  2
*GRP_0027
  8
ボルト／ビス
  6
CONTINUOUS
 62
    64
 10
0.0
 20
0.0
  0
INSERT
  2
*GRP_0028
  8
ボルト／ビス
  6
CONTINUOUS
 62
    64
 10
0.0
 20
0.0
  0
INSERT
  2
*GRP_0029
  8
ボルト／ビス
  6
CONTINUOUS
 62
    64
 10
0.0
 20
0.0
  0
INSERT
  2
*GRP_0030
  8
ボルト／ビス
  6
CONTINUOUS
 10
0.0
 20
0.0
  0
INSERT
  2
*GRP_0031
  8
ボルト／ビス
  6
CONTINUOUS
 10
0.0
 20
0.0
  0
INSERT
  2
*GRP_0032
  8
ボルト／ビス
  6
CONTINUOUS
 10
0.0
 20
0.0
  0
INSERT
  2
*GRP_0033
  8
ボルト／ビス
  6
CONTINUOUS
 62
    64
 10
0.0
 20
0.0
  0
INSERT
  2
*GRP_0034
  8
ボルト／ビス
  6
CONTINUOUS
 62
    64
 10
0.0
 20
0.0
  0
LINE
  8
文字
  6
CONTINUOUS
 10
-1.048117
 20
32.664077
 11
60.107963
 21
32.664077
  0
LINE
  8
文字
  6
CONTINUOUS
 10
60.107963
 20
-53.835935
 11
-27.83255
 21
-53.835935
  0
LINE
  8
文字
  6
CONTINUOUS
 10
60.107963
 20
-17.835875
 11
14.513927
 21
-17.835875
  0
LINE
  8
文字
  6
CONTINUOUS
 10
60.107963
 20
-2.33582
 11
14.513927
 21
-2.33582
  0
LINE
  8
文字
  6
CONTINUOUS
 10
60.107963
 20
43.16407
 11
44.145118
 21
43.16407
  0
LINE
  8
文字
  6
CONTINUOUS
 10
60.107963
 20
60.964075
 11
44.145118
 21
60.964075
  0
LINE
  8
文字
  6
CONTINUOUS
 10
60.107963
 20
71.96407
 11
3.854795
 21
71.96407
  0
LINE
  8
文字
  6
CONTINUOUS
 10
60.107963
 20
75.164072
 11
3.854795
 21
75.164072
  0
TEXT
  7
TextStyle03
  8
文字
  6
CONTINUOUS
 10
-9.875
 20
117.775
  1
呼称寸法
 40
4.0
 72
     5
 11
7.625
 21
117.775
  0
LINE
  8
文字
  6
CONTINUOUS
 10
9.448642
 20
107.33943
 11
9.448642
 21
2.85061
  0
LINE
  8
文字
  6
CONTINUOUS
 10
-77.947043
 20
107.33943
 11
-77.947043
 21
78.88879
  0
LINE
  8
文字
  6
CONTINUOUS
 10
-25.551357
 20
117.33943
 11
-25.551357
 21
65.32514
  0
LINE
  8
文字
  6
CONTINUOUS
 10
-2.947043
 20
97.33943
 11
-2.947043
 21
78.88879
  0
LINE
  8
文字
  6
CONTINUOUS
 10
-167.224838
 20
75.164072
 11
-83.1159
 21
75.164072
  0
LINE
  8
文字
  6
CONTINUOUS
 10
-157.224838
 20
25.16407
 11
-83.1159
 21
25.16407
  0
LINE
  8
文字
  6
CONTINUOUS
 10
-147.224838
 20
-33.83588
 11
-67.85393
 21
-33.83588
  0
LINE
  8
文字
  6
CONTINUOUS
 10
-157.224838
 20
-38.835935
 11
-125.45408
 21
-38.835935
  0
LINE
  8
文字
  6
CONTINUOUS
 10
-167.224838
 20
-53.835935
 11
-125.45408
 21
-53.835935
  0
LINE
  8
文字
  6
CONTINUOUS
 10
-167.224838
 20
-63.83591
 11
-110.259433
 21
-63.83591
  0
LINE
  8
文字
  6
CONTINUOUS
 10
-120.5514
 20
118.743982
 11
-120.5514
 21
-35.699497
  0
TEXT
  7
TextStyle03
  8
文字
  6
CONTINUOUS
 10
-108.7
 20
16.9
  1
断熱材(PVC)
 40
4.0
 72
     5
 11
-84.2
 21
16.9
  0
TEXT
  7
TextStyle03
  8
文字
  6
CONTINUOUS
 10
-115.1
 20
4.65
  1
ｺｰﾅｰｼﾞｮｲﾝﾄ(AL-3.0t)
 40
4.0
 72
     5
 11
-72.6
 21
4.65
  0
TEXT
  7
TextStyle03
  8
文字
  6
CONTINUOUS
 10
-97.375
 20
-12.35
  1
M4リベット
 40
4.0
 72
     5
 11
-75.375
 21
-12.35
  0
TEXT
  7
TextStyle03
  8
文字
  6
CONTINUOUS
 10
-97.375
 20
-16.85
  1
(コーナー)
 40
4.0
 72
     5
 11
-75.125
 21
-16.85
  0
TEXT
  7
TextStyle03
  8
文字
  6
CONTINUOUS
 10
-120.025
 20
-28.375
  1
φ8排水穴(ﾊﾞｯﾌﾙ材付)
 40
4.0
 72
     5
 11
-75.275
 21
-28.375
  0
TEXT
  7
TextStyle03
  8
文字
  6
CONTINUOUS
 10
-157.6
 20
-58.85
  1
ｺｰﾅｰ部ｼｰﾙ充填
 40
4.0
 72
     5
 11
-128.85
 21
-58.85
  0
TEXT
  7
TextStyle03
  8
文字
  6
CONTINUOUS
 10
-59.925
 20
-78.175
  1
ｺｰﾅｰｼﾞｮｲﾝﾄ(St-1.6t)
 40
4.0
 72
     5
 11
-17.425
 21
-78.175
  0
TEXT
  7
TextStyle03
  8
文字
  6
CONTINUOUS
 10
14.875
 20
-49.375
  1
ｺｰﾅｰ部ｼｰﾙ充填
 40
4.0
 72
     5
 11
43.625
 21
-49.375
  0
TEXT
  7
TextStyle03
  8
文字
  6
CONTINUOUS
 10
14.725
 20
-40.5
  1
断熱材(PVC)
 40
4.0
 72
     5
 11
39.225
 21
-40.5
  0
TEXT
  7
TextStyle03
  8
文字
  6
CONTINUOUS
 10
14.075
 20
-30.45
  1
ｺｰﾅｰｼﾞｮｲﾝﾄ(AL-2.0t)
 40
4.0
 72
     5
 11
56.575
 21
-30.45
  0
TEXT
  7
TextStyle03
  8
文字
  6
CONTINUOUS
 10
20.9
 20
1.65
  1
ｺｰﾅｰ部ｼｰﾙ充填
 40
4.0
 72
     5
 11
49.65
 21
1.65
  0
TEXT
  7
TextStyle03
  8
文字
  6
CONTINUOUS
 10
64.25
 20
123.9
  1
シリーズ：ＴＦＦＫ
 40
5.0
 72
     5
 11
114.25
 21
123.9
  0
TEXT
  7
TextStyle03
  8
文字
  6
CONTINUOUS
 10
64.25
 20
118.275
  1
　　　　　（固定）
 40
5.0
 72
     5
 11
114.25
 21
118.275
  0
TEXT
  7
TextStyle03
  8
文字
  6
CONTINUOUS
 10
64.25
 20
112.65
  1
図面名　：下枠断面詳細図
 40
5.0
 72
     5
 11
131.125
 21
112.65
  0
INSERT
  2
*DIM_0035
  8
寸法
  6
CONTINUOUS
 10
0.0
 20
0.0
  0
INSERT
  2
*DIM_0036
  8
寸法
  6
CONTINUOUS
 10
0.0
 20
0.0
  0
INSERT
  2
*DIM_0037
  8
寸法
  6
CONTINUOUS
 10
0.0
 20
0.0
  0
INSERT
  2
*DIM_0038
  8
寸法
  6
CONTINUOUS
 10
0.0
 20
0.0
  0
INSERT
  2
*DIM_0039
  8
寸法
  6
CONTINUOUS
 10
0.0
 20
0.0
  0
INSERT
  2
*DIM_0040
  8
寸法
  6
CONTINUOUS
 10
0.0
 20
0.0
  0
INSERT
  2
*DIM_0041
  8
寸法
  6
CONTINUOUS
 10
0.0
 20
0.0
  0
INSERT
  2
*DIM_0042
  8
寸法
  6
CONTINUOUS
 10
0.0
 20
0.0
  0
LINE
  8
寸法
  6
CONTINUOUS
 10
41.39725
 20
117.33943
 11
-25.551357
 21
117.33943
  0
INSERT
  2
*DIM_0043
  8
寸法
  6
CONTINUOUS
 10
0.0
 20
0.0
  0
INSERT
  2
*DIM_0044
  8
寸法
  6
CONTINUOUS
 10
0.0
 20
0.0
  0
INSERT
  2
*DIM_0045
  8
寸法
  6
CONTINUOUS
 10
0.0
 20
0.0
  0
INSERT
  2
*DIM_0046
  8
寸法
  6
CONTINUOUS
 10
0.0
 20
0.0
  0
INSERT
  2
*DIM_0047
  8
寸法
  6
CONTINUOUS
 10
0.0
 20
0.0
  0
INSERT
  2
*DIM_0048
  8
寸法
  6
CONTINUOUS
 10
0.0
 20
0.0
  0
INSERT
  2
*DIM_0049
  8
寸法
  6
CONTINUOUS
 10
0.0
 20
0.0
  0
INSERT
  2
*DIM_0054
  8
寸法
  6
CONTINUOUS
 10
0.0
 20
0.0
  0
INSERT
  2
*DIM_0055
  8
寸法
  6
CONTINUOUS
 10
0.0
 20
0.0
  0
INSERT
  2
*DIM_0056
  8
寸法
  6
CONTINUOUS
 10
0.0
 20
0.0
  0
INSERT
  2
*DIM_0057
  8
寸法
  6
CONTINUOUS
 10
0.0
 20
0.0
  0
INSERT
  2
*DIM_0058
  8
寸法
  6
CONTINUOUS
 10
0.0
 20
0.0
  0
INSERT
  2
*DIM_0059
  8
寸法
  6
CONTINUOUS
 10
0.0
 20
0.0
  0
INSERT
  2
*GRP_0060
  8
寸法
  6
CONTINUOUS
 10
0.0
 20
0.0
  0
INSERT
  2
*GRP_0061
  8
寸法
  6
CONTINUOUS
 10
0.0
 20
0.0
  0
INSERT
  2
*GRP_0062
  8
寸法
  6
CONTINUOUS
 10
0.0
 20
0.0
  0
INSERT
  2
*GRP_0063
  8
寸法
  6
CONTINUOUS
 10
0.0
 20
0.0
  0
INSERT
  2
*GRP_0064
  8
寸法
  6
CONTINUOUS
 10
0.0
 20
0.0
  0
INSERT
  2
*GRP_0065
  8
寸法
  6
CONTINUOUS
 10
0.0
 20
0.0
  0
INSERT
  2
*GRP_0066
  8
寸法
  6
CONTINUOUS
 10
0.0
 20
0.0
  0
INSERT
  2
*GRP_0067
  8
寸法
  6
CONTINUOUS
 10
0.0
 20
0.0
  0
INSERT
  2
*GRP_0068
  8
寸法
  6
CONTINUOUS
 10
0.0
 20
0.0
  0
INSERT
  2
*GRP_0069
  8
寸法
  6
CONTINUOUS
 10
0.0
 20
0.0
  0
INSERT
  2
*HAT_0001
  8
ﾊｯﾁﾝｸﾞ
 10
0.0
 20
0.0
  0
LINE
  8
別途部材
  6
DOT
 10
-60.851393
 20
-23.835883
 11
-50.851395
 21
-23.835883
  0
LINE
  8
別途部材
  6
DOT
 10
-50.851395
 20
-33.83588
 11
-50.851395
 21
-23.835883
  0
INSERT
  2
*HAT_0002
  8
別途部材
 10
0.0
 20
0.0
  0
INSERT
  2
*GRP_0050
  8
別途部材
  6
CONTINUOUS
 10
0.0
 20
0.0
  0
INSERT
  2
*GRP_0051
  8
曲げ物
  6
CONTINUOUS
 10
0.0
 20
0.0
  0
INSERT
  2
*GRP_0052
  8
St
  6
CONTINUOUS
 10
0.0
 20
0.0
  0
LINE
  8
St
  6
CONTINUOUS
 10
-20.051483
 20
-23.635887
 11
-18.451485
 21
-23.635887
  0
LINE
  8
St
  6
CONTINUOUS
 10
-20.051483
 20
-23.635887
 11
-20.051483
 21
-57.03581
  0
LINE
  8
St
  6
CONTINUOUS
 10
-18.451485
 20
-23.635887
 11
-18.451485
 21
-57.03581
  0
ARC
  8
St
  6
CONTINUOUS
 10
-20.051485
 20
-57.035807
 40
1.6
 50
-90.0
 51
0.0
  0
LINE
  8
St
  6
CONTINUOUS
 10
-20.051483
 20
-58.635808
 11
-46.951627
 21
-58.635808
  0
LINE
  8
St
  6
CONTINUOUS
 10
-20.051483
 20
-57.03581
 11
-46.951627
 21
-57.03581
  0
LINE
  8
St
  6
CONTINUOUS
 10
-46.951627
 20
-58.635808
 11
-46.951627
 21
-57.03581
  0
LINE
  8
St
  6
CONTINUOUS
 10
-28.094625
 20
-58.635808
 11
-26.494628
 21
-57.03581
  0
LINE
  8
St
  6
CONTINUOUS
 10
-20.051483
 20
-50.592665
 11
-18.451485
 21
-48.992667
  0
LINE
  8
St
  6
CONTINUOUS
 10
-27.387525
 20
-58.635808
 11
-25.787528
 21
-57.03581
  0
LINE
  8
St
  6
CONTINUOUS
 10
-20.051483
 20
-51.299765
 11
-18.451485
 21
-49.699767
  0
LINE
  8
St
  6
CONTINUOUS
 10
-20.051483
 20
-32.604912
 11
-18.451485
 21
-31.004915
  0
LINE
  8
St
  6
CONTINUOUS
 10
-20.051483
 20
-33.312013
 11
-18.451485
 21
-31.712015
  0
INSERT
  2
*GRP_0053
  8
St
  6
CONTINUOUS
 10
0.0
 20
0.0
  0
POLYLINE
  8
St
  6
CONTINUOUS
 62
    47
 66
     1
  0
VERTEX
  8
St
 10
41.39725
 20
117.33943
  0
VERTEX
  8
St
 10
36.056593
 20
118.70311
  0
VERTEX
  8
St
 10
36.05612
 20
117.33943
  0
SEQEND
  0
POLYLINE
  8
St
  6
CONTINUOUS
 62
    47
 66
     1
  0
VERTEX
  8
St
 10
39.502725
 20
117.33943
  0
VERTEX
  8
St
 10
34.162068
 20
118.70311
  0
VERTEX
  8
St
 10
34.161595
 20
117.33943
  0
SEQEND
  0
LINE
  8
その他部品等
  6
CONTINUOUS
 10
-37.551397
 20
-28.835877
 11
-30.051443
 21
-23.63588
  0
INSERT
  2
*HAT_0003
  8
その他部品等
 10
0.0
 20
0.0
  0
INSERT
  2
*HAT_0004
  8
その他部品等
 10
0.0
 20
0.0
  0
INSERT
  2
*HAT_0005
  8
その他部品等
 10
0.0
 20
0.0
  0
LINE
  8
その他部品等
  6
CONTINUOUS
 10
-2.947043
 20
71.96407
 11
-2.947043
 21
60.964075
  0
LINE
  8
その他部品等
  6
CONTINUOUS
 10
-18.823042
 20
60.964075
 11
-18.823042
 21
73.16407
  0
LINE
  8
その他部品等
  6
CONTINUOUS
 10
-10.947045
 20
60.964075
 11
-10.947045
 21
73.16407
  0
LINE
  8
その他部品等
  6
CONTINUOUS
 10
-18.823042
 20
73.16407
 11
-10.947045
 21
60.964075
  0
ENDSEC
  0
EOF
