  0
SECTION
  2
HEADER
  9
$EXTMIN
 10
-210.0
 20
-148.5
  9
$EXTMAX
 10
210.0
 20
148.5
  9
$PDMODE
 70
    32
  9
$PDSIZE
 40
1.5
  9
$LTSCALE
 40
10.0
  0
ENDSEC
  0
SECTION
  2
TABLES
  0
TABLE
  2
LTYPE
 70
    15
  0
LTYPE
  2
CONTINUOUS
 70
    64
  3
実線
 72
    65
 73
     0
 40
0.0
  0
LTYPE
  2
DASHED
 70
    64
  3
破線A
 72
    65
 73
     2
 40
0.6
 49
0.4
 49
-0.2
  0
LTYPE
  2
DASHEDX2
 70
    64
  3
破線B
 72
    65
 73
     2
 40
1.3
 49
0.9
 49
-0.4
  0
LTYPE
  2
DASHDOT
 70
    64
  3
１点鎖線A
 72
    65
 73
     4
 40
0.5375
 49
0.375
 49
-0.05
 49
0.0625
 49
-0.05
  0
LTYPE
  2
DASHDOTX2
 70
    64
  3
１点鎖線B
 72
    65
 73
     4
 40
1.075
 49
0.75
 49
-0.1
 49
0.125
 49
-0.1
  0
LTYPE
  2
DIVIDE2
 70
    64
  3
２点鎖線A
 72
    65
 73
     6
 40
0.5125
 49
0.3
 49
-0.0375
 49
0.05
 49
-0.0375
 49
0.05
 49
-0.0375
  0
LTYPE
  2
DIVIDE
 70
    64
  3
２点鎖線B
 72
    65
 73
     6
 40
1.05
 49
0.55
 49
-0.1
 49
0.1
 49
-0.1
 49
0.1
 49
-0.1
  0
LTYPE
  2
DOT
 70
    64
  3
点線A
 72
    65
 73
     2
 40
0.1125
 49
0.0625
 49
-0.05
  0
LTYPE
  2
DOTX2
 70
    64
  3
点線B
 72
    65
 73
     2
 40
0.275
 49
0.15
 49
-0.125
  0
LTYPE
  2
CONTINUOUS
 70
    64
  3
実線
 72
    65
 73
     0
 40
0.0
  0
LTYPE
  2
CONTINUOUS
 70
    64
  3
実線
 72
    65
 73
     0
 40
0.0
  0
LTYPE
  2
CONTINUOUS
 70
    64
  3
実線
 72
    65
 73
     0
 40
0.0
  0
LTYPE
  2
CONTINUOUS
 70
    64
  3
実線
 72
    65
 73
     0
 40
0.0
  0
LTYPE
  2
CONTINUOUS
 70
    64
  3
実線
 72
    65
 73
     0
 40
0.0
  0
LTYPE
  2
CONTINUOUS
 70
    64
  3
実線
 72
    65
 73
     0
 40
0.0
  0
ENDTAB
  0
TABLE
  2
LAYER
 70
    34
  0
LAYER
  2
通り芯
 70
     0
 62
    15
  6
CONTINUOUS
  0
LAYER
  2
補助線
 70
     0
 62
    16
  6
DOT
  0
LAYER
  2
躯体
 70
     0
 62
    31
  6
CONTINUOUS
  0
LAYER
  2
型材
 70
     0
 62
    32
  6
CONTINUOUS
  0
LAYER
  2
型材断面
 70
     0
 62
    47
  6
CONTINUOUS
  0
LAYER
  2
ガラス
 70
     0
 62
    48
  6
CONTINUOUS
  0
LAYER
  2
ゴム等
 70
     0
 62
    63
  6
CONTINUOUS
  0
LAYER
  2
ボルト／ビス
 70
     0
 62
    64
  6
CONTINUOUS
  0
LAYER
  2
文字
 70
     0
 62
    79
  6
CONTINUOUS
  0
LAYER
  2
寸法
 70
     0
 62
    80
  6
CONTINUOUS
  0
LAYER
  2
ﾊｯﾁﾝｸﾞ
 70
     0
 62
    95
  6
CONTINUOUS
  0
LAYER
  2
別途部材
 70
     0
 62
    96
  6
CONTINUOUS
  0
LAYER
  2
曲げ物
 70
     0
 62
   111
  6
CONTINUOUS
  0
LAYER
  2
鉄骨等
 70
     0
 62
   112
  6
CONTINUOUS
  0
LAYER
  2
St
 70
     0
 62
   127
  6
CONTINUOUS
  0
LAYER
  2
その他部品等
 70
     0
 62
   128
  6
CONTINUOUS
  0
LAYER
  2
ｶﾞｽｹｯﾄ
 70
     0
 62
   143
  6
CONTINUOUS
  0
LAYER
  2
ｽｹｯﾁ
 70
     0
 62
    14
  6
CONTINUOUS
  0
LAYER
  2
0
 70
     0
 62
    17
  6
CONTINUOUS
  0
LAYER
  2
1
 70
     0
 62
    30
  6
CONTINUOUS
  0
LAYER
  2
4
 70
     0
 62
    33
  6
CONTINUOUS
  0
LAYER
  2
ﾚｲﾔ3
 70
     0
 62
    46
  6
CONTINUOUS
  0
LAYER
  2
外形線
 70
     0
 62
    49
  6
CONTINUOUS
  0
LAYER
  2
部品
 70
     0
 62
    14
  6
CONTINUOUS
  0
LAYER
  2
サッシ芯
 70
     0
 62
    17
  6
DASHDOTX2
  0
LAYER
  2
寸法線
 70
     0
 62
    62
  6
CONTINUOUS
  0
LAYER
  2
姿図外形線
 70
     0
 62
    65
  6
CONTINUOUS
  0
LAYER
  2
姿補助線
 70
     0
 62
    30
  6
CONTINUOUS
  0
LAYER
  2
透視線
 70
     0
 62
    78
  6
DOT
  0
LAYER
  2
用紙
 70
     0
 62
    81
  6
CONTINUOUS
  0
LAYER
  2
実線図枠
 70
     0
 62
    94
  6
CONTINUOUS
  0
LAYER
  2
補助図枠
 70
     0
 62
    97
  6
CONTINUOUS
  0
LAYER
  2
建具記号
 70
     0
 62
   110
  6
CONTINUOUS
  0
LAYER
  2
補助文字
 70
     0
 62
   113
  6
CONTINUOUS
  0
ENDTAB
  0
TABLE
  2
STYLE
 70
    10
  0
STYLE
  2
STANDARD
 70
     0
 40
1.0
 41
1.0
 42
1.0
 50
0.0
 71
     0
  3
TXT
  4
BIGFONT
  0
STYLE
  2
TATE
 70
     4
 40
1.0
 41
1.0
 42
1.0
 50
0.0
 71
     0
  3
TXT
  4
BIGFONT
  0
STYLE
  2
TextStyle03
 70
     0
 40
1.0
 41
1.0
 42
1.0
 50
0.0
 71
     0
  3
MONOTXT
  4
BIGFONT
  0
STYLE
  2
TextStyle04
 70
     0
 40
1.0
 41
1.0
 42
1.0
 50
0.0
 71
     0
  3
MONOTXT
  4
BIGFONT
  0
STYLE
  2
TextStyle05
 70
     0
 40
1.0
 41
1.0
 42
1.0
 50
0.0
 71
     0
  3
MONOTXT
  4
BIGFONT
  0
STYLE
  2
TextStyle06
 70
     0
 40
1.0
 41
1.0
 42
1.0
 50
0.0
 71
     0
  3
MONOTXT
  4
BIGFONT
  0
STYLE
  2
TextStyle07
 70
     0
 40
1.0
 41
1.0
 42
1.0
 50
0.0
 71
     0
  3
MONOTXT
  4
BIGFONT
  0
STYLE
  2
TextStyle08
 70
     0
 40
1.0
 41
1.0
 42
1.0
 50
0.0
 71
     0
  3
MONOTXT
  4
BIGFONT
  0
STYLE
  2
TextStyle09
 70
     0
 40
1.0
 41
1.0
 42
1.0
 50
0.0
 71
     0
  3
MONOTXT
  4
BIGFONT
  0
STYLE
  2
TextStyle10
 70
     0
 40
1.0
 41
1.0
 42
1.0
 50
0.0
 71
     0
  3
MONOTXT
  4
BIGFONT
  0
ENDTAB
  0
ENDSEC
  0
SECTION
  2
BLOCKS
  0
BLOCK
  2
*GRP_0001
 70
    65
 10
0.0
 20
0.0
  0
LINE
  8
型材断面
  6
CONTINUOUS
 10
195.0
 20
133.5
 11
195.0
 21
-133.5
  0
LINE
  8
型材断面
  6
CONTINUOUS
 10
195.0
 20
-133.5
 11
-185.0
 21
-133.5
  0
LINE
  8
型材断面
  6
CONTINUOUS
 10
-185.0
 20
-133.5
 11
-185.0
 21
133.5
  0
LINE
  8
型材断面
  6
CONTINUOUS
 10
195.0
 20
133.5
 11
-185.0
 21
133.5
  0
LINE
  8
型材断面
  6
CONTINUOUS
 10
145.0
 20
-133.5
 11
145.0
 21
-118.5
  0
LINE
  8
型材断面
  6
CONTINUOUS
 10
195.0
 20
-118.5
 11
145.0
 21
-118.5
  0
ENDBLK
  0
BLOCK
  2
*DIM_0002
 70
    65
 10
0.0
 20
0.0
  0
LINE
  8
寸法
  6
BYBLOCK
 62
     0
 10
-92.435405
 20
-16.126177
 11
-47.435405
 21
-16.126177
  0
POINT
  8
寸法
 62
     0
 10
-92.435405
 20
-16.126177
  0
POINT
  8
寸法
 62
     0
 10
-47.435405
 20
-16.126177
  0
TEXT
  7
TextStyle03
  8
寸法
  6
CONTINUOUS
 62
     0
 10
-80.85
 20
-15.775
  1
呼称寸法　900
 40
3.0
 72
     5
 11
-59.1
 21
-15.775
  0
ENDBLK
  0
BLOCK
  2
*DIM_0003
 70
    65
 10
0.0
 20
0.0
  0
LINE
  8
寸法
  6
BYBLOCK
 62
     0
 10
-84.935405
 20
57.66027
 11
-84.935405
 21
75.599285
  0
LINE
  8
寸法
  6
BYBLOCK
 62
     0
 10
-54.935405
 20
57.66027
 11
-54.935405
 21
75.599285
  0
LINE
  8
寸法
  6
BYBLOCK
 62
     0
 10
-84.935405
 20
75.599285
 11
-54.935405
 21
75.599285
  0
POINT
  8
寸法
 62
     0
 10
-84.935405
 20
75.599285
  0
POINT
  8
寸法
 62
     0
 10
-54.935405
 20
75.599285
  0
TEXT
  7
TextStyle03
  8
寸法
  6
CONTINUOUS
 62
     0
 10
-72.3875
 20
75.95
  1
600
 40
3.0
 72
     5
 11
-67.5125
 21
75.95
  0
ENDBLK
  0
BLOCK
  2
*DIM_0004
 70
    65
 10
0.0
 20
0.0
  0
LINE
  8
寸法
  6
BYBLOCK
 62
     0
 10
-93.435405
 20
56.66027
 11
-116.343648
 21
56.66027
  0
LINE
  8
寸法
  6
BYBLOCK
 62
     0
 10
-93.435405
 20
34.16027
 11
-116.343648
 21
34.16027
  0
LINE
  8
寸法
  6
BYBLOCK
 62
     0
 10
-116.343648
 20
56.66027
 11
-116.343648
 21
34.16027
  0
POINT
  8
寸法
 62
     0
 10
-116.343648
 20
56.66027
  0
POINT
  8
寸法
 62
     0
 10
-116.343648
 20
34.16027
  0
TEXT
  7
TextStyle03
  8
寸法
  6
CONTINUOUS
 62
     0
 10
-116.725
 20
42.9375
  1
450
 40
3.0
 50
90.0
 72
     5
 11
-116.725
 21
47.8125
  0
ENDBLK
  0
BLOCK
  2
*DIM_0005
 70
    65
 10
0.0
 20
0.0
  0
LINE
  8
寸法
  6
BYBLOCK
 62
     0
 10
-93.435405
 20
11.66027
 11
-116.343648
 21
11.66027
  0
LINE
  8
寸法
  6
BYBLOCK
 62
     0
 10
-116.343648
 20
34.16027
 11
-116.343648
 21
11.66027
  0
POINT
  8
寸法
 62
     0
 10
-116.343648
 20
11.66027
  0
TEXT
  7
TextStyle03
  8
寸法
  6
CONTINUOUS
 62
     0
 10
-116.725
 20
20.4375
  1
450
 40
3.0
 50
90.0
 72
     5
 11
-116.725
 21
25.3125
  0
ENDBLK
  0
BLOCK
  2
*DIM_0006
 70
    65
 10
0.0
 20
0.0
  0
LINE
  8
寸法
  6
BYBLOCK
 62
     0
 10
-42.685402
 20
-54.280343
 11
-42.685402
 21
-16.126177
  0
LINE
  8
寸法
  6
BYBLOCK
 62
     0
 10
-47.435405
 20
-16.126177
 11
-42.685402
 21
-16.126177
  0
POINT
  8
寸法
 62
     0
 10
-47.435405
 20
-16.126177
  0
POINT
  8
寸法
 62
     0
 10
-42.685402
 20
-16.126177
  0
TEXT
  7
TextStyle03
  8
寸法
  6
CONTINUOUS
 62
     0
 10
-46.66875
 20
-15.775
  1
95
 40
3.0
 72
     5
 11
-43.48125
 21
-15.775
  0
ENDBLK
  0
BLOCK
  2
*DIM_0007
 70
    65
 10
0.0
 20
0.0
  0
LINE
  8
寸法
  6
BYBLOCK
 62
     0
 10
-97.185408
 20
-54.280343
 11
-97.185408
 21
-16.126177
  0
LINE
  8
寸法
  6
BYBLOCK
 62
     0
 10
-92.435405
 20
-16.126177
 11
-97.185408
 21
-16.126177
  0
POINT
  8
寸法
 62
     0
 10
-92.435405
 20
-16.126177
  0
POINT
  8
寸法
 62
     0
 10
-97.185408
 20
-16.126177
  0
TEXT
  7
TextStyle03
  8
寸法
  6
CONTINUOUS
 62
     0
 10
-96.41875
 20
-15.775
  1
95
 40
3.0
 72
     5
 11
-93.23125
 21
-15.775
  0
ENDBLK
  0
BLOCK
  2
*DIM_0008
 70
    65
 10
0.0
 20
0.0
  0
LINE
  8
寸法
  6
BYBLOCK
 62
     0
 10
122.554785
 20
77.307477
 11
122.554785
 21
87.027592
  0
LINE
  8
寸法
  6
BYBLOCK
 62
     0
 10
167.054785
 20
77.307477
 11
167.054785
 21
87.027592
  0
LINE
  8
寸法
  6
BYBLOCK
 62
     0
 10
122.554785
 20
87.027592
 11
167.054785
 21
87.027592
  0
POINT
  8
寸法
 62
     0
 10
122.554785
 20
87.027592
  0
POINT
  8
寸法
 62
     0
 10
167.054785
 20
87.027592
  0
TEXT
  7
TextStyle03
  8
寸法
  6
CONTINUOUS
 62
     0
 10
142.3625
 20
87.4
  1
890
 40
3.0
 72
     5
 11
147.2375
 21
87.4
  0
ENDBLK
  0
BLOCK
  2
*DIM_0009
 70
    65
 10
0.0
 20
0.0
  0
LINE
  8
寸法
  6
BYBLOCK
 62
     0
 10
170.054785
 20
74.307477
 11
180.156187
 21
74.307477
  0
LINE
  8
寸法
  6
BYBLOCK
 62
     0
 10
170.054785
 20
29.807477
 11
180.156187
 21
29.807477
  0
LINE
  8
寸法
  6
BYBLOCK
 62
     0
 10
180.156187
 20
74.307477
 11
180.156187
 21
29.807477
  0
POINT
  8
寸法
 62
     0
 10
180.156187
 20
74.307477
  0
POINT
  8
寸法
 62
     0
 10
180.156187
 20
29.807477
  0
TEXT
  7
TextStyle03
  8
寸法
  6
CONTINUOUS
 62
     0
 10
179.775
 20
49.6125
  1
890
 40
3.0
 50
90.0
 72
     5
 11
179.775
 21
54.4875
  0
ENDBLK
  0
BLOCK
  2
*DIM_0010
 70
    65
 10
0.0
 20
0.0
  0
LINE
  8
寸法
  6
CONTINUOUS
 10
-26.31013
 20
-57.301133
 11
-26.31013
 21
-50.85113
  0
POINT
  8
寸法
 10
-26.31013
 20
-57.301133
  0
POINT
  8
寸法
 10
-26.31013
 20
-50.85113
  0
TEXT
  7
TextStyle03
  8
寸法
  6
CONTINUOUS
 10
-26.7
 20
-56.5875
  1
129
 40
3.0
 50
90.0
 72
     5
 11
-26.7
 21
-51.7125
  0
ENDBLK
  0
ENDSEC
  0
SECTION
  2
ENTITIES
  0
POLYLINE
  8
通り芯
  6
CONTINUOUS
 66
     1
 70
     1
  0
VERTEX
  8
通り芯
 10
-210.0
 20
-148.5
  0
VERTEX
  8
通り芯
 10
210.0
 20
-148.5
  0
VERTEX
  8
通り芯
 10
210.0
 20
148.5
  0
VERTEX
  8
通り芯
 10
-210.0
 20
148.5
  0
SEQEND
  0
INSERT
  2
*GRP_0001
  8
型材断面
  6
CONTINUOUS
 10
0.0
 20
0.0
  0
LINE
  8
型材断面
  6
DASHDOT
 10
-69.935405
 20
-67.794
 11
-69.935405
 21
56.66027
  0
LINE
  8
型材断面
  6
DASHDOT
 10
-92.435405
 20
-67.794
 11
-92.435405
 21
56.66027
  0
LINE
  8
型材断面
  6
DASHDOT
 10
-47.435405
 20
-67.794
 11
-47.435405
 21
56.66027
  0
LINE
  8
型材断面
  6
DASHDOT
 10
-92.435405
 20
34.16027
 11
-47.435405
 21
34.16027
  0
LINE
  8
型材断面
  6
CONTINUOUS
 10
-14.97586
 20
10.78135
 11
-17.219305
 21
6.89559
  0
LINE
  8
型材断面
  6
CONTINUOUS
 10
-14.97586
 20
10.78135
 11
-12.732415
 21
6.89559
  0
LINE
  8
型材断面
  6
CONTINUOUS
 10
-12.732415
 20
6.89559
 11
-17.219305
 21
6.89559
  0
LINE
  8
型材断面
  6
CONTINUOUS
 10
-24.00974
 20
5.487697
 11
28.64694
 21
5.487697
  0
LINE
  8
型材断面
  6
CONTINUOUS
 10
-69.935405
 20
64.684145
 11
-72.17885
 21
68.569905
  0
LINE
  8
型材断面
  6
CONTINUOUS
 10
-69.935405
 20
64.684145
 11
-67.69196
 21
68.569905
  0
LINE
  8
型材断面
  6
CONTINUOUS
 10
-67.69196
 20
68.569905
 11
-72.17885
 21
68.569905
  0
LINE
  8
型材断面
  6
CONTINUOUS
 10
-69.935405
 20
3.636395
 11
-72.17885
 21
-0.249365
  0
LINE
  8
型材断面
  6
CONTINUOUS
 10
-69.935405
 20
3.636395
 11
-67.69196
 21
-0.249365
  0
LINE
  8
型材断面
  6
CONTINUOUS
 10
-67.69196
 20
-0.249365
 11
-72.17885
 21
-0.249365
  0
LINE
  8
型材断面
  6
CONTINUOUS
 10
-39.41153
 20
34.16027
 11
-35.52577
 21
36.403715
  0
LINE
  8
型材断面
  6
CONTINUOUS
 10
-39.41153
 20
34.16027
 11
-35.52577
 21
31.916825
  0
LINE
  8
型材断面
  6
CONTINUOUS
 10
-35.52577
 20
31.916825
 11
-35.52577
 21
36.403715
  0
LINE
  8
型材断面
  6
CONTINUOUS
 10
-100.45928
 20
34.16027
 11
-104.34504
 21
36.403715
  0
LINE
  8
型材断面
  6
CONTINUOUS
 10
-100.45928
 20
34.16027
 11
-104.34504
 21
31.916825
  0
LINE
  8
型材断面
  6
CONTINUOUS
 10
-104.34504
 20
31.916825
 11
-104.34504
 21
36.403715
  0
LINE
  8
型材断面
  6
CONTINUOUS
 10
-24.00974
 20
-1.519412
 11
28.64694
 21
-1.519412
  0
LINE
  8
型材断面
  6
CONTINUOUS
 10
-42.685405
 20
61.41027
 11
-42.685405
 21
34.16027
  0
LINE
  8
型材断面
  6
CONTINUOUS
 10
-42.685405
 20
61.41027
 11
-69.935405
 21
61.41027
  0
LINE
  8
型材断面
  6
CONTINUOUS
 10
-42.685405
 20
6.91027
 11
-69.935405
 21
6.91027
  0
LINE
  8
型材断面
  6
CONTINUOUS
 10
-42.685405
 20
6.91027
 11
-42.685405
 21
34.16027
  0
LINE
  8
型材断面
  6
CONTINUOUS
 10
-97.185405
 20
61.41027
 11
-97.185405
 21
34.16027
  0
LINE
  8
型材断面
  6
CONTINUOUS
 10
-97.185405
 20
61.41027
 11
-69.935405
 21
61.41027
  0
LINE
  8
型材断面
  6
CONTINUOUS
 10
-97.185405
 20
6.91027
 11
-69.935405
 21
6.91027
  0
LINE
  8
型材断面
  6
CONTINUOUS
 10
-97.185405
 20
6.91027
 11
-97.185405
 21
34.16027
  0
LINE
  8
型材断面
  6
CONTINUOUS
 62
    47
 10
-96.435418
 20
-57.80113
 11
-96.435418
 21
-57.301133
  0
LINE
  8
型材断面
  6
CONTINUOUS
 62
    47
 10
-96.750405
 20
-57.301133
 11
-97.185405
 21
-57.301133
  0
LINE
  8
型材断面
  6
CONTINUOUS
 62
    47
 10
-97.185405
 20
-57.301133
 11
-97.185405
 21
-56.551133
  0
LINE
  8
型材断面
  6
CONTINUOUS
 62
    47
 10
-97.185405
 20
-56.551133
 11
-94.275405
 21
-56.330655
  0
LINE
  8
型材断面
  6
CONTINUOUS
 62
    47
 10
-94.275405
 20
-55.586128
 11
-94.275405
 21
-53.351133
  0
LINE
  8
型材断面
  6
CONTINUOUS
 62
    47
 10
-94.275405
 20
-55.616128
 11
-94.275405
 21
-56.330655
  0
LINE
  8
型材断面
  6
CONTINUOUS
 62
    47
 10
-43.435393
 20
-57.80113
 11
-43.435393
 21
-57.301133
  0
LINE
  8
型材断面
  6
CONTINUOUS
 62
    47
 10
-43.120405
 20
-57.301133
 11
-42.685405
 21
-57.301133
  0
LINE
  8
型材断面
  6
CONTINUOUS
 62
    47
 10
-42.685405
 20
-57.301133
 11
-42.685405
 21
-56.551133
  0
LINE
  8
型材断面
  6
CONTINUOUS
 62
    47
 10
-42.685405
 20
-56.551133
 11
-45.595405
 21
-56.330655
  0
LINE
  8
型材断面
  6
CONTINUOUS
 62
    47
 10
-45.595405
 20
-55.586128
 11
-45.595405
 21
-53.351133
  0
LINE
  8
型材断面
  6
CONTINUOUS
 62
    47
 10
-45.595405
 20
-55.616128
 11
-45.595405
 21
-56.330655
  0
LINE
  8
型材断面
  6
CONTINUOUS
 10
-96.435418
 20
-57.80113
 11
-69.935405
 21
-57.80113
  0
LINE
  8
型材断面
  6
CONTINUOUS
 10
-94.275405
 20
-56.330655
 11
-69.935405
 21
-56.330655
  0
LINE
  8
型材断面
  6
CONTINUOUS
 10
-97.185405
 20
-57.301133
 11
-69.935405
 21
-57.301133
  0
LINE
  8
型材断面
  6
CONTINUOUS
 10
-97.185405
 20
-56.551133
 11
-69.935405
 21
-56.551133
  0
LINE
  8
型材断面
  6
CONTINUOUS
 10
-94.820405
 20
-53.351133
 11
-69.935405
 21
-53.351133
  0
LINE
  8
型材断面
  6
CONTINUOUS
 10
-94.820405
 20
-50.85113
 11
-69.935405
 21
-50.85113
  0
LINE
  8
型材断面
  6
CONTINUOUS
 10
-95.055188
 20
-51.101133
 11
-69.935405
 21
-51.101133
  0
LINE
  8
型材断面
  6
CONTINUOUS
 10
-45.050405
 20
-53.351133
 11
-69.935405
 21
-53.351133
  0
LINE
  8
型材断面
  6
CONTINUOUS
 10
-44.815622
 20
-51.101133
 11
-69.935405
 21
-51.101133
  0
LINE
  8
型材断面
  6
CONTINUOUS
 10
-45.050405
 20
-50.85113
 11
-69.935405
 21
-50.85113
  0
LINE
  8
型材断面
  6
CONTINUOUS
 10
-45.595405
 20
-56.330655
 11
-69.935405
 21
-56.330655
  0
LINE
  8
型材断面
  6
CONTINUOUS
 10
-43.435393
 20
-57.80113
 11
-69.935405
 21
-57.80113
  0
LINE
  8
型材断面
  6
CONTINUOUS
 10
-42.685405
 20
-57.301133
 11
-69.935405
 21
-57.301133
  0
LINE
  8
型材断面
  6
CONTINUOUS
 10
-42.685405
 20
-56.551133
 11
-69.935405
 21
-56.551133
  0
LINE
  8
型材断面
  6
DASHDOT
 10
-92.435405
 20
56.66027
 11
-47.435405
 21
56.66027
  0
LINE
  8
型材断面
  6
DASHDOT
 10
-92.435405
 20
11.66027
 11
-47.435405
 21
11.66027
  0
LINE
  8
型材断面
  6
CONTINUOUS
 10
-45.169172
 20
9.040488
 11
-44.815622
 21
9.394038
  0
LINE
  8
型材断面
  6
CONTINUOUS
 10
-48.565618
 20
13.144038
 11
-44.815622
 21
9.39404
  0
LINE
  8
型材断面
  6
CONTINUOUS
 10
-48.919168
 20
12.790488
 11
-45.168955
 21
9.04027
  0
LINE
  8
型材断面
  6
CONTINUOUS
 10
-48.565622
 20
13.144043
 11
-48.919385
 21
12.79027
  0
LINE
  8
型材断面
  6
CONTINUOUS
 10
-42.685405
 20
6.91027
 11
-44.992397
 21
9.217262
  0
LINE
  8
型材断面
  6
CONTINUOUS
 10
-45.169172
 20
59.280053
 11
-44.815622
 21
58.926503
  0
LINE
  8
型材断面
  6
CONTINUOUS
 10
-94.701638
 20
59.280053
 11
-95.055188
 21
58.926503
  0
LINE
  8
型材断面
  6
CONTINUOUS
 10
-94.701638
 20
9.040488
 11
-95.055188
 21
9.394038
  0
LINE
  8
型材断面
  6
CONTINUOUS
 10
-69.310405
 20
12.79027
 11
-69.310405
 21
9.04027
  0
LINE
  8
型材断面
  6
CONTINUOUS
 10
-70.560405
 20
12.79027
 11
-70.560405
 21
9.04027
  0
LINE
  8
型材断面
  6
CONTINUOUS
 10
-48.565405
 20
33.53527
 11
-44.815405
 21
33.53527
  0
LINE
  8
型材断面
  6
CONTINUOUS
 10
-48.565405
 20
34.78527
 11
-44.815405
 21
34.78527
  0
LINE
  8
型材断面
  6
CONTINUOUS
 10
-70.560405
 20
55.53027
 11
-70.560405
 21
59.28027
  0
LINE
  8
型材断面
  6
CONTINUOUS
 10
-69.310405
 20
55.53027
 11
-69.310405
 21
59.28027
  0
LINE
  8
型材断面
  6
CONTINUOUS
 10
-91.305405
 20
34.78527
 11
-95.055405
 21
34.78527
  0
LINE
  8
型材断面
  6
CONTINUOUS
 10
-91.305405
 20
33.53527
 11
-95.055405
 21
33.53527
  0
LINE
  8
型材断面
  6
CONTINUOUS
 10
-69.310405
 20
12.79027
 11
-48.919385
 21
12.79027
  0
LINE
  8
型材断面
  6
CONTINUOUS
 10
-48.565622
 20
33.53527
 11
-48.565622
 21
13.144043
  0
LINE
  8
型材断面
  6
CONTINUOUS
 10
-44.815622
 20
9.39404
 11
-44.815622
 21
58.9265
  0
LINE
  8
型材断面
  6
CONTINUOUS
 10
-48.919168
 20
55.530053
 11
-45.168955
 21
59.28027
  0
LINE
  8
型材断面
  6
CONTINUOUS
 10
-44.815622
 20
58.9265
 11
-48.565622
 21
55.176498
  0
LINE
  8
型材断面
  6
CONTINUOUS
 10
-48.565622
 20
34.78527
 11
-48.565622
 21
55.176498
  0
LINE
  8
型材断面
  6
CONTINUOUS
 10
-48.565622
 20
55.176498
 11
-48.919385
 21
55.53027
  0
LINE
  8
型材断面
  6
CONTINUOUS
 10
-69.310405
 20
55.53027
 11
-48.919385
 21
55.53027
  0
LINE
  8
型材断面
  6
CONTINUOUS
 10
-42.685405
 20
61.41027
 11
-44.992397
 21
59.103277
  0
LINE
  8
型材断面
  6
CONTINUOUS
 10
-70.560405
 20
55.53027
 11
-90.951425
 21
55.53027
  0
LINE
  8
型材断面
  6
CONTINUOUS
 10
-90.951425
 20
55.53027
 11
-91.305188
 21
55.176498
  0
LINE
  8
型材断面
  6
CONTINUOUS
 10
-91.305188
 20
34.78527
 11
-91.305188
 21
55.176498
  0
LINE
  8
型材断面
  6
CONTINUOUS
 10
-90.951642
 20
55.530053
 11
-94.701855
 21
59.28027
  0
LINE
  8
型材断面
  6
CONTINUOUS
 10
-45.168955
 20
59.28027
 11
-94.701855
 21
59.28027
  0
LINE
  8
型材断面
  6
CONTINUOUS
 10
-91.305192
 20
55.176503
 11
-95.055188
 21
58.9265
  0
LINE
  8
型材断面
  6
CONTINUOUS
 10
-97.185405
 20
61.41027
 11
-94.878413
 21
59.103277
  0
LINE
  8
型材断面
  6
CONTINUOUS
 10
-70.560405
 20
12.79027
 11
-90.951425
 21
12.79027
  0
LINE
  8
型材断面
  6
CONTINUOUS
 10
-90.951425
 20
12.79027
 11
-91.305188
 21
13.144043
  0
LINE
  8
型材断面
  6
CONTINUOUS
 10
-91.305188
 20
33.53527
 11
-91.305188
 21
13.144043
  0
LINE
  8
型材断面
  6
CONTINUOUS
 10
-90.951642
 20
12.790488
 11
-94.701855
 21
9.04027
  0
LINE
  8
型材断面
  6
CONTINUOUS
 10
-45.168955
 20
9.04027
 11
-94.701855
 21
9.04027
  0
LINE
  8
型材断面
  6
CONTINUOUS
 10
-91.305192
 20
13.144038
 11
-95.055188
 21
9.39404
  0
LINE
  8
型材断面
  6
CONTINUOUS
 10
-95.055188
 20
58.9265
 11
-95.055188
 21
9.39404
  0
LINE
  8
型材断面
  6
CONTINUOUS
 10
-97.185405
 20
6.91027
 11
-94.878413
 21
9.217262
  0
LINE
  8
ガラス
  6
CONTINUOUS
 10
122.554785
 20
74.307477
 11
122.554785
 21
29.807477
  0
LINE
  8
ガラス
  6
CONTINUOUS
 10
167.054785
 20
29.807477
 11
122.554785
 21
29.807477
  0
LINE
  8
ガラス
  6
CONTINUOUS
 10
167.054785
 20
29.807477
 11
167.054785
 21
74.307477
  0
LINE
  8
ガラス
  6
CONTINUOUS
 10
122.554785
 20
74.307477
 11
167.054785
 21
74.307477
  0
LINE
  8
ボルト／ビス
  6
CONTINUOUS
 62
    47
 10
-94.275405
 20
-55.451127
 11
-94.275405
 21
-55.751127
  0
LINE
  8
ボルト／ビス
  6
CONTINUOUS
 62
    47
 10
-94.275405
 20
-55.451127
 11
-94.300405
 21
-55.47613
  0
LINE
  8
ボルト／ビス
  6
CONTINUOUS
 62
    47
 10
-94.275405
 20
-55.751127
 11
-94.300405
 21
-55.72613
  0
LINE
  8
ボルト／ビス
  6
CONTINUOUS
 62
    47
 10
-94.300405
 20
-55.47613
 11
-94.300405
 21
-55.72613
  0
LINE
  8
ボルト／ビス
  6
CONTINUOUS
 62
    47
 10
-45.595405
 20
-55.451127
 11
-45.595405
 21
-55.751127
  0
LINE
  8
ボルト／ビス
  6
CONTINUOUS
 62
    47
 10
-45.595405
 20
-55.451127
 11
-45.570405
 21
-55.47613
  0
LINE
  8
ボルト／ビス
  6
CONTINUOUS
 62
    47
 10
-45.595405
 20
-55.751127
 11
-45.570405
 21
-55.72613
  0
LINE
  8
ボルト／ビス
  6
CONTINUOUS
 62
    47
 10
-45.570405
 20
-55.47613
 11
-45.570405
 21
-55.72613
  0
TEXT
  7
TextStyle03
  8
文字
  6
CONTINUOUS
 10
-10.7
 20
7.2
  1
は排水穴位置を示す
 40
3.0
 72
     5
 11
19.3
 21
7.2
  0
TEXT
  7
TextStyle03
  8
文字
  6
CONTINUOUS
 10
-98.825
 20
79.85
  1
アンカーピッチ
 40
3.0
 72
     5
 11
-75.575
 21
79.85
  0
TEXT
  7
TextStyle03
  8
文字
  6
CONTINUOUS
 10
-122.475
 20
1.75
  1
アンカーピッチ
 40
3.0
 50
90.0
 72
     5
 11
-122.475
 21
25.0
  0
TEXT
  7
TextStyle03
  8
文字
  6
CONTINUOUS
 10
-16.3
 20
-0.15
  1
アンカー数量　６ヶ所
 40
3.0
 72
     5
 11
17.075
 21
-0.15
  0
TEXT
  7
TextStyle03
  8
文字
  6
CONTINUOUS
 10
146.1
 20
38.8
  1
網入り6.8t
 40
3.0
 72
     5
 11
162.7875
 21
38.8
  0
TEXT
  7
TextStyle03
  8
文字
  6
CONTINUOUS
 10
152.725
 20
33.55
  1
×１枚
 40
3.0
 72
     5
 11
162.475
 21
33.55
  0
LINE
  8
文字
  6
CONTINUOUS
 10
-26.31013
 20
-50.85113
 11
-43.12894
 21
-50.85113
  0
LINE
  8
文字
  6
CONTINUOUS
 10
-26.31013
 20
-57.301133
 11
-41.187848
 21
-57.301133
  0
TEXT
  7
TextStyle03
  8
文字
  6
CONTINUOUS
 10
63.65
 20
120.7
  1
シリーズ：ＴＦＦＫ
 40
5.0
 72
     5
 11
113.65
 21
120.7
  0
TEXT
  7
TextStyle03
  8
文字
  6
CONTINUOUS
 10
63.65
 20
115.075
  1
　　　　　（固定）900×900タイプ
 40
5.0
 72
     5
 11
153.025
 21
115.075
  0
TEXT
  7
TextStyle03
  8
文字
  6
CONTINUOUS
 10
63.65
 20
109.45
  1
図面名　：外観姿図
 40
5.0
 72
     5
 11
113.65
 21
109.45
  0
TEXT
  7
TextStyle03
  8
文字
  6
CONTINUOUS
 10
63.65
 20
103.825
  1
　　　　　　
 40
5.0
 72
     5
 11
96.775
 21
103.825
  0
INSERT
  2
*DIM_0002
  8
寸法
  6
CONTINUOUS
 10
0.0
 20
0.0
  0
INSERT
  2
*DIM_0003
  8
寸法
  6
CONTINUOUS
 10
0.0
 20
0.0
  0
INSERT
  2
*DIM_0004
  8
寸法
  6
CONTINUOUS
 10
0.0
 20
0.0
  0
INSERT
  2
*DIM_0005
  8
寸法
  6
CONTINUOUS
 10
0.0
 20
0.0
  0
CIRCLE
  8
寸法
  6
CONTINUOUS
 10
-111.453763
 20
34.16027
 40
1.73792
  0
INSERT
  2
*DIM_0006
  8
寸法
  6
CONTINUOUS
 10
0.0
 20
0.0
  0
INSERT
  2
*DIM_0007
  8
寸法
  6
CONTINUOUS
 10
0.0
 20
0.0
  0
INSERT
  2
*DIM_0008
  8
寸法
  6
CONTINUOUS
 10
0.0
 20
0.0
  0
INSERT
  2
*DIM_0009
  8
寸法
  6
CONTINUOUS
 10
0.0
 20
0.0
  0
INSERT
  2
*DIM_0010
  8
寸法
  6
CONTINUOUS
 10
0.0
 20
0.0
  0
LINE
  8
別途部材
  6
CONTINUOUS
 62
    47
 10
-95.055188
 20
-51.101133
 11
-94.980188
 21
-51.101133
  0
LINE
  8
別途部材
  6
CONTINUOUS
 62
    47
 10
-95.055188
 20
-51.00113
 11
-95.055188
 21
-51.101133
  0
ARC
  8
別途部材
  6
CONTINUOUS
 62
    47
 10
-94.905187
 20
-51.001128
 40
0.15
 50
90.0
 51
180.0
  0
LINE
  8
別途部材
  6
CONTINUOUS
 62
    47
 10
-94.905188
 20
-50.85113
 11
-91.355188
 21
-50.85113
  0
LINE
  8
別途部材
  6
CONTINUOUS
 62
    47
 10
-94.820405
 20
-51.101133
 11
-94.820405
 21
-53.351133
  0
LINE
  8
別途部材
  6
CONTINUOUS
 62
    47
 10
-44.815622
 20
-51.101133
 11
-44.890622
 21
-51.101133
  0
LINE
  8
別途部材
  6
CONTINUOUS
 62
    47
 10
-44.815622
 20
-51.00113
 11
-44.815622
 21
-51.101133
  0
ARC
  8
別途部材
  6
CONTINUOUS
 62
    47
 10
-44.965621
 20
-51.001128
 40
0.15
 50
0.0
 51
90.0
  0
LINE
  8
別途部材
  6
CONTINUOUS
 62
    47
 10
-44.965622
 20
-50.85113
 11
-48.515622
 21
-50.85113
  0
LINE
  8
別途部材
  6
CONTINUOUS
 62
    47
 10
-45.050405
 20
-51.101133
 11
-45.050405
 21
-53.351133
  0
LINE
  8
曲げ物
  6
CONTINUOUS
 10
-67.035617
 20
36.907673
 11
-72.578585
 21
31.364705
  0
LINE
  8
曲げ物
  6
CONTINUOUS
 10
-68.090823
 20
34.603507
 11
-70.274417
 21
32.419912
  0
LINE
  8
曲げ物
  6
CONTINUOUS
 10
-69.339782
 20
35.852468
 11
-71.523377
 21
33.668872
  0
ENDSEC
  0
EOF
