  0
SECTION
  2
HEADER
  9
$EXTMIN
 10
-210.0
 20
-148.5
  9
$EXTMAX
 10
210.0
 20
148.5
  9
$PDMODE
 70
    32
  9
$PDSIZE
 40
1.5
  9
$LTSCALE
 40
10.0
  0
ENDSEC
  0
SECTION
  2
TABLES
  0
TABLE
  2
LTYPE
 70
    15
  0
LTYPE
  2
CONTINUOUS
 70
    64
  3
実線
 72
    65
 73
     0
 40
0.0
  0
LTYPE
  2
DASHED
 70
    64
  3
破線A
 72
    65
 73
     2
 40
0.6
 49
0.4
 49
-0.2
  0
LTYPE
  2
DASHEDX2
 70
    64
  3
破線B
 72
    65
 73
     2
 40
1.3
 49
0.9
 49
-0.4
  0
LTYPE
  2
DASHDOT
 70
    64
  3
１点鎖線A
 72
    65
 73
     4
 40
0.5375
 49
0.375
 49
-0.05
 49
0.0625
 49
-0.05
  0
LTYPE
  2
DASHDOTX2
 70
    64
  3
１点鎖線B
 72
    65
 73
     4
 40
1.075
 49
0.75
 49
-0.1
 49
0.125
 49
-0.1
  0
LTYPE
  2
DIVIDE2
 70
    64
  3
２点鎖線A
 72
    65
 73
     6
 40
0.5125
 49
0.3
 49
-0.0375
 49
0.05
 49
-0.0375
 49
0.05
 49
-0.0375
  0
LTYPE
  2
DIVIDE
 70
    64
  3
２点鎖線B
 72
    65
 73
     6
 40
1.05
 49
0.55
 49
-0.1
 49
0.1
 49
-0.1
 49
0.1
 49
-0.1
  0
LTYPE
  2
DOT
 70
    64
  3
点線A
 72
    65
 73
     2
 40
0.1125
 49
0.0625
 49
-0.05
  0
LTYPE
  2
DOTX2
 70
    64
  3
点線B
 72
    65
 73
     2
 40
0.275
 49
0.15
 49
-0.125
  0
LTYPE
  2
CONTINUOUS
 70
    64
  3
実線
 72
    65
 73
     0
 40
0.0
  0
LTYPE
  2
CONTINUOUS
 70
    64
  3
実線
 72
    65
 73
     0
 40
0.0
  0
LTYPE
  2
CONTINUOUS
 70
    64
  3
実線
 72
    65
 73
     0
 40
0.0
  0
LTYPE
  2
CONTINUOUS
 70
    64
  3
実線
 72
    65
 73
     0
 40
0.0
  0
LTYPE
  2
CONTINUOUS
 70
    64
  3
実線
 72
    65
 73
     0
 40
0.0
  0
LTYPE
  2
CONTINUOUS
 70
    64
  3
実線
 72
    65
 73
     0
 40
0.0
  0
ENDTAB
  0
TABLE
  2
LAYER
 70
    35
  0
LAYER
  2
通り芯
 70
     0
 62
    15
  6
CONTINUOUS
  0
LAYER
  2
補助線
 70
     0
 62
    16
  6
DOT
  0
LAYER
  2
躯体
 70
     0
 62
    31
  6
CONTINUOUS
  0
LAYER
  2
型材
 70
     0
 62
    32
  6
CONTINUOUS
  0
LAYER
  2
型材断面
 70
     0
 62
    47
  6
CONTINUOUS
  0
LAYER
  2
ガラス
 70
     0
 62
    48
  6
CONTINUOUS
  0
LAYER
  2
ゴム等
 70
     0
 62
    63
  6
CONTINUOUS
  0
LAYER
  2
ボルト／ビス
 70
     0
 62
    64
  6
CONTINUOUS
  0
LAYER
  2
文字
 70
     0
 62
    79
  6
CONTINUOUS
  0
LAYER
  2
寸法
 70
     0
 62
    80
  6
CONTINUOUS
  0
LAYER
  2
ﾊｯﾁﾝｸﾞ
 70
     0
 62
    95
  6
CONTINUOUS
  0
LAYER
  2
別途部材
 70
     0
 62
    96
  6
CONTINUOUS
  0
LAYER
  2
曲げ物
 70
     0
 62
   111
  6
CONTINUOUS
  0
LAYER
  2
鉄骨等
 70
     0
 62
   112
  6
CONTINUOUS
  0
LAYER
  2
St
 70
     0
 62
   127
  6
CONTINUOUS
  0
LAYER
  2
その他部品等
 70
     0
 62
   128
  6
CONTINUOUS
  0
LAYER
  2
ｶﾞｽｹｯﾄ
 70
     0
 62
   143
  6
CONTINUOUS
  0
LAYER
  2
ｽｹｯﾁ
 70
     0
 62
    14
  6
CONTINUOUS
  0
LAYER
  2
0
 70
     0
 62
    17
  6
CONTINUOUS
  0
LAYER
  2
1
 70
     0
 62
    30
  6
CONTINUOUS
  0
LAYER
  2
4
 70
     0
 62
    33
  6
CONTINUOUS
  0
LAYER
  2
ﾚｲﾔ3
 70
     0
 62
    46
  6
CONTINUOUS
  0
LAYER
  2
外形線
 70
     0
 62
    49
  6
CONTINUOUS
  0
LAYER
  2
部品
 70
     0
 62
    14
  6
CONTINUOUS
  0
LAYER
  2
サッシ芯
 70
     0
 62
    17
  6
DASHDOTX2
  0
LAYER
  2
寸法線
 70
     0
 62
    62
  6
CONTINUOUS
  0
LAYER
  2
姿図外形線
 70
     0
 62
    65
  6
CONTINUOUS
  0
LAYER
  2
姿補助線
 70
     0
 62
    30
  6
CONTINUOUS
  0
LAYER
  2
透視線
 70
     0
 62
    78
  6
DOT
  0
LAYER
  2
用紙
 70
     0
 62
    81
  6
CONTINUOUS
  0
LAYER
  2
実線図枠
 70
     0
 62
    94
  6
CONTINUOUS
  0
LAYER
  2
補助図枠
 70
     0
 62
    97
  6
CONTINUOUS
  0
LAYER
  2
建具記号
 70
     0
 62
   110
  6
CONTINUOUS
  0
LAYER
  2
補助文字
 70
     0
 62
   113
  6
CONTINUOUS
  0
LAYER
  2
01
 70
     0
 62
     1
  6
CONTINUOUS
  0
ENDTAB
  0
TABLE
  2
STYLE
 70
    10
  0
STYLE
  2
STANDARD
 70
     0
 40
1.0
 41
1.0
 42
1.0
 50
0.0
 71
     0
  3
TXT
  4
BIGFONT
  0
STYLE
  2
TATE
 70
     4
 40
1.0
 41
1.0
 42
1.0
 50
0.0
 71
     0
  3
TXT
  4
BIGFONT
  0
STYLE
  2
TextStyle03
 70
     0
 40
1.0
 41
1.0
 42
1.0
 50
0.0
 71
     0
  3
MONOTXT
  4
BIGFONT
  0
STYLE
  2
TextStyle04
 70
     0
 40
1.0
 41
1.0
 42
1.0
 50
0.0
 71
     0
  3
MONOTXT
  4
BIGFONT
  0
STYLE
  2
TextStyle05
 70
     0
 40
1.0
 41
1.0
 42
1.0
 50
0.0
 71
     0
  3
MONOTXT
  4
BIGFONT
  0
STYLE
  2
TextStyle06
 70
     0
 40
1.0
 41
1.0
 42
1.0
 50
0.0
 71
     0
  3
MONOTXT
  4
BIGFONT
  0
STYLE
  2
TextStyle07
 70
     0
 40
1.0
 41
1.0
 42
1.0
 50
0.0
 71
     0
  3
MONOTXT
  4
BIGFONT
  0
STYLE
  2
TextStyle08
 70
     0
 40
1.0
 41
1.0
 42
1.0
 50
0.0
 71
     0
  3
MONOTXT
  4
BIGFONT
  0
STYLE
  2
TextStyle09
 70
     0
 40
1.0
 41
1.0
 42
1.0
 50
0.0
 71
     0
  3
MONOTXT
  4
BIGFONT
  0
STYLE
  2
TextStyle10
 70
     0
 40
1.0
 41
1.0
 42
1.0
 50
0.0
 71
     0
  3
MONOTXT
  4
BIGFONT
  0
ENDTAB
  0
ENDSEC
  0
SECTION
  2
BLOCKS
  0
BLOCK
  2
*HAT_0001
 70
    65
 10
0.0
 20
0.0
  0
LINE
  8
別途部材
  6
DOT
 10
-56.575
 20
-85.95
 11
-56.8
 21
-85.725
  0
LINE
  8
別途部材
  6
DOT
 10
-54.1
 20
-85.95
 11
-56.8
 21
-83.175
  0
LINE
  8
別途部材
  6
DOT
 10
-51.55
 20
-85.95
 11
-56.8
 21
-80.625
  0
LINE
  8
別途部材
  6
DOT
 10
-49.0
 20
-85.95
 11
-56.8
 21
-78.075
  0
LINE
  8
別途部材
  6
DOT
 10
-46.825
 20
-85.575
 11
-56.425
 21
-75.9
  0
LINE
  8
別途部材
  6
DOT
 10
-46.825
 20
-83.025
 11
-53.875
 21
-75.9
  0
LINE
  8
別途部材
  6
DOT
 10
-46.825
 20
-80.475
 11
-51.4
 21
-75.9
  0
LINE
  8
別途部材
  6
DOT
 10
-46.825
 20
-77.925
 11
-48.85
 21
-75.9
  0
ENDBLK
  0
BLOCK
  2
*HAT_0002
 70
    65
 10
0.0
 20
0.0
  0
LINE
  8
ﾊｯﾁﾝｸﾞ
 10
-9.7
 20
-77.55
 11
-2.875
 21
-70.725
  0
LINE
  8
ﾊｯﾁﾝｸﾞ
 10
-9.7
 20
-74.725
 11
-2.975
 21
-68.025
  0
LINE
  8
ﾊｯﾁﾝｸﾞ
 10
-9.7
 20
-71.9
 11
-3.25
 21
-65.45
  0
LINE
  8
ﾊｯﾁﾝｸﾞ
 10
-10.075
 20
-69.45
 11
-6.075
 21
-65.45
  0
LINE
  8
ﾊｯﾁﾝｸﾞ
 10
-10.1
 20
-66.65
 11
-8.9
 21
-65.45
  0
LINE
  8
ﾊｯﾁﾝｸﾞ
 10
-9.7
 20
-77.975
 11
-9.7
 21
-77.975
  0
LINE
  8
ﾊｯﾁﾝｸﾞ
 10
-9.7
 20
-75.15
 11
-8.125
 21
-76.725
  0
LINE
  8
ﾊｯﾁﾝｸﾞ
 10
-9.7
 20
-72.325
 11
-6.55
 21
-75.475
  0
LINE
  8
ﾊｯﾁﾝｸﾞ
 10
-10.1
 20
-69.1
 11
-9.75
 21
-69.45
  0
LINE
  8
ﾊｯﾁﾝｸﾞ
 10
-9.7
 20
-69.5
 11
-5.0
 21
-74.2
  0
LINE
  8
ﾊｯﾁﾝｸﾞ
 10
-10.1
 20
-66.275
 11
-3.425
 21
-72.95
  0
LINE
  8
ﾊｯﾁﾝｸﾞ
 10
-8.1
 20
-65.45
 11
-2.875
 21
-70.675
  0
LINE
  8
ﾊｯﾁﾝｸﾞ
 10
-5.275
 20
-65.45
 11
-3.0
 21
-67.725
  0
ENDBLK
  0
BLOCK
  2
*HAT_0003
 70
    65
 10
0.0
 20
0.0
  0
LINE
  8
ﾊｯﾁﾝｸﾞ
 10
-17.5
 20
-93.825
 11
-16.0
 21
-92.325
  0
LINE
  8
ﾊｯﾁﾝｸﾞ
 10
-18.6
 20
-92.1
 11
-13.775
 21
-87.3
  0
LINE
  8
ﾊｯﾁﾝｸﾞ
 10
-18.6
 20
-89.275
 11
-11.575
 21
-82.25
  0
LINE
  8
ﾊｯﾁﾝｸﾞ
 10
-18.6
 20
-86.45
 11
-10.125
 21
-78.0
  0
LINE
  8
ﾊｯﾁﾝｸﾞ
 10
-18.6
 20
-83.625
 11
-12.95
 21
-78.0
  0
LINE
  8
ﾊｯﾁﾝｸﾞ
 10
-18.6
 20
-80.8
 11
-15.775
 21
-78.0
  0
LINE
  8
ﾊｯﾁﾝｸﾞ
 10
-18.6
 20
-91.7
 11
-16.6
 21
-93.7
  0
LINE
  8
ﾊｯﾁﾝｸﾞ
 10
-18.6
 20
-88.875
 11
-15.725
 21
-91.725
  0
LINE
  8
ﾊｯﾁﾝｸﾞ
 10
-18.6
 20
-86.05
 11
-14.875
 21
-89.775
  0
LINE
  8
ﾊｯﾁﾝｸﾞ
 10
-18.6
 20
-83.225
 11
-14.0
 21
-87.8
  0
LINE
  8
ﾊｯﾁﾝｸﾞ
 10
-18.6
 20
-80.4
 11
-13.15
 21
-85.85
  0
LINE
  8
ﾊｯﾁﾝｸﾞ
 10
-18.175
 20
-78.0
 11
-12.275
 21
-83.875
  0
LINE
  8
ﾊｯﾁﾝｸﾞ
 10
-15.35
 20
-78.0
 11
-11.425
 21
-81.9
  0
LINE
  8
ﾊｯﾁﾝｸﾞ
 10
-12.525
 20
-78.0
 11
-10.55
 21
-79.95
  0
ENDBLK
  0
BLOCK
  2
*HAT_0004
 70
    65
 10
0.0
 20
0.0
  0
LINE
  8
ﾊｯﾁﾝｸﾞ
 10
-22.775
 20
-96.275
 11
-20.1
 21
-93.6
  0
LINE
  8
ﾊｯﾁﾝｸﾞ
 10
-26.875
 20
-97.575
 11
-20.7
 21
-91.4
  0
LINE
  8
ﾊｯﾁﾝｸﾞ
 10
-31.0
 20
-98.85
 11
-22.6
 21
-90.45
  0
LINE
  8
ﾊｯﾁﾝｸﾞ
 10
-22.025
 20
-89.9
 11
-20.1
 21
-87.95
  0
LINE
  8
ﾊｯﾁﾝｸﾞ
 10
-35.125
 20
-100.15
 11
-22.35
 21
-87.4
  0
LINE
  8
ﾊｯﾁﾝｸﾞ
 10
-39.1
 20
-101.3
 11
-25.2
 21
-87.4
  0
LINE
  8
ﾊｯﾁﾝｸﾞ
 10
-39.1
 20
-98.475
 11
-28.025
 21
-87.4
  0
LINE
  8
ﾊｯﾁﾝｸﾞ
 10
-39.1
 20
-95.65
 11
-30.85
 21
-87.4
  0
LINE
  8
ﾊｯﾁﾝｸﾞ
 10
-39.1
 20
-92.825
 11
-33.675
 21
-87.4
  0
LINE
  8
ﾊｯﾁﾝｸﾞ
 10
-39.1
 20
-90.0
 11
-36.5
 21
-87.4
  0
LINE
  8
ﾊｯﾁﾝｸﾞ
 10
-39.1
 20
-99.475
 11
-37.65
 21
-100.925
  0
LINE
  8
ﾊｯﾁﾝｸﾞ
 10
-39.1
 20
-96.65
 11
-35.5
 21
-100.25
  0
LINE
  8
ﾊｯﾁﾝｸﾞ
 10
-39.1
 20
-93.825
 11
-33.325
 21
-99.575
  0
LINE
  8
ﾊｯﾁﾝｸﾞ
 10
-39.1
 20
-91.0
 11
-31.175
 21
-98.925
  0
LINE
  8
ﾊｯﾁﾝｸﾞ
 10
-39.1
 20
-88.175
 11
-29.025
 21
-98.25
  0
LINE
  8
ﾊｯﾁﾝｸﾞ
 10
-37.05
 20
-87.4
 11
-26.875
 21
-97.575
  0
LINE
  8
ﾊｯﾁﾝｸﾞ
 10
-34.225
 20
-87.4
 11
-24.725
 21
-96.9
  0
LINE
  8
ﾊｯﾁﾝｸﾞ
 10
-31.4
 20
-87.4
 11
-22.575
 21
-96.225
  0
LINE
  8
ﾊｯﾁﾝｸﾞ
 10
-28.575
 20
-87.4
 11
-20.425
 21
-95.55
  0
LINE
  8
ﾊｯﾁﾝｸﾞ
 10
-25.75
 20
-87.4
 11
-22.6
 21
-90.525
  0
LINE
  8
ﾊｯﾁﾝｸﾞ
 10
-21.75
 20
-91.4
 11
-20.1
 21
-93.025
  0
LINE
  8
ﾊｯﾁﾝｸﾞ
 10
-22.9
 20
-87.4
 11
-20.4
 21
-89.9
  0
ENDBLK
  0
BLOCK
  2
*HAT_0005
 70
    65
 10
0.0
 20
0.0
  0
LINE
  8
ﾊｯﾁﾝｸﾞ
 10
-123.775
 20
85.05
 11
-133.3
 21
94.575
  0
LINE
  8
ﾊｯﾁﾝｸﾞ
 10
-122.65
 20
86.1
 11
-132.25
 21
95.625
  0
LINE
  8
ﾊｯﾁﾝｸﾞ
 10
-121.6
 20
87.15
 11
-131.2
 21
96.675
  0
LINE
  8
ﾊｯﾁﾝｸﾞ
 10
-120.55
 20
88.2
 11
-130.075
 21
97.725
  0
LINE
  8
ﾊｯﾁﾝｸﾞ
 10
-119.5
 20
89.25
 11
-128.2
 21
97.95
  0
LINE
  8
ﾊｯﾁﾝｸﾞ
 10
-118.45
 20
90.3
 11
-127.15
 21
99.0
  0
LINE
  8
ﾊｯﾁﾝｸﾞ
 10
-117.4
 20
91.35
 11
-126.1
 21
100.125
  0
LINE
  8
ﾊｯﾁﾝｸﾞ
 10
-116.35
 20
92.475
 11
-126.625
 21
102.75
  0
LINE
  8
ﾊｯﾁﾝｸﾞ
 10
-115.3
 20
93.525
 11
-124.45
 21
102.75
  0
LINE
  8
ﾊｯﾁﾝｸﾞ
 10
-114.175
 20
94.575
 11
-122.35
 21
102.75
  0
LINE
  8
ﾊｯﾁﾝｸﾞ
 10
-113.125
 20
95.625
 11
-120.25
 21
102.75
  0
LINE
  8
ﾊｯﾁﾝｸﾞ
 10
-112.075
 20
96.675
 11
-118.15
 21
102.75
  0
LINE
  8
ﾊｯﾁﾝｸﾞ
 10
-111.025
 20
97.725
 11
-115.975
 21
102.75
  0
LINE
  8
ﾊｯﾁﾝｸﾞ
 10
-109.975
 20
98.775
 11
-113.875
 21
102.75
  0
LINE
  8
ﾊｯﾁﾝｸﾞ
 10
-108.925
 20
99.825
 11
-111.775
 21
102.75
  0
LINE
  8
ﾊｯﾁﾝｸﾞ
 10
-107.875
 20
100.95
 11
-109.675
 21
102.75
  0
LINE
  8
ﾊｯﾁﾝｸﾞ
 10
-106.825
 20
102.0
 11
-107.5
 21
102.75
  0
LINE
  8
ﾊｯﾁﾝｸﾞ
 10
-108.025
 20
102.75
 11
-125.05
 21
85.725
  0
LINE
  8
ﾊｯﾁﾝｸﾞ
 10
-110.125
 20
102.75
 11
-126.1
 21
86.775
  0
LINE
  8
ﾊｯﾁﾝｸﾞ
 10
-112.3
 20
102.75
 11
-127.225
 21
87.825
  0
LINE
  8
ﾊｯﾁﾝｸﾞ
 10
-114.4
 20
102.75
 11
-128.275
 21
88.875
  0
LINE
  8
ﾊｯﾁﾝｸﾞ
 10
-116.5
 20
102.75
 11
-129.325
 21
89.925
  0
LINE
  8
ﾊｯﾁﾝｸﾞ
 10
-118.6
 20
102.75
 11
-130.375
 21
90.975
  0
LINE
  8
ﾊｯﾁﾝｸﾞ
 10
-120.775
 20
102.75
 11
-131.425
 21
92.025
  0
LINE
  8
ﾊｯﾁﾝｸﾞ
 10
-122.875
 20
102.75
 11
-132.475
 21
93.075
  0
LINE
  8
ﾊｯﾁﾝｸﾞ
 10
-124.975
 20
102.75
 11
-126.475
 21
101.25
  0
LINE
  8
ﾊｯﾁﾝｸﾞ
 10
-130.0
 20
97.725
 11
-133.525
 21
94.125
  0
LINE
  8
ﾊｯﾁﾝｸﾞ
 10
-127.075
 20
102.75
 11
-127.525
 21
102.3
  0
ENDBLK
  0
BLOCK
  2
*HAT_0006
 70
    65
 10
0.0
 20
0.0
  0
LINE
  8
ﾊｯﾁﾝｸﾞ
 10
-33.775
 20
-9.075
 11
-17.125
 21
7.5
  0
LINE
  8
ﾊｯﾁﾝｸﾞ
 10
-34.825
 20
-8.025
 11
-19.3
 21
7.5
  0
LINE
  8
ﾊｯﾁﾝｸﾞ
 10
-35.875
 20
-6.975
 11
-21.4
 21
7.5
  0
LINE
  8
ﾊｯﾁﾝｸﾞ
 10
-36.925
 20
-5.925
 11
-23.5
 21
7.5
  0
LINE
  8
ﾊｯﾁﾝｸﾞ
 10
-37.975
 20
-4.875
 11
-25.675
 21
7.5
  0
LINE
  8
ﾊｯﾁﾝｸﾞ
 10
-39.025
 20
-3.825
 11
-27.775
 21
7.5
  0
LINE
  8
ﾊｯﾁﾝｸﾞ
 10
-40.075
 20
-2.775
 11
-29.875
 21
7.5
  0
LINE
  8
ﾊｯﾁﾝｸﾞ
 10
-41.125
 20
-1.725
 11
-37.6
 21
1.875
  0
LINE
  8
ﾊｯﾁﾝｸﾞ
 10
-34.075
 20
5.4
 11
-31.975
 21
7.5
  0
LINE
  8
ﾊｯﾁﾝｸﾞ
 10
-35.125
 20
6.45
 11
-34.075
 21
7.5
  0
LINE
  8
ﾊｯﾁﾝｸﾞ
 10
-41.275
 20
-0.375
 11
-32.425
 21
-9.225
  0
LINE
  8
ﾊｯﾁﾝｸﾞ
 10
-40.225
 20
0.675
 11
-31.375
 21
-8.175
  0
LINE
  8
ﾊｯﾁﾝｸﾞ
 10
-39.175
 20
1.725
 11
-30.325
 21
-7.125
  0
LINE
  8
ﾊｯﾁﾝｸﾞ
 10
-37.225
 20
1.95
 11
-29.275
 21
-6.075
  0
LINE
  8
ﾊｯﾁﾝｸﾞ
 10
-36.175
 20
3.0
 11
-28.225
 21
-5.025
  0
LINE
  8
ﾊｯﾁﾝｸﾞ
 10
-35.125
 20
4.05
 11
-27.1
 21
-3.975
  0
LINE
  8
ﾊｯﾁﾝｸﾞ
 10
-34.075
 20
5.1
 11
-26.05
 21
-2.85
  0
LINE
  8
ﾊｯﾁﾝｸﾞ
 10
-34.3
 20
7.5
 11
-25.0
 21
-1.8
  0
LINE
  8
ﾊｯﾁﾝｸﾞ
 10
-32.2
 20
7.5
 11
-23.95
 21
-0.75
  0
LINE
  8
ﾊｯﾁﾝｸﾞ
 10
-30.1
 20
7.5
 11
-22.9
 21
0.3
  0
LINE
  8
ﾊｯﾁﾝｸﾞ
 10
-28.0
 20
7.5
 11
-21.85
 21
1.35
  0
LINE
  8
ﾊｯﾁﾝｸﾞ
 10
-25.825
 20
7.5
 11
-20.8
 21
2.4
  0
LINE
  8
ﾊｯﾁﾝｸﾞ
 10
-23.725
 20
7.5
 11
-19.75
 21
3.45
  0
LINE
  8
ﾊｯﾁﾝｸﾞ
 10
-21.625
 20
7.5
 11
-18.625
 21
4.5
  0
LINE
  8
ﾊｯﾁﾝｸﾞ
 10
-19.525
 20
7.5
 11
-17.575
 21
5.55
  0
LINE
  8
ﾊｯﾁﾝｸﾞ
 10
-17.35
 20
7.5
 11
-16.525
 21
6.675
  0
ENDBLK
  0
BLOCK
  2
*GRP_0001
 70
    65
 10
0.0
 20
0.0
  0
LINE
  8
型材断面
  6
CONTINUOUS
 10
195.0
 20
133.5
 11
195.0
 21
-133.5
  0
LINE
  8
型材断面
  6
CONTINUOUS
 10
195.0
 20
-133.5
 11
-185.0
 21
-133.5
  0
LINE
  8
型材断面
  6
CONTINUOUS
 10
-185.0
 20
-133.5
 11
-185.0
 21
133.5
  0
LINE
  8
型材断面
  6
CONTINUOUS
 10
195.0
 20
133.5
 11
-185.0
 21
133.5
  0
LINE
  8
型材断面
  6
CONTINUOUS
 10
145.0
 20
-133.5
 11
145.0
 21
-118.5
  0
LINE
  8
型材断面
  6
CONTINUOUS
 10
195.0
 20
-118.5
 11
145.0
 21
-118.5
  0
ENDBLK
  0
BLOCK
  2
*GRP_0002
 70
    65
 10
0.0
 20
0.0
  0
LINE
  8
01
  6
CONTINUOUS
 62
    63
 10
-16.770612
 20
-65.573643
 11
-18.184828
 21
-66.987857
  0
LINE
  8
01
  6
CONTINUOUS
 62
    63
 10
-16.684828
 20
-66.902073
 11
-18.184828
 21
-68.402073
  0
LINE
  8
01
  6
CONTINUOUS
 62
    63
 10
-11.684825
 20
-67.558915
 11
-18.184828
 21
-74.058918
  0
LINE
  8
01
  6
CONTINUOUS
 62
    63
 10
-11.684825
 20
-68.97313
 11
-18.184828
 21
-75.473132
  0
LINE
  8
01
  6
CONTINUOUS
 62
    63
 10
-11.545535
 20
-70.248055
 11
-17.73533
 21
-76.43785
  0
LINE
  8
01
  6
CONTINUOUS
 62
    63
 10
-11.003915
 20
-71.12065
 11
-16.345377
 21
-76.462112
  0
LINE
  8
01
  6
CONTINUOUS
 62
    63
 10
-9.942688
 20
-71.473638
 11
-14.442688
 21
-75.973638
  0
LINE
  8
01
  6
CONTINUOUS
 62
    63
 10
-9.684822
 20
-72.629987
 11
-13.028473
 21
-75.973638
  0
LINE
  8
01
  6
CONTINUOUS
 62
    63
 10
-9.684822
 20
-74.044203
 11
-11.614257
 21
-75.973638
  0
LINE
  8
01
  6
CONTINUOUS
 62
    63
 10
-9.684822
 20
-75.458417
 11
-10.689898
 21
-76.463493
  0
LINE
  8
01
  6
CONTINUOUS
 62
    63
 10
-12.527967
 20
-65.573643
 11
-14.684825
 21
-67.7305
  0
LINE
  8
01
  6
CONTINUOUS
 62
    63
 10
-16.684828
 20
-69.730502
 11
-18.184828
 21
-71.230502
  0
LINE
  8
01
  6
CONTINUOUS
 62
    63
 10
-11.684825
 20
-66.144715
 11
-14.684825
 21
-69.144715
  0
LINE
  8
01
  6
CONTINUOUS
 62
    63
 10
-16.684828
 20
-71.144718
 11
-18.184828
 21
-72.644718
  0
LINE
  8
01
  6
CONTINUOUS
 62
    63
 10
-13.942183
 20
-65.573643
 11
-14.684825
 21
-66.316285
  0
LINE
  8
01
  6
CONTINUOUS
 62
    63
 10
-16.684828
 20
-68.316288
 11
-18.184828
 21
-69.816288
  0
LINE
  8
ゴム等
  6
CONTINUOUS
 62
    63
 10
-14.684825
 20
-70.02364
 11
-15.584825
 21
-71.473638
  0
LINE
  8
ゴム等
  6
CONTINUOUS
 62
    63
 10
-10.784825
 20
-71.473638
 11
-11.684825
 21
-70.02364
  0
LINE
  8
ゴム等
  6
CONTINUOUS
 62
    63
 10
-14.684825
 20
-70.02364
 11
-14.684825
 21
-65.573643
  0
LINE
  8
ゴム等
  6
CONTINUOUS
 62
    63
 10
-14.684825
 20
-65.573643
 11
-11.684825
 21
-65.573643
  0
LINE
  8
ゴム等
  6
CONTINUOUS
 62
    63
 10
-11.684825
 20
-70.02364
 11
-11.684825
 21
-65.573643
  0
LINE
  8
ゴム等
  6
CONTINUOUS
 62
    63
 10
-16.684828
 20
-65.573643
 11
-18.184828
 21
-65.573643
  0
LINE
  8
ゴム等
  6
CONTINUOUS
 62
    63
 10
-16.684828
 20
-65.573643
 11
-16.684828
 21
-71.473638
  0
LINE
  8
ゴム等
  6
CONTINUOUS
 62
    63
 10
-16.684828
 20
-71.473638
 11
-15.584825
 21
-71.473638
  0
LINE
  8
ゴム等
  6
CONTINUOUS
 62
    63
 10
-10.784825
 20
-71.473638
 11
-9.684822
 21
-71.473638
  0
LINE
  8
ゴム等
  6
CONTINUOUS
 62
    63
 10
-9.684822
 20
-71.473638
 11
-9.684822
 21
-76.47364
  0
LINE
  8
ゴム等
  6
CONTINUOUS
 62
    63
 10
-10.684828
 20
-76.47364
 11
-10.934825
 21
-75.973638
  0
LINE
  8
ゴム等
  6
CONTINUOUS
 62
    63
 10
-15.434825
 20
-75.973638
 11
-15.684822
 21
-76.47364
  0
LINE
  8
ゴム等
  6
CONTINUOUS
 62
    63
 10
-15.434825
 20
-75.973638
 11
-10.934825
 21
-75.973638
  0
LINE
  8
ゴム等
  6
CONTINUOUS
 62
    63
 10
-9.684822
 20
-76.47364
 11
-10.684828
 21
-76.47364
  0
LINE
  8
ゴム等
  6
CONTINUOUS
 62
    63
 10
-15.684822
 20
-76.47364
 11
-18.184828
 21
-76.430005
  0
LINE
  8
ゴム等
  6
CONTINUOUS
 62
    63
 10
-18.184828
 20
-65.573643
 11
-18.184828
 21
-76.430005
  0
ENDBLK
  0
BLOCK
  2
*GRP_0003
 70
    65
 10
0.0
 20
0.0
  0
LINE
  8
01
  6
CONTINUOUS
 62
    63
 10
-41.892912
 20
-46.830722
 11
-39.771598
 21
-45.416507
  0
LINE
  8
01
  6
CONTINUOUS
 62
    63
 10
-43.872815
 20
-41.31529
 11
-45.28703
 21
-43.436612
  0
LINE
  8
01
  6
CONTINUOUS
 62
    63
 10
-41.822203
 20
-36.294827
 11
-45.35774
 21
-39.830365
  0
LINE
  8
01
  6
CONTINUOUS
 62
    63
 10
-34.751142
 20
-43.365895
 11
-38.286672
 21
-46.901433
  0
LINE
  8
01
  6
CONTINUOUS
 62
    63
 10
-41.892912
 20
-46.830722
 11
-45.28703
 21
-43.436612
  0
LINE
  8
01
  6
CONTINUOUS
 62
    63
 10
-45.35774
 20
-39.830365
 11
-43.872815
 21
-41.31529
  0
LINE
  8
01
  6
CONTINUOUS
 62
    63
 10
-39.771598
 20
-45.416507
 11
-38.286672
 21
-46.901433
  0
LINE
  8
01
  6
CONTINUOUS
 62
    63
 10
-38.640222
 20
-40.183922
 11
-38.640222
 21
-39.476807
  0
LINE
  8
01
  6
CONTINUOUS
 62
    63
 10
-38.640222
 20
-40.183922
 11
-37.933122
 21
-40.183915
  0
LINE
  8
01
  6
CONTINUOUS
 62
    63
 10
-34.751142
 20
-43.365895
 11
-37.933122
 21
-40.183915
  0
LINE
  8
01
  6
CONTINUOUS
 62
    63
 10
-38.640222
 20
-39.476807
 11
-41.822203
 21
-36.294827
  0
LINE
  8
01
  6
CONTINUOUS
 62
    63
 10
-43.428808
 20
-45.294827
 11
-36.680075
 21
-45.294827
  0
LINE
  8
01
  6
CONTINUOUS
 62
    63
 10
-44.928808
 20
-43.794835
 11
-35.180075
 21
-43.794835
  0
LINE
  8
01
  6
CONTINUOUS
 62
    63
 10
-44.52584
 20
-42.294827
 11
-35.82221
 21
-42.294827
  0
LINE
  8
01
  6
CONTINUOUS
 62
    63
 10
-44.393278
 20
-40.794827
 11
-37.322203
 21
-40.794827
  0
LINE
  8
01
  6
CONTINUOUS
 62
    63
 10
-43.322203
 20
-37.794827
 11
-40.32221
 21
-37.794827
  0
LINE
  8
01
  6
CONTINUOUS
 62
    63
 10
-44.82221
 20
-39.294835
 11
-38.822203
 21
-39.294835
  0
ENDBLK
  0
BLOCK
  2
*GRP_0004
 70
    65
 10
0.0
 20
0.0
  0
LINE
  8
01
  6
DOT
 62
    63
 10
-42.529198
 20
-22.859837
 11
-46.064728
 21
-19.324308
  0
LINE
  8
01
  6
DOT
 62
    63
 10
-40.407875
 20
-13.667455
 11
-22.73021
 21
-31.345128
  0
LINE
  8
01
  6
DOT
 62
    63
 10
-42.529198
 20
-22.859837
 11
-47.47895
 21
-27.809583
  0
LINE
  8
01
  6
DOT
 62
    63
 10
-37.579453
 20
-37.70908
 11
-29.09417
 21
-37.70908
  0
LINE
  8
01
  6
DOT
 62
    63
 10
-22.73021
 20
-31.345128
 11
-29.09417
 21
-37.70908
  0
LINE
  8
01
  6
DOT
 62
    63
 10
-40.407875
 20
-13.667455
 11
-34.397473
 21
-37.70908
  0
LINE
  8
01
  6
DOT
 62
    63
 10
-40.407875
 20
-13.667455
 11
-46.064728
 21
-19.324308
  0
LINE
  8
01
  6
DOT
 62
    63
 10
-37.579453
 20
-37.709073
 11
-47.47895
 21
-27.809583
  0
ENDBLK
  0
BLOCK
  2
*GRP_0005
 70
    65
 10
0.0
 20
0.0
  0
LINE
  8
ゴム等
  6
CONTINUOUS
 10
-11.41658
 20
-23.001272
 11
-12.689368
 21
-21.728485
  0
LINE
  8
ゴム等
  6
CONTINUOUS
 10
-10.143785
 20
-19.182895
 11
-12.689368
 21
-21.728485
  0
LINE
  8
ゴム等
  6
CONTINUOUS
 10
-14.81069
 20
-26.39539
 11
-16.083485
 21
-25.122595
  0
LINE
  8
ゴム等
  6
CONTINUOUS
 10
-18.629068
 20
-27.668178
 11
-16.083485
 21
-25.122595
  0
LINE
  8
ゴム等
  6
CONTINUOUS
 10
-14.81069
 20
-26.39539
 11
-15.517797
 21
-27.10249
  0
LINE
  8
ゴム等
  6
CONTINUOUS
 10
-15.517797
 20
-27.10249
 11
-15.16424
 21
-27.456048
  0
LINE
  8
ゴム等
  6
CONTINUOUS
 10
-11.41658
 20
-23.001272
 11
-10.709465
 21
-22.294165
  0
LINE
  8
ゴム等
  6
CONTINUOUS
 10
-10.355915
 20
-22.647722
 11
-10.709465
 21
-22.294165
  0
ARC
  8
ゴム等
  6
CONTINUOUS
 10
-12.547949
 20
-25.264018
 40
1.0
 50
225.0
 51
315.0
  0
LINE
  8
ゴム等
  6
CONTINUOUS
 10
-11.84084
 20
-25.971123
 11
-11.84084
 21
-25.971123
  0
ARC
  8
ゴム等
  6
CONTINUOUS
 10
-12.547949
 20
-25.264018
 40
1.0
 50
315.0
 51
405.0
  0
LINE
  8
ゴム等
  6
CONTINUOUS
 10
-12.972215
 20
-23.425533
 11
-11.84084
 21
-24.556908
  0
ARC
  8
ゴム等
  6
CONTINUOUS
 10
-13.67932
 20
-24.132647
 40
1.0
 50
45.0
 51
135.0
  0
LINE
  8
ゴム等
  6
CONTINUOUS
 10
-14.38643
 20
-23.42554
 11
-14.38643
 21
-23.42554
  0
LINE
  8
ゴム等
  6
CONTINUOUS
 10
-14.38643
 20
-24.839747
 11
-13.255055
 21
-25.971123
  0
ARC
  8
ゴム等
  6
CONTINUOUS
 10
-13.67932
 20
-24.132647
 40
1.0
 50
135.0
 51
225.0
  0
LINE
  8
ゴム等
  6
CONTINUOUS
 10
-10.265105
 20
-19.304215
 11
-10.265113
 21
-19.061575
  0
LINE
  8
ゴム等
  6
CONTINUOUS
 10
-15.265107
 20
-26.8498
 11
-15.265107
 21
-27.35518
  0
LINE
  8
ゴム等
  6
CONTINUOUS
 10
-11.265103
 20
-18.061578
 11
-11.265103
 21
-20.30422
  0
LINE
  8
ゴム等
  6
CONTINUOUS
 10
-11.265103
 20
-22.849802
 11
-11.265103
 21
-26.66818
  0
LINE
  8
ゴム等
  6
CONTINUOUS
 10
-12.265107
 20
-17.06158
 11
-12.265107
 21
-21.304217
  0
LINE
  8
ゴム等
  6
CONTINUOUS
 10
-12.265107
 20
-22.152745
 11
-12.2651
 21
-24.13264
  0
LINE
  8
ゴム等
  6
CONTINUOUS
 10
-20.043275
 20
-23.42554
 11
-20.043275
 21
-23.42554
  0
ARC
  8
ゴム等
  6
CONTINUOUS
 10
-20.396834
 20
-22.36488
 40
0.5
 50
225.0
 51
315.0
  0
LINE
  8
ゴム等
  6
CONTINUOUS
 10
-15.09353
 20
-17.76868
 11
-20.043275
 21
-22.718425
  0
ARC
  8
ゴム等
  6
CONTINUOUS
 10
-15.447086
 20
-17.415133
 40
0.5
 50
315.0
 51
405.0
  0
LINE
  8
ゴム等
  6
CONTINUOUS
 10
-15.09353
 20
-17.061572
 11
-13.679323
 21
-15.647365
  0
LINE
  8
ゴム等
  6
CONTINUOUS
 10
-10.143785
 20
-19.182895
 11
-13.679323
 21
-15.647365
  0
LINE
  8
ゴム等
  6
CONTINUOUS
 10
-13.265105
 20
-23.222462
 11
-13.265105
 21
-16.061575
  0
LINE
  8
ゴム等
  6
CONTINUOUS
 10
-14.265103
 20
-23.322175
 11
-14.265103
 21
-16.233145
  0
LINE
  8
ゴム等
  6
CONTINUOUS
 10
-15.265107
 20
-25.940973
 11
-15.265107
 21
-17.940258
  0
LINE
  8
ゴム等
  6
CONTINUOUS
 10
-16.265105
 20
-25.304215
 11
-16.265105
 21
-18.940255
  0
LINE
  8
ゴム等
  6
CONTINUOUS
 10
-17.26511
 20
-26.30422
 11
-17.26511
 21
-19.94026
  0
LINE
  8
ゴム等
  6
CONTINUOUS
 10
-18.2651
 20
-27.30421
 11
-18.2651
 21
-20.94025
  0
LINE
  8
ゴム等
  6
CONTINUOUS
 10
-19.265113
 20
-27.03214
 11
-19.265105
 21
-21.940255
  0
LINE
  8
ゴム等
  6
CONTINUOUS
 10
-20.26511
 20
-26.032135
 11
-20.265103
 21
-22.847215
  0
LINE
  8
ゴム等
  6
CONTINUOUS
 10
-21.265107
 20
-25.032145
 11
-21.265107
 21
-23.233143
  0
LINE
  8
ゴム等
  6
CONTINUOUS
 10
-18.629068
 20
-27.668178
 11
-22.164605
 21
-24.13264
  0
LINE
  8
ゴム等
  6
CONTINUOUS
 10
-20.75039
 20
-22.718425
 11
-22.164605
 21
-24.13264
  0
LINE
  8
ゴム等
  6
CONTINUOUS
 10
-15.16424
 20
-27.456048
 11
-11.91155
 21
-27.314628
  0
LINE
  8
ゴム等
  6
CONTINUOUS
 10
-10.355915
 20
-22.647722
 11
-10.497335
 21
-25.900405
  0
LINE
  8
ゴム等
  6
CONTINUOUS
 10
-11.91155
 20
-27.314628
 11
-10.497335
 21
-25.900405
  0
LINE
  8
ゴム等
  6
CONTINUOUS
 10
-13.265105
 20
-25.961065
 11
-13.265105
 21
-27.373473
  0
LINE
  8
ゴム等
  6
CONTINUOUS
 10
-12.265107
 20
-26.223175
 11
-12.265107
 21
-27.329995
  0
LINE
  8
ゴム等
  6
CONTINUOUS
 10
-14.265103
 20
-24.961075
 11
-14.265103
 21
-27.416957
  0
ENDBLK
  0
BLOCK
  2
*GRP_0006
 70
    65
 10
0.0
 20
0.0
  0
LINE
  8
ボルト／ビス
  6
CONTINUOUS
 62
    64
 10
-39.34727
 20
-35.94139
 11
-38.54126
 21
-35.26507
  0
ARC
  8
ボルト／ビス
  6
CONTINUOUS
 62
    64
 10
-37.448527
 20
-36.567341
 40
1.7
 50
45.0
 51
130.000011
  0
LINE
  8
ボルト／ビス
  6
CONTINUOUS
 62
    64
 10
-36.24644
 20
-35.365255
 11
-35.033915
 21
-36.57778
  0
LINE
  8
ボルト／ビス
  6
CONTINUOUS
 62
    64
 10
-34.397517
 20
-40.891135
 11
-33.721198
 21
-40.085132
  0
ARC
  8
ボルト／ビス
  6
CONTINUOUS
 62
    64
 10
-35.023481
 20
-38.992387
 40
1.7
 50
319.999989
 51
405.0
  0
LINE
  8
ボルト／ビス
  6
CONTINUOUS
 62
    64
 10
-33.82139
 20
-37.790305
 11
-35.033915
 21
-36.57778
  0
LINE
  8
ボルト／ビス
  6
CONTINUOUS
 62
    64
 10
-37.000767
 20
-35.15527
 11
-36.829535
 21
-34.984037
  0
LINE
  8
ボルト／ビス
  6
CONTINUOUS
 62
    64
 10
-36.260735
 20
-36.81466
 11
-35.765765
 21
-37.30963
  0
LINE
  8
ボルト／ビス
  6
CONTINUOUS
 62
    64
 10
-36.083907
 20
-36.072138
 11
-37.000767
 21
-35.15527
  0
LINE
  8
ボルト／ビス
  6
CONTINUOUS
 62
    64
 10
-36.260735
 20
-36.81466
 11
-36.0839
 21
-36.637825
  0
ARC
  8
ボルト／ビス
  6
CONTINUOUS
 62
    64
 10
-36.366752
 20
-36.354976
 40
0.4
 50
315.0
 51
405.0
  0
LINE
  8
ボルト／ビス
  6
CONTINUOUS
 62
    64
 10
-33.611405
 20
-38.544632
 11
-33.440172
 21
-38.3734
  0
LINE
  8
ボルト／ビス
  6
CONTINUOUS
 62
    64
 10
-35.270795
 20
-37.804608
 11
-35.765765
 21
-37.30963
  0
LINE
  8
ボルト／ビス
  6
CONTINUOUS
 62
    64
 10
-34.528265
 20
-37.627772
 11
-33.611405
 21
-38.544632
  0
LINE
  8
ボルト／ビス
  6
CONTINUOUS
 62
    64
 10
-35.270795
 20
-37.804608
 11
-35.093952
 21
-37.627765
  0
ARC
  8
ボルト／ビス
  6
CONTINUOUS
 62
    64
 10
-34.811117
 20
-37.910611
 40
0.4
 50
45.0
 51
135.0
  0
LINE
  8
ボルト／ビス
  6
CONTINUOUS
 62
    64
 10
-39.34727
 20
-35.94139
 11
-34.397517
 21
-40.891135
  0
LINE
  8
ボルト／ビス
  6
CONTINUOUS
 62
    64
 10
-49.246767
 20
-47.962202
 11
-49.24676
 21
-48.66931
  0
LINE
  8
ボルト／ビス
  6
CONTINUOUS
 62
    64
 10
-46.418337
 20
-50.790632
 11
-47.125438
 21
-50.790632
  0
LINE
  8
ボルト／ビス
  6
CONTINUOUS
 62
    64
 10
-49.246767
 20
-47.962202
 11
-46.418337
 21
-50.790632
  0
LINE
  8
ボルト／ビス
  6
CONTINUOUS
 62
    64
 10
-49.24676
 20
-48.66931
 11
-47.125438
 21
-50.790632
  0
LINE
  8
ボルト／ビス
  6
CONTINUOUS
 62
    64
 10
-35.458175
 20
-39.830477
 11
-46.418337
 21
-50.790632
  0
LINE
  8
ボルト／ビス
  6
CONTINUOUS
 62
    64
 10
-38.286612
 20
-37.002048
 11
-49.246767
 21
-47.962202
  0
LINE
  8
ボルト／ビス
  6
CONTINUOUS
 62
    64
 10
-37.933055
 20
-37.355605
 11
-49.24676
 21
-48.66931
  0
LINE
  8
ボルト／ビス
  6
CONTINUOUS
 62
    64
 10
-35.811733
 20
-39.47692
 11
-47.125438
 21
-50.790632
  0
LINE
  8
ボルト／ビス
  6
DASHDOT
 62
    64
 10
-32.912593
 20
-34.456465
 11
-50.307417
 21
-51.85129
  0
ENDBLK
  0
BLOCK
  2
*GRP_0007
 70
    65
 10
0.0
 20
0.0
  0
LINE
  8
ボルト／ビス
  6
CONTINUOUS
 62
    64
 10
-9.684815
 20
-77.97364
 11
-9.776518
 21
-79.021803
  0
ARC
  8
ボルト／ビス
  6
CONTINUOUS
 62
    64
 10
-11.470051
 20
-78.873638
 40
1.7
 50
270.0
 51
355.000011
  0
LINE
  8
ボルト／ビス
  6
CONTINUOUS
 62
    64
 10
-11.470047
 20
-80.573635
 11
-13.184818
 21
-80.573635
  0
LINE
  8
ボルト／ビス
  6
CONTINUOUS
 62
    64
 10
-16.684813
 20
-77.97364
 11
-16.59311
 21
-79.021803
  0
ARC
  8
ボルト／ビス
  6
CONTINUOUS
 62
    64
 10
-14.899585
 20
-78.873638
 40
1.7
 50
184.999989
 51
270.0
  0
LINE
  8
ボルト／ビス
  6
CONTINUOUS
 62
    64
 10
-14.89958
 20
-80.573635
 11
-13.184818
 21
-80.573635
  0
LINE
  8
ボルト／ビス
  6
CONTINUOUS
 62
    64
 10
-10.788177
 20
-80.188735
 11
-10.788177
 21
-80.430895
  0
LINE
  8
ボルト／ビス
  6
CONTINUOUS
 62
    64
 10
-12.484813
 20
-79.53865
 11
-13.184818
 21
-79.53865
  0
LINE
  8
ボルト／ビス
  6
CONTINUOUS
 62
    64
 10
-12.084815
 20
-80.188735
 11
-10.788177
 21
-80.188735
  0
LINE
  8
ボルト／ビス
  6
CONTINUOUS
 62
    64
 10
-12.484813
 20
-79.53865
 11
-12.484813
 21
-79.78873
  0
ARC
  8
ボルト／ビス
  6
CONTINUOUS
 62
    64
 10
-12.084818
 20
-79.788733
 40
0.4
 50
180.0
 51
270.0
  0
LINE
  8
ボルト／ビス
  6
CONTINUOUS
 62
    64
 10
-15.581458
 20
-80.188735
 11
-15.581458
 21
-80.430895
  0
LINE
  8
ボルト／ビス
  6
CONTINUOUS
 62
    64
 10
-13.884815
 20
-79.53865
 11
-13.184818
 21
-79.53865
  0
LINE
  8
ボルト／ビス
  6
CONTINUOUS
 62
    64
 10
-14.284813
 20
-80.188735
 11
-15.581458
 21
-80.188735
  0
LINE
  8
ボルト／ビス
  6
CONTINUOUS
 62
    64
 10
-13.884815
 20
-79.53865
 11
-13.884815
 21
-79.78873
  0
ARC
  8
ボルト／ビス
  6
CONTINUOUS
 62
    64
 10
-14.284818
 20
-79.788733
 40
0.4
 50
270.0
 51
360.0
  0
LINE
  8
ボルト／ビス
  6
CONTINUOUS
 62
    64
 10
-9.684815
 20
-77.97364
 11
-16.684813
 21
-77.97364
  0
LINE
  8
ボルト／ビス
  6
CONTINUOUS
 62
    64
 10
-11.684818
 20
-77.97364
 11
-11.684818
 21
-65.97364
  0
LINE
  8
ボルト／ビス
  6
CONTINUOUS
 62
    64
 10
-14.684818
 20
-77.97364
 11
-14.684818
 21
-65.97364
  0
LINE
  8
ボルト／ビス
  6
CONTINUOUS
 62
    64
 10
-15.184813
 20
-77.97364
 11
-15.184813
 21
-66.473635
  0
LINE
  8
ボルト／ビス
  6
CONTINUOUS
 62
    64
 10
-11.184815
 20
-77.97364
 11
-11.184815
 21
-66.473635
  0
LINE
  8
ボルト／ビス
  6
DASHDOT
 62
    64
 10
-13.184818
 20
-83.573635
 11
-13.184818
 21
-62.97364
  0
LINE
  8
ボルト／ビス
  6
CONTINUOUS
 62
    64
 10
-11.184815
 20
-66.473635
 11
-11.684818
 21
-65.97364
  0
LINE
  8
ボルト／ビス
  6
CONTINUOUS
 62
    64
 10
-15.184813
 20
-66.473635
 11
-14.684818
 21
-65.97364
  0
LINE
  8
ボルト／ビス
  6
CONTINUOUS
 62
    64
 10
-11.184815
 20
-66.473635
 11
-15.184813
 21
-66.473635
  0
LINE
  8
ボルト／ビス
  6
CONTINUOUS
 62
    64
 10
-11.684818
 20
-65.97364
 11
-14.684818
 21
-65.97364
  0
ENDBLK
  0
BLOCK
  2
*GRP_0008
 70
    65
 10
0.0
 20
0.0
  0
LINE
  8
ボルト／ビス
  6
CONTINUOUS
 62
    64
 10
35.122968
 20
-75.629447
 11
35.031265
 21
-76.67761
  0
ARC
  8
ボルト／ビス
  6
CONTINUOUS
 62
    64
 10
33.337718
 20
-76.52946
 40
1.7
 50
270.0
 51
355.000011
  0
LINE
  8
ボルト／ビス
  6
CONTINUOUS
 62
    64
 10
33.337735
 20
-78.22945
 11
31.622965
 21
-78.22945
  0
LINE
  8
ボルト／ビス
  6
CONTINUOUS
 62
    64
 10
28.12297
 20
-75.629447
 11
28.214673
 21
-76.67761
  0
ARC
  8
ボルト／ビス
  6
CONTINUOUS
 62
    64
 10
29.908185
 20
-76.52946
 40
1.7
 50
184.999989
 51
270.0
  0
LINE
  8
ボルト／ビス
  6
CONTINUOUS
 62
    64
 10
29.908202
 20
-78.22945
 11
31.622965
 21
-78.22945
  0
LINE
  8
ボルト／ビス
  6
CONTINUOUS
 62
    64
 10
34.019605
 20
-77.844542
 11
34.019605
 21
-78.086702
  0
LINE
  8
ボルト／ビス
  6
CONTINUOUS
 62
    64
 10
32.32297
 20
-77.194458
 11
31.622965
 21
-77.194458
  0
LINE
  8
ボルト／ビス
  6
CONTINUOUS
 62
    64
 10
32.722968
 20
-77.844542
 11
34.019605
 21
-77.844542
  0
LINE
  8
ボルト／ビス
  6
CONTINUOUS
 62
    64
 10
32.32297
 20
-77.194458
 11
32.32297
 21
-77.444545
  0
ARC
  8
ボルト／ビス
  6
CONTINUOUS
 62
    64
 10
32.722951
 20
-77.444555
 40
0.4
 50
180.0
 51
270.0
  0
LINE
  8
ボルト／ビス
  6
CONTINUOUS
 62
    64
 10
29.226325
 20
-77.844542
 11
29.226325
 21
-78.086702
  0
LINE
  8
ボルト／ビス
  6
CONTINUOUS
 62
    64
 10
30.922968
 20
-77.194458
 11
31.622965
 21
-77.194458
  0
LINE
  8
ボルト／ビス
  6
CONTINUOUS
 62
    64
 10
30.52297
 20
-77.844542
 11
29.226325
 21
-77.844542
  0
LINE
  8
ボルト／ビス
  6
CONTINUOUS
 62
    64
 10
30.922968
 20
-77.194458
 11
30.922968
 21
-77.444545
  0
ARC
  8
ボルト／ビス
  6
CONTINUOUS
 62
    64
 10
30.522951
 20
-77.444555
 40
0.4
 50
270.0
 51
360.0
  0
LINE
  8
ボルト／ビス
  6
CONTINUOUS
 62
    64
 10
35.122968
 20
-75.629447
 11
28.12297
 21
-75.629447
  0
LINE
  8
ボルト／ビス
  6
CONTINUOUS
 62
    64
 10
33.622968
 20
-68.129447
 11
33.122965
 21
-67.629445
  0
LINE
  8
ボルト／ビス
  6
CONTINUOUS
 62
    64
 10
29.62297
 20
-68.129447
 11
30.122965
 21
-67.629445
  0
LINE
  8
ボルト／ビス
  6
CONTINUOUS
 62
    64
 10
33.122965
 20
-75.629447
 11
33.122965
 21
-67.629445
  0
LINE
  8
ボルト／ビス
  6
CONTINUOUS
 62
    64
 10
33.622968
 20
-75.629447
 11
33.622968
 21
-68.129447
  0
LINE
  8
ボルト／ビス
  6
CONTINUOUS
 62
    64
 10
30.122965
 20
-75.629447
 11
30.122965
 21
-67.629445
  0
LINE
  8
ボルト／ビス
  6
CONTINUOUS
 62
    64
 10
29.62297
 20
-75.629447
 11
29.62297
 21
-68.129447
  0
LINE
  8
ボルト／ビス
  6
CONTINUOUS
 62
    64
 10
33.622968
 20
-68.129447
 11
29.62297
 21
-68.129447
  0
LINE
  8
ボルト／ビス
  6
CONTINUOUS
 62
    64
 10
33.122965
 20
-67.629445
 11
30.122965
 21
-67.629445
  0
LINE
  8
ボルト／ビス
  6
CONTINUOUS
 62
    64
 10
31.622965
 20
-80.200832
 11
31.622965
 21
-65.37895
  0
ENDBLK
  0
BLOCK
  2
*GRP_0009
 70
    65
 10
0.0
 20
0.0
  0
LINE
  8
ボルト／ビス
  6
CONTINUOUS
 62
    64
 10
4.722962
 20
-75.629447
 11
4.63126
 21
-76.67761
  0
ARC
  8
ボルト／ビス
  6
CONTINUOUS
 62
    64
 10
2.937713
 20
-76.52946
 40
1.7
 50
270.0
 51
355.000011
  0
LINE
  8
ボルト／ビス
  6
CONTINUOUS
 62
    64
 10
2.93773
 20
-78.22945
 11
1.22296
 21
-78.22945
  0
LINE
  8
ボルト／ビス
  6
CONTINUOUS
 62
    64
 10
-2.277035
 20
-75.629447
 11
-2.185333
 21
-76.67761
  0
ARC
  8
ボルト／ビス
  6
CONTINUOUS
 62
    64
 10
-0.49182
 20
-76.52946
 40
1.7
 50
184.999989
 51
270.0
  0
LINE
  8
ボルト／ビス
  6
CONTINUOUS
 62
    64
 10
-0.491802
 20
-78.22945
 11
1.22296
 21
-78.22945
  0
LINE
  8
ボルト／ビス
  6
CONTINUOUS
 62
    64
 10
3.6196
 20
-77.844542
 11
3.6196
 21
-78.086702
  0
LINE
  8
ボルト／ビス
  6
CONTINUOUS
 62
    64
 10
1.922965
 20
-77.194458
 11
1.22296
 21
-77.194458
  0
LINE
  8
ボルト／ビス
  6
CONTINUOUS
 62
    64
 10
2.322962
 20
-77.844542
 11
3.6196
 21
-77.844542
  0
LINE
  8
ボルト／ビス
  6
CONTINUOUS
 62
    64
 10
1.922965
 20
-77.194458
 11
1.922965
 21
-77.444545
  0
ARC
  8
ボルト／ビス
  6
CONTINUOUS
 62
    64
 10
2.322946
 20
-77.444555
 40
0.4
 50
180.0
 51
270.0
  0
LINE
  8
ボルト／ビス
  6
CONTINUOUS
 62
    64
 10
-1.17368
 20
-77.844542
 11
-1.17368
 21
-78.086702
  0
LINE
  8
ボルト／ビス
  6
CONTINUOUS
 62
    64
 10
0.522962
 20
-77.194458
 11
1.22296
 21
-77.194458
  0
LINE
  8
ボルト／ビス
  6
CONTINUOUS
 62
    64
 10
0.122965
 20
-77.844542
 11
-1.17368
 21
-77.844542
  0
LINE
  8
ボルト／ビス
  6
CONTINUOUS
 62
    64
 10
0.522962
 20
-77.194458
 11
0.522962
 21
-77.444545
  0
ARC
  8
ボルト／ビス
  6
CONTINUOUS
 62
    64
 10
0.122946
 20
-77.444555
 40
0.4
 50
270.0
 51
360.0
  0
LINE
  8
ボルト／ビス
  6
CONTINUOUS
 62
    64
 10
4.722962
 20
-75.629447
 11
-2.277035
 21
-75.629447
  0
LINE
  8
ボルト／ビス
  6
CONTINUOUS
 62
    64
 10
3.222962
 20
-68.129447
 11
2.72296
 21
-67.629445
  0
LINE
  8
ボルト／ビス
  6
CONTINUOUS
 62
    64
 10
-0.777035
 20
-68.129447
 11
-0.27704
 21
-67.629445
  0
LINE
  8
ボルト／ビス
  6
CONTINUOUS
 62
    64
 10
2.72296
 20
-75.629447
 11
2.72296
 21
-67.629445
  0
LINE
  8
ボルト／ビス
  6
CONTINUOUS
 62
    64
 10
3.222962
 20
-75.629447
 11
3.222962
 21
-68.129447
  0
LINE
  8
ボルト／ビス
  6
CONTINUOUS
 62
    64
 10
-0.27704
 20
-75.629447
 11
-0.27704
 21
-67.629445
  0
LINE
  8
ボルト／ビス
  6
CONTINUOUS
 62
    64
 10
-0.777035
 20
-75.629447
 11
-0.777035
 21
-68.129447
  0
LINE
  8
ボルト／ビス
  6
CONTINUOUS
 62
    64
 10
3.222962
 20
-68.129447
 11
-0.777035
 21
-68.129447
  0
LINE
  8
ボルト／ビス
  6
CONTINUOUS
 62
    64
 10
2.72296
 20
-67.629445
 11
-0.27704
 21
-67.629445
  0
LINE
  8
ボルト／ビス
  6
CONTINUOUS
 62
    64
 10
1.22296
 20
-80.200832
 11
1.22296
 21
-65.37895
  0
ENDBLK
  0
BLOCK
  2
*GRP_0010
 70
    65
 10
0.0
 20
0.0
  0
LINE
  8
型材断面
  6
CONTINUOUS
 62
    47
 10
-15.68432
 20
-70.929453
 11
-14.78432
 21
-69.729453
  0
LINE
  8
型材断面
  6
CONTINUOUS
 62
    47
 10
-10.684325
 20
-70.929453
 11
-11.584325
 21
-69.729453
  0
LINE
  8
型材断面
  6
CONTINUOUS
 62
    47
 10
-10.684325
 20
-70.929453
 11
-9.68432
 21
-70.929453
  0
LINE
  8
型材断面
  6
CONTINUOUS
 62
    47
 10
-15.68432
 20
-70.929453
 11
-16.684325
 21
-70.929453
  0
LINE
  8
型材断面
  6
CONTINUOUS
 62
    47
 10
-9.68432
 20
-69.429453
 11
-10.084325
 21
-69.429453
  0
LINE
  8
型材断面
  6
CONTINUOUS
 62
    47
 10
-9.68432
 20
-70.929453
 11
-9.68432
 21
-69.429453
  0
LINE
  8
型材断面
  6
CONTINUOUS
 62
    47
 10
-16.28432
 20
-69.429453
 11
-16.684325
 21
-69.429453
  0
LINE
  8
型材断面
  6
CONTINUOUS
 62
    47
 10
-16.684325
 20
-70.929453
 11
-16.684325
 21
-69.429453
  0
LINE
  8
型材断面
  6
CONTINUOUS
 62
    47
 10
-10.084325
 20
-69.429453
 11
-10.084325
 21
-65.429447
  0
LINE
  8
型材断面
  6
CONTINUOUS
 62
    47
 10
-3.080263
 20
-65.429447
 11
-10.084325
 21
-65.429447
  0
LINE
  8
型材断面
  6
CONTINUOUS
 62
    47
 10
-16.28432
 20
-69.429453
 11
-16.28432
 21
-65.429447
  0
LINE
  8
型材断面
  6
CONTINUOUS
 62
    47
 10
-30.580265
 20
-65.429447
 11
-16.28432
 21
-65.429447
  0
LINE
  8
型材断面
  6
CONTINUOUS
 62
    47
 10
-14.78432
 20
-69.729453
 11
-14.78432
 21
-65.429447
  0
LINE
  8
型材断面
  6
CONTINUOUS
 62
    47
 10
-29.44784
 20
-38.769835
 11
-30.154932
 21
-38.769812
  0
LINE
  8
型材断面
  6
CONTINUOUS
 62
    47
 10
-29.44784
 20
-38.769835
 11
-29.447825
 21
-38.062735
  0
LINE
  8
型材断面
  6
CONTINUOUS
 62
    47
 10
-30.154932
 20
-38.769812
 11
-33.336957
 21
-41.951755
  0
LINE
  8
型材断面
  6
CONTINUOUS
 62
    47
 10
-41.11505
 20
-35.58769
 11
-40.407935
 21
-34.880598
  0
LINE
  8
型材断面
  6
CONTINUOUS
 62
    47
 10
-41.11505
 20
-35.58769
 11
-41.115065
 21
-37.001905
  0
LINE
  8
型材断面
  6
CONTINUOUS
 62
    47
 10
-41.115065
 20
-37.001905
 11
-34.397645
 21
-43.719513
  0
LINE
  8
型材断面
  6
CONTINUOUS
 62
    47
 10
-34.397645
 20
-43.719513
 11
-32.276322
 21
-43.719535
  0
LINE
  8
型材断面
  6
CONTINUOUS
 62
    47
 10
-29.447825
 20
-38.062727
 11
-26.265793
 21
-34.880778
  0
LINE
  8
型材断面
  6
CONTINUOUS
 62
    47
 10
-1.080267
 20
-27.539207
 11
-9.790272
 21
-18.829382
  0
LINE
  8
型材断面
  6
CONTINUOUS
 62
    47
 10
-14.38655
 20
-30.496487
 11
-16.861452
 21
-28.021637
  0
LINE
  8
型材断面
  6
CONTINUOUS
 62
    47
 10
-15.44723
 20
-31.55713
 11
-18.982798
 21
-28.02163
  0
LINE
  8
型材断面
  6
CONTINUOUS
 62
    47
 10
-16.861452
 20
-28.021637
 11
-15.093657
 21
-26.253895
  0
LINE
  8
型材断面
  6
CONTINUOUS
 62
    47
 10
-11.558075
 20
-22.718418
 11
-9.79028
 21
-20.950675
  0
LINE
  8
型材断面
  6
CONTINUOUS
 62
    47
 10
-7.315377
 20
-23.425525
 11
-9.79028
 21
-20.950675
  0
LINE
  8
型材断面
  6
CONTINUOUS
 62
    47
 10
-22.518492
 20
-38.628175
 11
-15.44723
 21
-31.55713
  0
LINE
  8
型材断面
  6
CONTINUOUS
 62
    47
 10
-14.38655
 20
-30.496487
 11
-7.315377
 21
-23.425525
  0
LINE
  8
型材断面
  6
CONTINUOUS
 62
    47
 10
-12.194473
 20
-21.233507
 11
-9.790182
 21
-18.829292
  0
LINE
  8
型材断面
  6
CONTINUOUS
 62
    47
 10
-12.194473
 20
-22.082028
 11
-11.558075
 21
-22.718418
  0
LINE
  8
型材断面
  6
CONTINUOUS
 62
    47
 10
-12.194473
 20
-21.233507
 11
-12.194473
 21
-22.082028
  0
LINE
  8
型材断面
  6
CONTINUOUS
 62
    47
 10
-16.578597
 20
-25.617505
 11
-18.982798
 21
-28.02163
  0
LINE
  8
型材断面
  6
CONTINUOUS
 62
    47
 10
-15.730062
 20
-25.617505
 11
-15.093657
 21
-26.253895
  0
LINE
  8
型材断面
  6
CONTINUOUS
 62
    47
 10
-16.578597
 20
-25.617505
 11
-15.730062
 21
-25.617505
  0
LINE
  8
型材断面
  6
CONTINUOUS
 62
    47
 10
-37.084512
 20
-38.628377
 11
-37.084512
 21
-38.20411
  0
LINE
  8
型材断面
  6
CONTINUOUS
 62
    47
 10
-37.084512
 20
-38.628377
 11
-36.660253
 21
-38.628377
  0
LINE
  8
型材断面
  6
CONTINUOUS
 62
    47
 10
-33.336957
 20
-41.951755
 11
-36.660253
 21
-38.628377
  0
LINE
  8
型材断面
  6
CONTINUOUS
 62
    47
 10
-37.084512
 20
-38.20411
 11
-40.407935
 21
-34.880598
  0
LINE
  8
型材断面
  6
CONTINUOUS
 62
    47
 10
-26.265793
 20
-34.880778
 11
-25.346562
 21
-35.80003
  0
LINE
  8
型材断面
  6
CONTINUOUS
 62
    47
 10
-25.346562
 20
-35.80003
 11
-26.265815
 21
-36.719253
  0
LINE
  8
型材断面
  6
CONTINUOUS
 62
    47
 10
-26.265815
 20
-36.719253
 11
-24.568782
 21
-38.416338
  0
LINE
  8
型材断面
  6
CONTINUOUS
 62
    47
 10
-24.568782
 20
-38.416338
 11
-23.64953
 21
-37.497108
  0
LINE
  8
型材断面
  6
CONTINUOUS
 62
    47
 10
-22.518492
 20
-38.628175
 11
-23.64953
 21
-37.497108
  0
LINE
  8
型材断面
  6
CONTINUOUS
 62
    47
 10
-6.254705
 20
-24.203335
 11
-22.518515
 21
-40.46665
  0
LINE
  8
型材断面
  6
CONTINUOUS
 62
    47
 10
-22.518515
 20
-40.46665
 11
-23.64956
 21
-39.335582
  0
LINE
  8
型材断面
  6
CONTINUOUS
 62
    47
 10
-29.280267
 20
-44.96617
 11
-23.64956
 21
-39.335582
  0
LINE
  8
型材断面
  6
CONTINUOUS
 62
    47
 10
-32.276322
 20
-43.719535
 11
-31.003497
 21
-42.44677
  0
LINE
  8
型材断面
  6
CONTINUOUS
 62
    47
 10
-31.003497
 20
-42.44677
 11
-29.801428
 21
-43.64887
  0
LINE
  8
型材断面
  6
CONTINUOUS
 62
    47
 10
-1.080267
 20
-27.539207
 11
-1.080267
 21
-46.42945
  0
LINE
  8
型材断面
  6
CONTINUOUS
 62
    47
 10
-29.801428
 20
-43.64887
 11
-30.580265
 21
-44.427693
  0
LINE
  8
型材断面
  6
CONTINUOUS
 62
    47
 10
-14.78432
 20
-65.429447
 11
-11.584325
 21
-65.429447
  0
LINE
  8
型材断面
  6
CONTINUOUS
 62
    47
 10
-11.584325
 20
-69.729453
 11
-11.584325
 21
-65.429447
  0
LINE
  8
型材断面
  6
CONTINUOUS
 62
    47
 10
-29.280267
 20
-44.96617
 11
-29.280267
 21
-63.929447
  0
LINE
  8
型材断面
  6
CONTINUOUS
 62
    47
 10
-30.580265
 20
-65.429447
 11
-30.580265
 21
-60.22945
  0
LINE
  8
型材断面
  6
CONTINUOUS
 62
    47
 10
-30.580265
 20
-59.62945
 11
-30.580265
 21
-44.427693
  0
LINE
  8
型材断面
  6
CONTINUOUS
 62
    47
 10
-1.080267
 20
-47.92945
 11
-1.080267
 21
-63.929447
  0
LINE
  8
型材断面
  6
CONTINUOUS
 62
    47
 10
-2.77706
 20
-65.429447
 11
-2.77706
 21
-72.429445
  0
LINE
  8
型材断面
  6
CONTINUOUS
 62
    47
 10
35.622955
 20
-72.429445
 11
35.622955
 21
-65.429447
  0
ARC
  8
型材断面
  6
CONTINUOUS
 62
    47
 10
4.172939
 20
-71.67944
 40
0.75
 50
0.0
 51
90.0
  0
LINE
  8
型材断面
  6
CONTINUOUS
 62
    47
 10
4.922942
 20
-71.679445
 11
4.922942
 21
-71.679445
  0
ARC
  8
型材断面
  6
CONTINUOUS
 62
    47
 10
4.172939
 20
-71.67944
 40
0.75
 50
-90.0
 51
0.0
  0
ARC
  8
型材断面
  6
CONTINUOUS
 62
    47
 10
28.672954
 20
-71.67944
 40
0.75
 50
90.0
 51
180.0
  0
LINE
  8
型材断面
  6
CONTINUOUS
 62
    47
 10
27.922953
 20
-71.679445
 11
27.922953
 21
-71.679445
  0
ARC
  8
型材断面
  6
CONTINUOUS
 62
    47
 10
28.672954
 20
-71.67944
 40
0.75
 50
180.0
 51
270.0
  0
LINE
  8
型材断面
  6
CONTINUOUS
 62
    47
 10
28.672953
 20
-70.929445
 11
33.926162
 21
-70.929445
  0
LINE
  8
型材断面
  6
CONTINUOUS
 62
    47
 10
28.672953
 20
-72.429445
 11
35.622955
 21
-72.429445
  0
LINE
  8
型材断面
  6
CONTINUOUS
 62
    47
 10
-1.080267
 20
-65.429447
 11
-1.080267
 21
-70.929445
  0
LINE
  8
型材断面
  6
CONTINUOUS
 62
    47
 10
4.172942
 20
-70.929445
 11
-1.080267
 21
-70.929445
  0
LINE
  8
型材断面
  6
CONTINUOUS
 62
    47
 10
4.172942
 20
-72.429445
 11
-2.77706
 21
-72.429445
  0
LINE
  8
型材断面
  6
CONTINUOUS
 62
    47
 10
33.926162
 20
-70.929445
 11
33.926162
 21
-65.429447
  0
LINE
  8
型材断面
  6
CONTINUOUS
 62
    47
 10
-10.084325
 20
-65.429447
 11
-2.77706
 21
-65.429447
  0
LINE
  8
型材断面
  6
CONTINUOUS
 62
    47
 10
-2.580267
 20
-63.929447
 11
-29.280267
 21
-63.929447
  0
LINE
  8
型材断面
  6
CONTINUOUS
 62
    47
 10
-30.280265
 20
-59.92945
 11
-30.580265
 21
-59.62945
  0
LINE
  8
型材断面
  6
CONTINUOUS
 62
    47
 10
-30.280265
 20
-59.92945
 11
-30.580265
 21
-60.22945
  0
LINE
  8
型材断面
  6
CONTINUOUS
 62
    47
 10
-1.080267
 20
-47.92945
 11
61.91974
 21
-47.92945
  0
LINE
  8
型材断面
  6
CONTINUOUS
 62
    47
 10
-1.080267
 20
-63.929447
 11
61.91974
 21
-63.929447
  0
LINE
  8
型材断面
  6
CONTINUOUS
 62
    47
 10
61.91974
 20
-47.92945
 11
61.91974
 21
-63.929447
  0
LINE
  8
型材断面
  6
CONTINUOUS
 62
    47
 10
4.16974
 20
-65.129447
 11
3.86974
 21
-65.429447
  0
LINE
  8
型材断面
  6
CONTINUOUS
 62
    47
 10
4.16974
 20
-65.129447
 11
4.46974
 21
-65.429447
  0
LINE
  8
型材断面
  6
CONTINUOUS
 62
    47
 10
50.66974
 20
-65.129447
 11
50.36974
 21
-65.429447
  0
LINE
  8
型材断面
  6
CONTINUOUS
 62
    47
 10
50.66974
 20
-65.129447
 11
50.96974
 21
-65.429447
  0
LINE
  8
型材断面
  6
CONTINUOUS
 62
    47
 10
4.16974
 20
-46.729457
 11
3.86974
 21
-46.429457
  0
LINE
  8
型材断面
  6
CONTINUOUS
 62
    47
 10
4.16974
 20
-46.729457
 11
4.46974
 21
-46.429457
  0
LINE
  8
型材断面
  6
CONTINUOUS
 62
    47
 10
50.66974
 20
-46.729457
 11
50.36974
 21
-46.429457
  0
LINE
  8
型材断面
  6
CONTINUOUS
 62
    47
 10
50.66974
 20
-46.729457
 11
50.96974
 21
-46.429457
  0
LINE
  8
型材断面
  6
CONTINUOUS
 62
    47
 10
-1.080267
 20
-46.42945
 11
3.869732
 21
-46.42945
  0
LINE
  8
型材断面
  6
CONTINUOUS
 62
    47
 10
4.469748
 20
-46.42945
 11
50.369732
 21
-46.42945
  0
LINE
  8
型材断面
  6
CONTINUOUS
 62
    47
 10
50.969748
 20
-46.42945
 11
61.91974
 21
-46.42945
  0
LINE
  8
型材断面
  6
CONTINUOUS
 62
    47
 10
35.622955
 20
-65.429447
 11
50.36974
 21
-65.429447
  0
LINE
  8
型材断面
  6
CONTINUOUS
 62
    47
 10
50.96974
 20
-65.429447
 11
63.41974
 21
-65.429447
  0
LINE
  8
型材断面
  6
CONTINUOUS
 62
    47
 10
-1.080267
 20
-65.429447
 11
3.86974
 21
-65.429447
  0
LINE
  8
型材断面
  6
CONTINUOUS
 62
    47
 10
4.46974
 20
-65.429447
 11
33.926162
 21
-65.429447
  0
LINE
  8
型材断面
  6
CONTINUOUS
 62
    47
 10
63.41974
 20
-65.429447
 11
63.41974
 21
-34.42945
  0
LINE
  8
型材断面
  6
CONTINUOUS
 62
    47
 10
61.91974
 20
-46.42945
 11
61.91974
 21
-34.42945
  0
LINE
  8
型材断面
  6
CONTINUOUS
 62
    47
 10
63.41974
 20
-34.42945
 11
61.91974
 21
-34.42945
  0
LINE
  8
型材断面
  6
CONTINUOUS
 62
    47
 10
-6.254705
 20
-24.203335
 11
-4.840475
 21
-25.617535
  0
LINE
  8
型材断面
  6
CONTINUOUS
 62
    47
 10
-4.133367
 20
-26.324635
 11
-2.580267
 21
-27.877697
  0
LINE
  8
型材断面
  6
CONTINUOUS
 62
    47
 10
-2.580267
 20
-60.929447
 11
-4.080267
 21
-60.929447
  0
LINE
  8
型材断面
  6
CONTINUOUS
 62
    47
 10
-4.080267
 20
-60.929447
 11
-4.080267
 21
-61.929445
  0
LINE
  8
型材断面
  6
CONTINUOUS
 62
    47
 10
-2.580267
 20
-61.929445
 11
-4.080267
 21
-61.929445
  0
LINE
  8
型材断面
  6
CONTINUOUS
 62
    47
 10
-2.580267
 20
-27.877697
 11
-2.580267
 21
-60.929447
  0
LINE
  8
型材断面
  6
CONTINUOUS
 62
    47
 10
-2.580267
 20
-61.929445
 11
-2.580267
 21
-63.929447
  0
LINE
  8
型材断面
  6
CONTINUOUS
 62
    47
 10
-4.840513
 20
-25.617573
 11
-5.901155
 21
-26.678185
  0
LINE
  8
型材断面
  6
CONTINUOUS
 62
    47
 10
-5.901155
 20
-26.678185
 11
-5.19404
 21
-27.385285
  0
LINE
  8
型材断面
  6
CONTINUOUS
 62
    47
 10
-4.13342
 20
-26.324687
 11
-5.19404
 21
-27.385285
  0
LINE
  8
型材断面
  6
DASHDOT
 62
    47
 10
-13.184322
 20
-69.729453
 11
-13.184322
 21
-65.429447
  0
ENDBLK
  0
BLOCK
  2
*GRP_0011
 70
    65
 10
0.0
 20
0.0
  0
LINE
  8
型材断面
  6
CONTINUOUS
 62
    47
 10
-53.584558
 20
-25.873772
 11
-52.88456
 21
-25.873825
  0
LINE
  8
型材断面
  6
CONTINUOUS
 62
    47
 10
-52.88456
 20
-26.87377
 11
-52.88456
 21
-25.873825
  0
LINE
  8
型材断面
  6
CONTINUOUS
 62
    47
 10
-50.584558
 20
-26.873823
 11
-52.88456
 21
-26.87377
  0
LINE
  8
型材断面
  6
CONTINUOUS
 62
    47
 10
-55.284598
 20
-22.073815
 11
-55.584545
 21
-21.773823
  0
LINE
  8
型材断面
  6
CONTINUOUS
 62
    47
 10
-55.284598
 20
-22.073815
 11
-55.584552
 21
-22.37377
  0
ARC
  8
型材断面
  6
CONTINUOUS
 62
    47
 10
-55.084639
 20
-18.573841
 40
0.5
 50
90.000009
 51
180.000009
  0
LINE
  8
型材断面
  6
CONTINUOUS
 62
    47
 10
-55.08455
 20
-18.073938
 11
-54.084552
 21
-18.073885
  0
ARC
  8
型材断面
  6
CONTINUOUS
 62
    47
 10
-54.084639
 20
-18.573841
 40
0.5
 50
0.000009
 51
90.000009
  0
LINE
  8
型材断面
  6
CONTINUOUS
 62
    47
 10
-55.584545
 20
-21.773823
 11
-55.584545
 21
-18.573827
  0
LINE
  8
型材断面
  6
CONTINUOUS
 62
    47
 10
-53.584558
 20
-25.873772
 11
-53.58455
 21
-18.573827
  0
LINE
  8
型材断面
  6
CONTINUOUS
 62
    47
 10
-55.584552
 20
-22.37377
 11
-55.58456
 21
-28.37371
  0
LINE
  8
型材断面
  6
CONTINUOUS
 62
    47
 10
-58.084685
 20
-28.373643
 11
-55.58456
 21
-28.37371
  0
ARC
  8
型材断面
  6
CONTINUOUS
 62
    47
 10
-50.084558
 20
-18.573619
 40
0.5
 50
90.0
 51
179.999951
  0
LINE
  8
型材断面
  6
CONTINUOUS
 62
    47
 10
-48.584548
 20
-20.073812
 11
-49.084558
 21
-19.573802
  0
LINE
  8
型材断面
  6
CONTINUOUS
 62
    47
 10
-48.584548
 20
-24.073818
 11
-49.084558
 21
-24.573827
  0
LINE
  8
型材断面
  6
CONTINUOUS
 62
    47
 10
-48.584548
 20
-20.073812
 11
-48.584555
 21
-24.073825
  0
LINE
  8
型材断面
  6
CONTINUOUS
 62
    47
 10
-50.084548
 20
-18.073622
 11
-49.58456
 21
-18.073622
  0
LINE
  8
型材断面
  6
CONTINUOUS
 62
    47
 10
-49.084558
 20
-19.573802
 11
-49.084558
 21
-18.573625
  0
ARC
  8
型材断面
  6
CONTINUOUS
 62
    47
 10
-49.584562
 20
-18.573619
 40
0.5
 50
0.0
 51
90.0
  0
LINE
  8
型材断面
  6
CONTINUOUS
 62
    47
 10
-54.38456
 20
-28.07374
 11
-54.38456
 21
-29.57374
  0
LINE
  8
型材断面
  6
CONTINUOUS
 62
    47
 10
-54.38456
 20
-29.57374
 11
-56.584715
 21
-29.57368
  0
LINE
  8
型材断面
  6
CONTINUOUS
 62
    47
 10
-49.084558
 20
-24.573827
 11
-49.084558
 21
-26.87386
  0
LINE
  8
型材断面
  6
CONTINUOUS
 62
    47
 10
-46.784713
 20
-37.173948
 11
-56.584715
 21
-37.173678
  0
LINE
  8
型材断面
  6
CONTINUOUS
 62
    47
 10
-56.584715
 20
-29.57368
 11
-56.584715
 21
-37.173678
  0
LINE
  8
型材断面
  6
CONTINUOUS
 62
    47
 10
-20.084818
 20
-89.873643
 11
-20.084818
 21
-87.373638
  0
ARC
  8
型材断面
  6
CONTINUOUS
 62
    47
 10
-17.584832
 20
-94.773633
 40
0.5
 50
270.0
 51
360.0
  0
LINE
  8
型材断面
  6
CONTINUOUS
 62
    47
 10
-17.084818
 20
-94.77364
 11
-17.084818
 21
-94.273638
  0
ARC
  8
型材断面
  6
CONTINUOUS
 62
    47
 10
-17.584832
 20
-94.273633
 40
0.5
 50
0.0
 51
90.0
  0
LINE
  8
型材断面
  6
CONTINUOUS
 62
    47
 10
-20.084818
 20
-94.77364
 11
-20.084818
 21
-91.373643
  0
LINE
  8
型材断面
  6
CONTINUOUS
 62
    47
 10
-19.584822
 20
-95.273643
 11
-17.58482
 21
-95.273643
  0
ARC
  8
型材断面
  6
CONTINUOUS
 62
    47
 10
-19.584832
 20
-94.773633
 40
0.5
 50
180.0
 51
270.0
  0
LINE
  8
型材断面
  6
CONTINUOUS
 62
    47
 10
-17.58482
 20
-93.773643
 11
-18.584818
 21
-93.773643
  0
LINE
  8
型材断面
  6
CONTINUOUS
 62
    47
 10
-20.084818
 20
-89.873643
 11
-22.584822
 21
-89.873643
  0
LINE
  8
型材断面
  6
CONTINUOUS
 62
    47
 10
-22.584822
 20
-89.873643
 11
-22.584822
 21
-91.373643
  0
LINE
  8
型材断面
  6
CONTINUOUS
 62
    47
 10
-20.084818
 20
-91.373643
 11
-22.584822
 21
-91.373643
  0
LINE
  8
型材断面
  6
CONTINUOUS
 62
    47
 10
-54.08471
 20
-38.373678
 11
-54.08471
 21
-39.873745
  0
LINE
  8
型材断面
  6
CONTINUOUS
 62
    47
 10
-54.08471
 20
-39.873745
 11
-53.084713
 21
-39.873775
  0
LINE
  8
型材断面
  6
CONTINUOUS
 62
    47
 10
-53.084713
 20
-38.373678
 11
-53.084713
 21
-39.873775
  0
LINE
  8
型材断面
  6
CONTINUOUS
 62
    47
 10
-56.584715
 20
-38.373678
 11
-54.08471
 21
-38.373745
  0
LINE
  8
型材断面
  6
CONTINUOUS
 62
    47
 10
-50.284692
 20
-22.073815
 11
-50.58464
 21
-21.773823
  0
LINE
  8
型材断面
  6
CONTINUOUS
 62
    47
 10
-50.284692
 20
-22.073815
 11
-50.584648
 21
-22.37377
  0
LINE
  8
型材断面
  6
CONTINUOUS
 62
    47
 10
-50.58455
 20
-18.573625
 11
-50.58455
 21
-21.773913
  0
LINE
  8
型材断面
  6
CONTINUOUS
 62
    47
 10
-50.58455
 20
-22.373672
 11
-50.584558
 21
-26.873823
  0
LINE
  8
型材断面
  6
CONTINUOUS
 62
    47
 10
-39.70088
 20
-45.487218
 11
-41.822203
 21
-46.901433
  0
LINE
  8
型材断面
  6
CONTINUOUS
 62
    47
 10
-45.357733
 20
-43.365895
 11
-43.94354
 21
-41.24461
  0
LINE
  8
型材断面
  6
CONTINUOUS
 62
    47
 10
-42.65393
 20
-48.898135
 11
-39.853783
 21
-47.03137
  0
LINE
  8
型材断面
  6
CONTINUOUS
 62
    47
 10
-39.853783
 20
-47.03137
 11
-39.135192
 21
-47.74996
  0
LINE
  8
型材断面
  6
CONTINUOUS
 62
    47
 10
-39.135192
 20
-47.74996
 11
-38.286665
 21
-46.901433
  0
LINE
  8
型材断面
  6
CONTINUOUS
 62
    47
 10
-39.70088
 20
-45.487218
 11
-38.286665
 21
-46.901433
  0
LINE
  8
型材断面
  6
CONTINUOUS
 62
    47
 10
-42.65393
 20
-48.898135
 11
-47.354435
 21
-44.197623
  0
LINE
  8
型材断面
  6
CONTINUOUS
 62
    47
 10
-47.354435
 20
-44.197623
 11
-45.657395
 21
-41.652055
  0
LINE
  8
型材断面
  6
CONTINUOUS
 62
    47
 10
-43.802105
 20
-45.345798
 11
-43.802105
 21
-44.92153
  0
LINE
  8
型材断面
  6
CONTINUOUS
 62
    47
 10
-43.802105
 20
-45.345798
 11
-43.377837
 21
-45.345798
  0
LINE
  8
型材断面
  6
CONTINUOUS
 62
    47
 10
-45.357733
 20
-43.365895
 11
-43.802105
 21
-44.92153
  0
LINE
  8
型材断面
  6
CONTINUOUS
 62
    47
 10
-43.377837
 20
-45.345798
 11
-41.822203
 21
-46.901433
  0
LINE
  8
型材断面
  6
CONTINUOUS
 62
    47
 10
-43.94354
 20
-41.24461
 11
-45.584713
 21
-39.603377
  0
LINE
  8
型材断面
  6
CONTINUOUS
 62
    47
 10
-45.657395
 20
-41.652055
 11
-47.084713
 21
-40.224685
  0
LINE
  8
型材断面
  6
CONTINUOUS
 62
    47
 10
-47.084713
 20
-40.224685
 11
-47.084713
 21
-38.37394
  0
LINE
  8
型材断面
  6
CONTINUOUS
 62
    47
 10
-53.084713
 20
-38.373775
 11
-47.084713
 21
-38.37394
  0
LINE
  8
型材断面
  6
CONTINUOUS
 62
    47
 10
-54.38456
 20
-28.07374
 11
-48.911863
 21
-28.073852
  0
LINE
  8
型材断面
  6
CONTINUOUS
 62
    47
 10
-49.084558
 20
-26.87386
 11
-48.414793
 21
-26.873875
  0
LINE
  8
型材断面
  6
CONTINUOUS
 62
    47
 10
-48.911863
 20
-28.073852
 11
-46.784713
 21
-30.20101
  0
LINE
  8
型材断面
  6
CONTINUOUS
 62
    47
 10
-46.784713
 20
-37.173948
 11
-46.784713
 21
-30.20101
  0
LINE
  8
型材断面
  6
CONTINUOUS
 62
    47
 10
-45.584713
 20
-39.603377
 11
-45.584713
 21
-30.832015
  0
LINE
  8
型材断面
  6
CONTINUOUS
 62
    47
 10
-45.584713
 20
-30.832015
 11
-45.020675
 21
-30.267985
  0
LINE
  8
型材断面
  6
CONTINUOUS
 62
    47
 10
-48.414793
 20
-26.873875
 11
-45.020675
 21
-30.267985
  0
LINE
  8
型材断面
  6
CONTINUOUS
 62
    47
 10
-12.884818
 20
-77.97364
 11
-13.184818
 21
-77.67364
  0
LINE
  8
型材断面
  6
CONTINUOUS
 62
    47
 10
-13.184818
 20
-77.67364
 11
-13.484818
 21
-77.97364
  0
LINE
  8
型材断面
  6
CONTINUOUS
 62
    47
 10
-9.684822
 20
-76.47364
 11
-9.684822
 21
-77.97364
  0
LINE
  8
型材断面
  6
CONTINUOUS
 62
    47
 10
-12.884818
 20
-77.97364
 11
-9.684822
 21
-77.97364
  0
LINE
  8
型材断面
  6
CONTINUOUS
 62
    47
 10
-23.58482
 20
-78.473643
 11
-23.58482
 21
-75.473643
  0
LINE
  8
型材断面
  6
CONTINUOUS
 62
    47
 10
-22.584822
 20
-76.973643
 11
-22.584822
 21
-78.473643
  0
LINE
  8
型材断面
  6
CONTINUOUS
 62
    47
 10
-23.58482
 20
-78.473643
 11
-22.584822
 21
-78.473643
  0
LINE
  8
型材断面
  6
CONTINUOUS
 62
    47
 10
-18.584818
 20
-93.773643
 11
-18.584818
 21
-77.97364
  0
LINE
  8
型材断面
  6
CONTINUOUS
 62
    47
 10
-13.484818
 20
-77.97364
 11
-18.584818
 21
-77.97364
  0
LINE
  8
型材断面
  6
CONTINUOUS
 62
    47
 10
-20.084818
 20
-85.873638
 11
-20.084818
 21
-76.973643
  0
LINE
  8
型材断面
  6
CONTINUOUS
 62
    47
 10
-22.584822
 20
-76.973643
 11
-20.084818
 21
-76.973643
  0
LINE
  8
型材断面
  6
CONTINUOUS
 62
    47
 10
-9.684822
 20
-76.47364
 11
-18.884818
 21
-76.47364
  0
LINE
  8
型材断面
  6
CONTINUOUS
 62
    47
 10
-18.884818
 20
-76.47364
 11
-18.884818
 21
-75.473643
  0
LINE
  8
型材断面
  6
CONTINUOUS
 62
    47
 10
-23.58482
 20
-75.473643
 11
-18.884818
 21
-75.473643
  0
LINE
  8
型材断面
  6
CONTINUOUS
 62
    47
 10
-58.084715
 20
-28.373643
 11
-58.084715
 21
-87.373638
  0
LINE
  8
型材断面
  6
CONTINUOUS
 62
    47
 10
-41.08472
 20
-87.373638
 11
-58.084715
 21
-87.373638
  0
LINE
  8
型材断面
  6
CONTINUOUS
 62
    47
 10
-56.584715
 20
-38.373678
 11
-56.584715
 21
-85.873638
  0
LINE
  8
型材断面
  6
CONTINUOUS
 62
    47
 10
-20.084818
 20
-85.873638
 11
-56.584715
 21
-85.873638
  0
LINE
  8
型材断面
  6
CONTINUOUS
 62
    47
 10
-39.084717
 20
-101.37364
 11
-41.08472
 21
-101.37364
  0
LINE
  8
型材断面
  6
CONTINUOUS
 62
    47
 10
-41.08472
 20
-87.373638
 11
-41.08472
 21
-101.37364
  0
LINE
  8
型材断面
  6
CONTINUOUS
 62
    47
 10
-39.084717
 20
-101.37364
 11
-39.084717
 21
-87.373638
  0
LINE
  8
型材断面
  6
CONTINUOUS
 62
    47
 10
-20.084818
 20
-87.373638
 11
-39.084717
 21
-87.373638
  0
ENDBLK
  0
BLOCK
  2
*GRP_0012
 70
    65
 10
0.0
 20
0.0
  0
LINE
  8
型材断面
  6
CONTINUOUS
 62
    47
 10
-37.438445
 20
1.747153
 11
-33.902923
 21
5.282675
  0
LINE
  8
型材断面
  6
CONTINUOUS
 62
    47
 10
-37.438445
 20
1.747153
 11
-38.286972
 21
2.59568
  0
LINE
  8
型材断面
  6
CONTINUOUS
 62
    47
 10
-33.902923
 20
5.282675
 11
-36.16565
 21
7.545395
  0
LINE
  8
型材断面
  6
CONTINUOUS
 62
    47
 10
-53.28464
 20
-18.073915
 11
-53.284633
 21
-19.573915
  0
LINE
  8
型材断面
  6
CONTINUOUS
 62
    47
 10
-52.584627
 20
-19.573915
 11
-53.284633
 21
-19.573915
  0
ARC
  8
型材断面
  6
CONTINUOUS
 62
    47
 10
-52.084643
 20
-26.373933
 40
0.5
 50
179.999956
 51
269.999956
  0
LINE
  8
型材断面
  6
CONTINUOUS
 62
    47
 10
-52.08464
 20
-26.873927
 11
-51.084635
 21
-26.873935
  0
ARC
  8
型材断面
  6
CONTINUOUS
 62
    47
 10
-51.084643
 20
-26.373934
 40
0.5
 50
269.999956
 51
359.999956
  0
LINE
  8
型材断面
  6
CONTINUOUS
 62
    47
 10
-52.584635
 20
-26.373925
 11
-52.584627
 21
-19.573915
  0
LINE
  8
型材断面
  6
CONTINUOUS
 62
    47
 10
-56.084638
 20
-18.073915
 11
-56.084645
 21
-26.37364
  0
LINE
  8
型材断面
  6
CONTINUOUS
 62
    47
 10
-55.58456
 20
-26.37364
 11
-56.084645
 21
-26.37364
  0
LINE
  8
型材断面
  6
CONTINUOUS
 62
    47
 10
-50.58455
 20
-17.073625
 11
-49.084558
 21
-17.073625
  0
LINE
  8
型材断面
  6
CONTINUOUS
 62
    47
 10
-49.084558
 20
-17.073625
 11
-49.084558
 21
-18.073622
  0
LINE
  8
型材断面
  6
CONTINUOUS
 62
    47
 10
-50.58455
 20
-18.073622
 11
-49.084558
 21
-18.073622
  0
LINE
  8
型材断面
  6
CONTINUOUS
 62
    47
 10
-50.584648
 20
-26.373932
 11
-50.584633
 21
-18.073622
  0
LINE
  8
型材断面
  6
CONTINUOUS
 62
    47
 10
-53.28464
 20
-18.073915
 11
-56.084623
 21
-18.073915
  0
LINE
  8
型材断面
  6
CONTINUOUS
 62
    47
 10
-36.16565
 20
7.545395
 11
-58.08467
 21
-14.373625
  0
LINE
  8
型材断面
  6
CONTINUOUS
 62
    47
 10
-58.084685
 20
-28.373643
 11
-58.08467
 21
-14.373625
  0
LINE
  8
型材断面
  6
CONTINUOUS
 62
    47
 10
-38.286957
 20
2.595665
 11
-56.08463
 21
-15.202
  0
LINE
  8
型材断面
  6
CONTINUOUS
 62
    47
 10
-50.584633
 20
-16.373942
 11
-56.08463
 21
-16.373942
  0
LINE
  8
型材断面
  6
CONTINUOUS
 62
    47
 10
-56.08463
 20
-15.202
 11
-56.08463
 21
-16.373942
  0
LINE
  8
型材断面
  6
CONTINUOUS
 62
    47
 10
-50.584633
 20
-17.073625
 11
-50.584633
 21
-16.373942
  0
LINE
  8
型材断面
  6
CONTINUOUS
 62
    47
 10
-55.58456
 20
-26.37364
 11
-55.58456
 21
-27.87364
  0
LINE
  8
型材断面
  6
CONTINUOUS
 62
    47
 10
-58.084655
 20
-28.373643
 11
-56.084555
 21
-28.373643
  0
ARC
  8
型材断面
  6
CONTINUOUS
 62
    47
 10
-56.084568
 20
-27.873638
 40
0.5
 50
-90.0
 51
0.0
  0
ENDBLK
  0
BLOCK
  2
*GRP_0013
 70
    65
 10
0.0
 20
0.0
  0
ARC
  8
St
  6
CONTINUOUS
 62
   127
 10
11.419767
 20
-75.629459
 40
3.2
 50
360.0
 51
450.0
  0
LINE
  8
St
  6
CONTINUOUS
 10
11.41978
 20
-81.02248
 11
14.619782
 21
-84.22249
  0
LINE
  8
St
  6
CONTINUOUS
 10
11.41978
 20
-80.315365
 11
14.619782
 21
-83.515375
  0
LINE
  8
St
  6
CONTINUOUS
 10
19.447578
 20
-72.429445
 11
22.647573
 21
-75.629447
  0
LINE
  8
St
  6
CONTINUOUS
 10
20.154685
 20
-72.429445
 11
23.35468
 21
-75.629447
  0
LINE
  8
St
  6
CONTINUOUS
 10
35.622962
 20
-75.629447
 11
35.622962
 21
-72.429445
  0
LINE
  8
St
  6
CONTINUOUS
 10
33.872965
 20
-72.429445
 11
33.872965
 21
-75.629447
  0
LINE
  8
St
  6
CONTINUOUS
 10
29.372965
 20
-72.429445
 11
29.372965
 21
-75.629447
  0
LINE
  8
St
  6
CONTINUOUS
 10
29.372965
 20
-73.229447
 11
33.872965
 21
-73.229447
  0
LINE
  8
St
  6
CONTINUOUS
 10
29.372965
 20
-74.029443
 11
33.872965
 21
-74.029443
  0
LINE
  8
St
  6
CONTINUOUS
 10
29.372965
 20
-74.829445
 11
33.872965
 21
-74.829445
  0
LINE
  8
St
  6
CONTINUOUS
 10
31.622965
 20
-78.22945
 11
31.622965
 21
-69.678115
  0
LINE
  8
St
  6
CONTINUOUS
 10
3.47296
 20
-72.429445
 11
3.47296
 21
-75.629447
  0
LINE
  8
St
  6
CONTINUOUS
 10
-1.02704
 20
-72.429445
 11
-1.02704
 21
-75.629447
  0
LINE
  8
St
  6
CONTINUOUS
 10
-1.02704
 20
-73.229447
 11
3.47296
 21
-73.229447
  0
LINE
  8
St
  6
CONTINUOUS
 10
-1.02704
 20
-74.029443
 11
3.47296
 21
-74.029443
  0
LINE
  8
St
  6
CONTINUOUS
 10
-1.02704
 20
-74.829445
 11
3.47296
 21
-74.829445
  0
LINE
  8
St
  6
CONTINUOUS
 10
1.22296
 20
-78.22945
 11
1.22296
 21
-69.678115
  0
LINE
  8
St
  6
CONTINUOUS
 62
   127
 10
-2.777052
 20
-75.629447
 11
-2.777052
 21
-72.429392
  0
LINE
  8
St
  6
CONTINUOUS
 10
4.440258
 20
-72.429445
 11
7.640252
 21
-75.629447
  0
LINE
  8
St
  6
CONTINUOUS
 10
5.147365
 20
-72.429445
 11
8.34736
 21
-75.629447
  0
LINE
  8
St
  6
CONTINUOUS
 62
   127
 10
35.622962
 20
-75.629447
 11
-2.777052
 21
-75.629447
  0
LINE
  8
St
  6
CONTINUOUS
 62
   127
 10
35.622962
 20
-72.429445
 11
-2.777052
 21
-72.429445
  0
LINE
  8
St
  6
CONTINUOUS
 10
11.41978
 20
-105.429453
 11
14.619782
 21
-105.429453
  0
LINE
  8
St
  6
CONTINUOUS
 10
11.41978
 20
-125.429455
 11
14.619782
 21
-125.429455
  0
LINE
  8
St
  6
CONTINUOUS
 10
7.906735
 20
-110.429455
 11
17.987433
 21
-110.429455
  0
LINE
  8
St
  6
CONTINUOUS
 10
11.41978
 20
-115.429457
 11
14.619782
 21
-115.429457
  0
LINE
  8
St
  6
CONTINUOUS
 62
   127
 10
12.219782
 20
-105.429453
 11
12.219782
 21
-115.429457
  0
LINE
  8
St
  6
CONTINUOUS
 62
   127
 10
13.019778
 20
-105.429453
 11
13.019778
 21
-115.429457
  0
LINE
  8
St
  6
CONTINUOUS
 62
   127
 10
13.81978
 20
-105.429453
 11
13.81978
 21
-115.429457
  0
LINE
  8
St
  6
CONTINUOUS
 62
   127
 10
11.41978
 20
-75.629447
 11
11.41978
 21
-125.429455
  0
LINE
  8
St
  6
CONTINUOUS
 62
   127
 10
14.619782
 20
-75.629447
 11
14.619782
 21
-125.429455
  0
ENDBLK
  0
BLOCK
  2
*DIM_0014
 70
    65
 10
0.0
 20
0.0
  0
LINE
  8
寸法
  6
CONTINUOUS
 10
40.622955
 20
-72.429445
 11
102.719073
 21
-72.429445
  0
LINE
  8
寸法
  6
CONTINUOUS
 10
68.41974
 20
-65.429447
 11
102.719073
 21
-65.429447
  0
LINE
  8
寸法
  6
CONTINUOUS
 10
102.719073
 20
-72.429445
 11
102.719073
 21
-65.429447
  0
POINT
  8
寸法
 10
102.719073
 20
-72.429445
  0
POINT
  8
寸法
 10
102.719073
 20
-65.429447
  0
TEXT
  7
TextStyle03
  8
寸法
  6
CONTINUOUS
 10
102.325
 20
-69.7
  1
7
 40
3.0
 50
90.0
 72
     5
 11
102.325
 21
-68.2
  0
ENDBLK
  0
BLOCK
  2
*DIM_0015
 70
    65
 10
0.0
 20
0.0
  0
LINE
  8
寸法
  6
CONTINUOUS
 10
68.41974
 20
-34.42945
 11
102.719073
 21
-34.42945
  0
LINE
  8
寸法
  6
CONTINUOUS
 10
102.719073
 20
-65.429447
 11
102.719073
 21
-34.42945
  0
POINT
  8
寸法
 10
102.719073
 20
-34.42945
  0
TEXT
  7
TextStyle03
  8
寸法
  6
CONTINUOUS
 10
102.325
 20
-51.54375
  1
31
 40
3.0
 50
90.0
 72
     5
 11
102.325
 21
-48.35625
  0
ENDBLK
  0
BLOCK
  2
*DIM_0016
 70
    65
 10
0.0
 20
0.0
  0
LINE
  8
寸法
  6
CONTINUOUS
 10
-63.08467
 20
-14.373625
 11
-115.460595
 21
-14.373625
  0
LINE
  8
寸法
  6
CONTINUOUS
 10
-63.084715
 20
-87.373638
 11
-115.460595
 21
-87.373638
  0
LINE
  8
寸法
  6
CONTINUOUS
 10
-115.460595
 20
-14.373625
 11
-115.460595
 21
-87.373638
  0
POINT
  8
寸法
 10
-115.460595
 20
-14.373625
  0
POINT
  8
寸法
 10
-115.460595
 20
-87.373638
  0
TEXT
  7
TextStyle03
  8
寸法
  6
CONTINUOUS
 10
-115.85
 20
-52.46875
  1
73
 40
3.0
 50
90.0
 72
     5
 11
-115.85
 21
-49.28125
  0
ENDBLK
  0
BLOCK
  2
*DIM_0017
 70
    65
 10
0.0
 20
0.0
  0
LINE
  8
寸法
  6
CONTINUOUS
 10
-46.08472
 20
-101.37364
 11
-115.460595
 21
-101.37364
  0
LINE
  8
寸法
  6
CONTINUOUS
 10
-115.460595
 20
-87.373638
 11
-115.460595
 21
-101.37364
  0
POINT
  8
寸法
 10
-115.460595
 20
-101.37364
  0
TEXT
  7
TextStyle03
  8
寸法
  6
CONTINUOUS
 10
-115.85
 20
-95.96875
  1
14
 40
3.0
 50
90.0
 72
     5
 11
-115.85
 21
-92.78125
  0
ENDBLK
  0
BLOCK
  2
*DIM_0018
 70
    65
 10
0.0
 20
0.0
  0
LINE
  8
寸法
  6
CONTINUOUS
 10
-58.084715
 20
-92.373638
 11
-58.084715
 21
-113.951797
  0
LINE
  8
寸法
  6
CONTINUOUS
 10
-41.08472
 20
-106.37364
 11
-41.08472
 21
-113.951797
  0
LINE
  8
寸法
  6
CONTINUOUS
 10
-58.084715
 20
-113.951797
 11
-41.08472
 21
-113.951797
  0
POINT
  8
寸法
 10
-58.084715
 20
-113.951797
  0
POINT
  8
寸法
 10
-41.08472
 20
-113.951797
  0
TEXT
  7
TextStyle03
  8
寸法
  6
CONTINUOUS
 10
-51.19375
 20
-113.6
  1
17
 40
3.0
 72
     5
 11
-48.00625
 21
-113.6
  0
ENDBLK
  0
BLOCK
  2
*DIM_0019
 70
    65
 10
0.0
 20
0.0
  0
LINE
  8
寸法
  6
CONTINUOUS
 10
40.622955
 20
-72.429445
 11
102.719073
 21
-72.429445
  0
LINE
  8
寸法
  6
CONTINUOUS
 10
-34.084717
 20
-101.37364
 11
102.719073
 21
-101.37364
  0
LINE
  8
寸法
  6
CONTINUOUS
 10
102.719073
 20
-72.429445
 11
102.719073
 21
-101.37364
  0
POINT
  8
寸法
 10
102.719073
 20
-72.429445
  0
POINT
  8
寸法
 10
102.719073
 20
-101.37364
  0
TEXT
  7
TextStyle03
  8
寸法
  6
CONTINUOUS
 10
102.325
 20
-90.20625
  1
28.9
 40
3.0
 50
90.0
 72
     5
 11
102.325
 21
-83.64375
  0
ENDBLK
  0
BLOCK
  2
*DIM_0020
 70
    65
 10
0.0
 20
0.0
  0
LINE
  8
寸法
  6
CONTINUOUS
 10
5.919737
 20
78.308815
 11
5.919737
 21
77.605938
  0
LINE
  8
寸法
  6
CONTINUOUS
 10
-58.08467
 20
-9.373625
 11
-58.08467
 21
77.605938
  0
LINE
  8
寸法
  6
CONTINUOUS
 10
5.919737
 20
77.605938
 11
-58.08467
 21
77.605938
  0
POINT
  8
寸法
 10
5.919737
 20
77.605938
  0
POINT
  8
寸法
 10
-58.08467
 20
77.605938
  0
TEXT
  7
TextStyle03
  8
寸法
  6
CONTINUOUS
 10
-27.69375
 20
77.975
  1
64
 40
3.0
 72
     5
 11
-24.50625
 21
77.975
  0
ENDBLK
  0
BLOCK
  2
*DIM_0021
 70
    65
 10
0.0
 20
0.0
  0
LINE
  8
寸法
  6
CONTINUOUS
 10
-58.08467
 20
-9.373625
 11
-58.08467
 21
84.500895
  0
LINE
  8
寸法
  6
CONTINUOUS
 10
63.41974
 20
-29.42945
 11
63.41974
 21
84.500895
  0
LINE
  8
寸法
  6
CONTINUOUS
 10
-58.08467
 20
84.500895
 11
63.41974
 21
84.500895
  0
POINT
  8
寸法
 10
-58.08467
 20
84.500895
  0
POINT
  8
寸法
 10
63.41974
 20
84.500895
  0
TEXT
  7
TextStyle03
  8
寸法
  6
CONTINUOUS
 10
-1.475
 20
84.875
  1
121.5
 40
3.0
 72
     5
 11
6.775
 21
84.875
  0
ENDBLK
  0
BLOCK
  2
*DIM_0022
 70
    65
 10
0.0
 20
0.0
  0
LINE
  8
寸法
  6
CONTINUOUS
 10
5.919737
 20
69.798025
 11
5.919737
 21
72.015107
  0
LINE
  8
寸法
  6
CONTINUOUS
 10
63.41974
 20
-29.42945
 11
63.41974
 21
72.015107
  0
LINE
  8
寸法
  6
CONTINUOUS
 10
5.919737
 20
72.015107
 11
63.41974
 21
72.015107
  0
POINT
  8
寸法
 10
5.919737
 20
72.015107
  0
POINT
  8
寸法
 10
63.41974
 20
72.015107
  0
TEXT
  7
TextStyle03
  8
寸法
  6
CONTINUOUS
 10
31.36875
 20
72.375
  1
57.5
 40
3.0
 72
     5
 11
37.93125
 21
72.375
  0
ENDBLK
  0
BLOCK
  2
*GRP_0023
 70
    65
 10
0.0
 20
0.0
  0
POLYLINE
  8
寸法
  6
CONTINUOUS
 66
     1
  0
VERTEX
  8
寸法
 10
-32.308993
 20
-96.467087
  0
VERTEX
  8
寸法
 10
-4.701797
 20
-117.313125
  0
VERTEX
  8
寸法
 10
26.745315
 20
-117.313125
  0
SEQEND
  0
ENDBLK
  0
BLOCK
  2
*GRP_0024
 70
    65
 10
0.0
 20
0.0
  0
LINE
  8
寸法
  6
CONTINUOUS
 10
-4.701797
 20
-117.313125
 11
-15.32176
 21
-85.608273
  0
ENDBLK
  0
BLOCK
  2
*GRP_0025
 70
    65
 10
0.0
 20
0.0
  0
POLYLINE
  8
寸法
  6
CONTINUOUS
 66
     1
  0
VERTEX
  8
寸法
 10
-6.535977
 20
-73.221765
  0
VERTEX
  8
寸法
 10
3.484355
 20
-92.997483
  0
VERTEX
  8
寸法
 10
22.17032
 20
-92.997483
  0
SEQEND
  0
ENDBLK
  0
BLOCK
  2
*GRP_0026
 70
    65
 10
0.0
 20
0.0
  0
LINE
  8
01
  6
CONTINUOUS
 62
    63
 10
-133.75624
 20
48.291538
 11
-131.634925
 21
49.705753
  0
LINE
  8
01
  6
CONTINUOUS
 62
    63
 10
-135.736143
 20
53.80697
 11
-137.150357
 21
51.685648
  0
LINE
  8
01
  6
CONTINUOUS
 62
    63
 10
-133.68553
 20
58.827433
 11
-137.221068
 21
55.291895
  0
LINE
  8
01
  6
CONTINUOUS
 62
    63
 10
-126.61447
 20
51.756365
 11
-130.15
 21
48.220828
  0
LINE
  8
01
  6
CONTINUOUS
 62
    63
 10
-133.75624
 20
48.291538
 11
-137.150357
 21
51.685648
  0
LINE
  8
01
  6
CONTINUOUS
 62
    63
 10
-137.221068
 20
55.291895
 11
-135.736143
 21
53.80697
  0
LINE
  8
01
  6
CONTINUOUS
 62
    63
 10
-131.634925
 20
49.705753
 11
-130.15
 21
48.220828
  0
LINE
  8
01
  6
CONTINUOUS
 62
    63
 10
-130.50355
 20
54.938337
 11
-130.50355
 21
55.645452
  0
LINE
  8
01
  6
CONTINUOUS
 62
    63
 10
-130.50355
 20
54.938337
 11
-129.79645
 21
54.938345
  0
LINE
  8
01
  6
CONTINUOUS
 62
    63
 10
-126.61447
 20
51.756365
 11
-129.79645
 21
54.938345
  0
LINE
  8
01
  6
CONTINUOUS
 62
    63
 10
-130.50355
 20
55.645452
 11
-133.68553
 21
58.827433
  0
LINE
  8
01
  6
CONTINUOUS
 62
    63
 10
-135.292135
 20
49.827433
 11
-128.543402
 21
49.827433
  0
LINE
  8
01
  6
CONTINUOUS
 62
    63
 10
-136.792135
 20
51.327425
 11
-127.043402
 21
51.327425
  0
LINE
  8
01
  6
CONTINUOUS
 62
    63
 10
-136.389167
 20
52.827433
 11
-127.685538
 21
52.827433
  0
LINE
  8
01
  6
CONTINUOUS
 62
    63
 10
-136.256605
 20
54.327433
 11
-129.18553
 21
54.327433
  0
LINE
  8
01
  6
CONTINUOUS
 62
    63
 10
-135.18553
 20
57.327433
 11
-132.185538
 21
57.327433
  0
LINE
  8
01
  6
CONTINUOUS
 62
    63
 10
-136.685538
 20
55.827425
 11
-130.68553
 21
55.827425
  0
ENDBLK
  0
BLOCK
  2
*GRP_0027
 70
    65
 10
0.0
 20
0.0
  0
LINE
  8
01
  6
DOT
 62
    63
 10
-134.392525
 20
72.262422
 11
-137.928055
 21
75.797953
  0
LINE
  8
01
  6
DOT
 62
    63
 10
-132.271202
 20
81.454805
 11
-114.593538
 21
63.777132
  0
LINE
  8
01
  6
DOT
 62
    63
 10
-134.392525
 20
72.262422
 11
-139.342277
 21
67.312678
  0
LINE
  8
01
  6
DOT
 62
    63
 10
-129.44278
 20
57.41318
 11
-120.957498
 21
57.41318
  0
LINE
  8
01
  6
DOT
 62
    63
 10
-114.593538
 20
63.777132
 11
-120.957498
 21
57.41318
  0
LINE
  8
01
  6
DOT
 62
    63
 10
-132.271202
 20
81.454805
 11
-126.2608
 21
57.41318
  0
LINE
  8
01
  6
DOT
 62
    63
 10
-132.271202
 20
81.454805
 11
-137.928055
 21
75.797953
  0
LINE
  8
01
  6
DOT
 62
    63
 10
-129.44278
 20
57.413187
 11
-139.342277
 21
67.312678
  0
ENDBLK
  0
BLOCK
  2
*GRP_0028
 70
    65
 10
0.0
 20
0.0
  0
LINE
  8
ボルト／ビス
  6
CONTINUOUS
 62
    64
 10
-131.210598
 20
59.18087
 11
-130.404587
 21
59.85719
  0
ARC
  8
ボルト／ビス
  6
CONTINUOUS
 62
    64
 10
-129.311834
 20
58.554918
 40
1.7
 50
45.0
 51
130.000011
  0
LINE
  8
ボルト／ビス
  6
CONTINUOUS
 62
    64
 10
-128.109768
 20
59.757005
 11
-126.897242
 21
58.54448
  0
LINE
  8
ボルト／ビス
  6
CONTINUOUS
 62
    64
 10
-126.260845
 20
54.231125
 11
-125.584525
 21
55.037127
  0
ARC
  8
ボルト／ビス
  6
CONTINUOUS
 62
    64
 10
-126.886788
 20
56.129872
 40
1.7
 50
319.999989
 51
405.0
  0
LINE
  8
ボルト／ビス
  6
CONTINUOUS
 62
    64
 10
-125.684717
 20
57.331955
 11
-126.897242
 21
58.54448
  0
LINE
  8
ボルト／ビス
  6
CONTINUOUS
 62
    64
 10
-128.864095
 20
59.96699
 11
-128.692862
 21
60.138222
  0
LINE
  8
ボルト／ビス
  6
CONTINUOUS
 62
    64
 10
-128.124063
 20
58.3076
 11
-127.629093
 21
57.81263
  0
LINE
  8
ボルト／ビス
  6
CONTINUOUS
 62
    64
 10
-127.947235
 20
59.050123
 11
-128.864095
 21
59.96699
  0
LINE
  8
ボルト／ビス
  6
CONTINUOUS
 62
    64
 10
-128.124063
 20
58.3076
 11
-127.947228
 21
58.484435
  0
ARC
  8
ボルト／ビス
  6
CONTINUOUS
 62
    64
 10
-128.230058
 20
58.767283
 40
0.4
 50
315.0
 51
405.0
  0
LINE
  8
ボルト／ビス
  6
CONTINUOUS
 62
    64
 10
-125.474733
 20
56.577628
 11
-125.3035
 21
56.74886
  0
LINE
  8
ボルト／ビス
  6
CONTINUOUS
 62
    64
 10
-127.134123
 20
57.317653
 11
-127.629093
 21
57.81263
  0
LINE
  8
ボルト／ビス
  6
CONTINUOUS
 62
    64
 10
-126.391593
 20
57.494487
 11
-125.474733
 21
56.577628
  0
LINE
  8
ボルト／ビス
  6
CONTINUOUS
 62
    64
 10
-127.134123
 20
57.317653
 11
-126.95728
 21
57.494495
  0
ARC
  8
ボルト／ビス
  6
CONTINUOUS
 62
    64
 10
-126.674423
 20
57.211648
 40
0.4
 50
45.0
 51
135.0
  0
LINE
  8
ボルト／ビス
  6
CONTINUOUS
 62
    64
 10
-131.210598
 20
59.18087
 11
-126.260845
 21
54.231125
  0
LINE
  8
ボルト／ビス
  6
CONTINUOUS
 62
    64
 10
-141.110095
 20
47.160058
 11
-141.110088
 21
46.45295
  0
LINE
  8
ボルト／ビス
  6
CONTINUOUS
 62
    64
 10
-138.281665
 20
44.331627
 11
-138.988765
 21
44.331627
  0
LINE
  8
ボルト／ビス
  6
CONTINUOUS
 62
    64
 10
-141.110095
 20
47.160058
 11
-138.281665
 21
44.331627
  0
LINE
  8
ボルト／ビス
  6
CONTINUOUS
 62
    64
 10
-141.110088
 20
46.45295
 11
-138.988765
 21
44.331627
  0
LINE
  8
ボルト／ビス
  6
CONTINUOUS
 62
    64
 10
-127.321503
 20
55.291783
 11
-138.281665
 21
44.331627
  0
LINE
  8
ボルト／ビス
  6
CONTINUOUS
 62
    64
 10
-130.14994
 20
58.120212
 11
-141.110095
 21
47.160058
  0
LINE
  8
ボルト／ビス
  6
CONTINUOUS
 62
    64
 10
-129.796382
 20
57.766655
 11
-141.110088
 21
46.45295
  0
LINE
  8
ボルト／ビス
  6
CONTINUOUS
 62
    64
 10
-127.67506
 20
55.64534
 11
-138.988765
 21
44.331627
  0
LINE
  8
ボルト／ビス
  6
DASHDOT
 62
    64
 10
-124.77592
 20
60.665795
 11
-142.170745
 21
43.27097
  0
ENDBLK
  0
BLOCK
  2
*GRP_0029
 70
    65
 10
0.0
 20
0.0
  0
LINE
  8
型材断面
  6
CONTINUOUS
 62
    47
 10
-129.301772
 20
96.869412
 11
-125.76625
 21
100.404935
  0
LINE
  8
型材断面
  6
CONTINUOUS
 62
    47
 10
-129.301772
 20
96.869412
 11
-130.1503
 21
97.71794
  0
LINE
  8
型材断面
  6
CONTINUOUS
 62
    47
 10
-125.76625
 20
100.404935
 11
-128.028978
 21
102.667655
  0
LINE
  8
型材断面
  6
CONTINUOUS
 62
    47
 10
-145.147967
 20
77.048345
 11
-145.14796
 21
75.548345
  0
LINE
  8
型材断面
  6
CONTINUOUS
 62
    47
 10
-144.447955
 20
75.548345
 11
-145.14796
 21
75.548345
  0
ARC
  8
型材断面
  6
CONTINUOUS
 62
    47
 10
-143.947951
 20
68.748326
 40
0.5
 50
179.999956
 51
269.999956
  0
LINE
  8
型材断面
  6
CONTINUOUS
 62
    47
 10
-143.947967
 20
68.248332
 11
-142.947962
 21
68.248325
  0
ARC
  8
型材断面
  6
CONTINUOUS
 62
    47
 10
-142.947951
 20
68.748325
 40
0.5
 50
269.999956
 51
359.999956
  0
LINE
  8
型材断面
  6
CONTINUOUS
 62
    47
 10
-144.447962
 20
68.748335
 11
-144.447955
 21
75.548345
  0
LINE
  8
型材断面
  6
CONTINUOUS
 62
    47
 10
-147.947965
 20
77.048345
 11
-147.947973
 21
68.74862
  0
LINE
  8
型材断面
  6
CONTINUOUS
 62
    47
 10
-147.447887
 20
68.74862
 11
-147.947973
 21
68.74862
  0
LINE
  8
型材断面
  6
CONTINUOUS
 62
    47
 10
-142.447877
 20
78.048635
 11
-140.947885
 21
78.048635
  0
LINE
  8
型材断面
  6
CONTINUOUS
 62
    47
 10
-140.947885
 20
78.048635
 11
-140.947885
 21
77.048638
  0
LINE
  8
型材断面
  6
CONTINUOUS
 62
    47
 10
-142.447877
 20
77.048638
 11
-140.947885
 21
77.048638
  0
LINE
  8
型材断面
  6
CONTINUOUS
 62
    47
 10
-142.447975
 20
68.748328
 11
-142.44796
 21
77.048638
  0
LINE
  8
型材断面
  6
CONTINUOUS
 62
    47
 10
-145.147967
 20
77.048345
 11
-147.94795
 21
77.048345
  0
LINE
  8
型材断面
  6
CONTINUOUS
 62
    47
 10
-128.028978
 20
102.667655
 11
-149.947998
 21
80.748635
  0
LINE
  8
型材断面
  6
CONTINUOUS
 62
    47
 10
-149.948013
 20
66.748617
 11
-149.947998
 21
80.748635
  0
LINE
  8
型材断面
  6
CONTINUOUS
 62
    47
 10
-130.150285
 20
97.717925
 11
-147.947958
 21
79.92026
  0
LINE
  8
型材断面
  6
CONTINUOUS
 62
    47
 10
-142.44796
 20
78.748317
 11
-147.947958
 21
78.748317
  0
LINE
  8
型材断面
  6
CONTINUOUS
 62
    47
 10
-147.947958
 20
79.92026
 11
-147.947958
 21
78.748317
  0
LINE
  8
型材断面
  6
CONTINUOUS
 62
    47
 10
-142.44796
 20
78.048635
 11
-142.44796
 21
78.748317
  0
LINE
  8
型材断面
  6
CONTINUOUS
 62
    47
 10
-147.447887
 20
68.74862
 11
-147.447887
 21
67.24862
  0
LINE
  8
型材断面
  6
CONTINUOUS
 62
    47
 10
-149.947983
 20
66.748617
 11
-147.947883
 21
66.748617
  0
ARC
  8
型材断面
  6
CONTINUOUS
 62
    47
 10
-147.947876
 20
67.248621
 40
0.5
 50
-90.0
 51
0.0
  0
ENDBLK
  0
BLOCK
  2
*GRP_0030
 70
    65
 10
0.0
 20
0.0
  0
LINE
  8
ゴム等
  6
CONTINUOUS
 62
    63
 10
-107.027575
 20
67.66622
 11
-107.381132
 21
68.019763
  0
LINE
  8
ゴム等
  6
CONTINUOUS
 62
    63
 10
-107.381132
 20
68.019763
 11
-106.674017
 21
68.72687
  0
LINE
  8
ゴム等
  6
CONTINUOUS
 62
    63
 10
-106.674017
 20
68.72687
 11
-107.946805
 21
69.999657
  0
LINE
  8
ゴム等
  6
CONTINUOUS
 62
    63
 10
-107.946805
 20
69.999657
 11
-110.492395
 21
67.454082
  0
LINE
  8
ゴム等
  6
CONTINUOUS
 62
    63
 10
-102.21925
 20
72.474538
 11
-102.5728
 21
72.828088
  0
LINE
  8
ゴム等
  6
CONTINUOUS
 62
    63
 10
-102.5728
 20
72.828088
 11
-103.279907
 21
72.120988
  0
LINE
  8
ゴム等
  6
CONTINUOUS
 62
    63
 10
-102.21925
 20
72.474538
 11
-102.219243
 21
69.363268
  0
LINE
  8
ゴム等
  6
CONTINUOUS
 62
    63
 10
-103.279907
 20
72.120988
 11
-104.552695
 21
73.393783
  0
LINE
  8
ゴム等
  6
CONTINUOUS
 62
    63
 10
-104.552695
 20
73.393783
 11
-102.007113
 21
75.939365
  0
LINE
  8
ゴム等
  6
CONTINUOUS
 62
    63
 10
-103.916298
 20
67.666205
 11
-102.219243
 21
69.363268
  0
ARC
  8
ゴム等
  6
CONTINUOUS
 62
    63
 10
-105.542643
 20
70.989602
 40
1.0
 50
135.000021
 51
225.000021
  0
LINE
  8
ゴム等
  6
CONTINUOUS
 62
    63
 10
-106.249742
 20
71.696712
 11
-106.249742
 21
71.696712
  0
ARC
  8
ゴム等
  6
CONTINUOUS
 62
    63
 10
-105.542643
 20
70.989602
 40
1.0
 50
45.000021
 51
135.000021
  0
LINE
  8
ゴム等
  6
CONTINUOUS
 62
    63
 10
-104.835535
 20
71.696712
 11
-103.704175
 21
70.565345
  0
ARC
  8
ゴム等
  6
CONTINUOUS
 62
    63
 10
-104.411272
 20
69.858232
 40
1.0
 50
315.000021
 51
405.000021
  0
LINE
  8
ゴム等
  6
CONTINUOUS
 62
    63
 10
-103.704168
 20
69.15113
 11
-103.704168
 21
69.15113
  0
LINE
  8
ゴム等
  6
CONTINUOUS
 62
    63
 10
-106.249742
 20
70.282505
 11
-105.11839
 21
69.15113
  0
ARC
  8
ゴム等
  6
CONTINUOUS
 62
    63
 10
-104.411272
 20
69.858232
 40
1.0
 50
225.000021
 51
315.000021
  0
LINE
  8
ゴム等
  6
CONTINUOUS
 62
    63
 10
-107.027575
 20
67.66622
 11
-103.916298
 21
67.666205
  0
LINE
  8
ゴム等
  6
CONTINUOUS
 10
-103.761902
 20
67.8206
 11
-107.181963
 21
67.820608
  0
LINE
  8
ゴム等
  6
CONTINUOUS
 10
-108.125868
 20
69.820602
 11
-112.858915
 21
69.820602
  0
LINE
  8
ゴム等
  6
CONTINUOUS
 10
-104.125878
 20
73.8206
 11
-116.858913
 21
73.8206
  0
LINE
  8
ゴム等
  6
CONTINUOUS
 10
-102.125875
 20
75.820602
 11
-118.858915
 21
75.820602
  0
LINE
  8
ゴム等
  6
CONTINUOUS
 10
-107.76775
 20
69.820602
 11
-105.787855
 21
69.820602
  0
LINE
  8
ゴム等
  6
CONTINUOUS
 10
-102.21925
 20
71.820598
 11
-104.95942
 21
71.820598
  0
LINE
  8
ゴム等
  6
CONTINUOUS
 10
-114.85891
 20
71.82059
 11
-106.098932
 21
71.820598
  0
LINE
  8
ゴム等
  6
CONTINUOUS
 10
-102.219243
 20
69.820602
 11
-103.41199
 21
69.820602
  0
LINE
  8
ゴム等
  6
CONTINUOUS
 62
    63
 10
-121.098992
 20
78.06068
 11
-119.684785
 21
79.474887
  0
LINE
  8
ゴム等
  6
CONTINUOUS
 62
    63
 10
-112.61371
 20
86.545947
 11
-114.027925
 21
85.131732
  0
LINE
  8
ゴム等
  6
CONTINUOUS
 62
    63
 10
-114.027925
 20
85.131732
 11
-114.027925
 21
85.131732
  0
ARC
  8
ゴム等
  6
CONTINUOUS
 62
    63
 10
-114.381483
 20
84.778181
 40
0.5
 50
315.000021
 51
405.000021
  0
LINE
  8
ゴム等
  6
CONTINUOUS
 62
    63
 10
-119.684785
 20
79.474887
 11
-119.684785
 21
79.474887
  0
LINE
  8
ゴム等
  6
CONTINUOUS
 62
    63
 10
-118.977685
 20
79.474895
 11
-114.027933
 21
84.42464
  0
ARC
  8
ゴム等
  6
CONTINUOUS
 62
    63
 10
-119.331229
 20
79.828432
 40
0.5
 50
225.000021
 51
315.000021
  0
LINE
  8
ゴム等
  6
CONTINUOUS
 62
    63
 10
-110.492395
 20
67.454082
 11
-121.098992
 21
78.06068
  0
LINE
  8
ゴム等
  6
CONTINUOUS
 62
    63
 10
-102.007113
 20
75.939365
 11
-112.61371
 21
86.545947
  0
LINE
  8
ゴム等
  6
CONTINUOUS
 10
-109.88836
 20
83.820598
 11
-114.631975
 21
83.82059
  0
LINE
  8
ゴム等
  6
CONTINUOUS
 10
-107.888365
 20
81.820602
 11
-116.631977
 21
81.820595
  0
LINE
  8
ゴム等
  6
CONTINUOUS
 10
-105.888355
 20
79.8206
 11
-118.63198
 21
79.8206
  0
LINE
  8
ゴム等
  6
CONTINUOUS
 10
-103.888368
 20
77.820605
 11
-120.858918
 21
77.820605
  0
LINE
  8
ゴム等
  6
CONTINUOUS
 10
-113.40088
 20
85.7588
 11
-111.826562
 21
85.758792
  0
ENDBLK
  0
BLOCK
  2
*GRP_0031
 70
    65
 10
0.0
 20
0.0
  0
LINE
  8
型材断面
  6
DOT
 10
-56.584707
 20
-85.873638
 11
-58.084707
 21
-85.873638
  0
LINE
  8
型材断面
  6
DOT
 10
-56.584707
 20
-77.873635
 11
-58.084707
 21
-77.873635
  0
LINE
  8
型材断面
  6
DOT
 10
-57.709707
 20
-77.873635
 11
-57.709707
 21
-85.873638
  0
LINE
  8
型材断面
  6
DOT
 10
-57.334707
 20
-77.873635
 11
-57.334707
 21
-85.873638
  0
LINE
  8
型材断面
  6
DOT
 10
-56.959707
 20
-77.873635
 11
-56.959707
 21
-85.873638
  0
ENDBLK
  0
BLOCK
  2
*GRP_0032
 70
    65
 10
0.0
 20
0.0
  0
LINE
  8
型材断面
  6
DOT
 10
-30.580257
 20
-63.929447
 11
-29.28026
 21
-63.929447
  0
LINE
  8
型材断面
  6
DOT
 10
-30.580257
 20
-55.929445
 11
-29.28026
 21
-55.929445
  0
LINE
  8
型材断面
  6
DOT
 10
-29.605257
 20
-55.929445
 11
-29.605257
 21
-63.929447
  0
LINE
  8
型材断面
  6
DOT
 10
-29.930263
 20
-55.929445
 11
-29.930263
 21
-63.929447
  0
LINE
  8
型材断面
  6
DOT
 10
-30.25526
 20
-55.929445
 11
-30.25526
 21
-63.929447
  0
ENDBLK
  0
BLOCK
  2
*GRP_0033
 70
    65
 10
0.0
 20
0.0
  0
LINE
  8
型材断面
  6
DOT
 10
-23.649553
 20
-39.335582
 11
-27.185105
 21
-35.800022
  0
LINE
  8
型材断面
  6
DOT
 10
-16.861557
 20
-34.809872
 11
-17.780795
 21
-33.890635
  0
LINE
  8
型材断面
  6
DOT
 10
-23.429735
 20
-39.5554
 11
-22.510483
 21
-38.636178
  0
LINE
  8
型材断面
  6
DOT
 10
-23.657547
 20
-39.327588
 11
-22.738295
 21
-38.408357
  0
LINE
  8
型材断面
  6
DOT
 10
-23.885353
 20
-39.099775
 11
-22.9661
 21
-38.180552
  0
LINE
  8
型材断面
  6
DOT
 10
-24.113158
 20
-38.871962
 11
-23.193905
 21
-37.95274
  0
LINE
  8
型材断面
  6
DOT
 10
-24.34097
 20
-38.64415
 11
-23.421717
 21
-37.72492
  0
LINE
  8
型材断面
  6
DOT
 10
-23.20193
 20
-39.783212
 11
-17.544988
 21
-34.126443
  0
LINE
  8
型材断面
  6
DOT
 10
-22.974125
 20
-40.011025
 11
-17.317175
 21
-34.354255
  0
LINE
  8
型材断面
  6
DOT
 10
-22.746313
 20
-40.238838
 11
-17.08937
 21
-34.58206
  0
LINE
  8
型材断面
  6
DOT
 10
-26.081967
 20
-35.064602
 11
-27.00125
 21
-35.983878
  0
LINE
  8
型材断面
  6
DOT
 10
-25.89812
 20
-35.248458
 11
-26.817395
 21
-36.167732
  0
LINE
  8
型材断面
  6
DOT
 10
-25.714265
 20
-35.432312
 11
-26.633547
 21
-36.351588
  0
LINE
  8
型材断面
  6
DOT
 10
-25.53041
 20
-35.616168
 11
-26.449693
 21
-36.535435
  0
ENDBLK
  0
BLOCK
  2
*GRP_0034
 70
    65
 10
0.0
 20
0.0
  0
LINE
  8
型材断面
  6
DOT
 10
-1.08026
 20
-46.42945
 11
-2.58026
 21
-46.42945
  0
LINE
  8
型材断面
  6
DOT
 10
-1.08026
 20
-38.429447
 11
-2.58026
 21
-38.429447
  0
LINE
  8
型材断面
  6
DOT
 10
-2.20526
 20
-38.429447
 11
-2.20526
 21
-46.42945
  0
LINE
  8
型材断面
  6
DOT
 10
-1.83026
 20
-38.429447
 11
-1.83026
 21
-46.42945
  0
LINE
  8
型材断面
  6
DOT
 10
-1.45526
 20
-38.429447
 11
-1.45526
 21
-46.42945
  0
ENDBLK
  0
BLOCK
  2
*GRP_0035
 70
    65
 10
0.0
 20
0.0
  0
POLYLINE
  8
ガラス
  6
CONTINUOUS
 66
     1
 70
     4
  0
VERTEX
  8
ガラス
 10
-62.15
 20
-87.175
 70
     8
  0
VERTEX
  8
ガラス
 10
-62.1
 20
-87.1
 70
     8
  0
VERTEX
  8
ガラス
 10
-62.075
 20
-87.0
 70
     8
  0
VERTEX
  8
ガラス
 10
-62.025
 20
-86.925
 70
     8
  0
VERTEX
  8
ガラス
 10
-62.0
 20
-86.825
 70
     8
  0
VERTEX
  8
ガラス
 10
-61.95
 20
-86.75
 70
     8
  0
VERTEX
  8
ガラス
 10
-61.925
 20
-86.675
 70
     8
  0
VERTEX
  8
ガラス
 10
-61.875
 20
-86.575
 70
     8
  0
VERTEX
  8
ガラス
 10
-61.85
 20
-86.5
 70
     8
  0
VERTEX
  8
ガラス
 10
-61.8
 20
-86.425
 70
     8
  0
VERTEX
  8
ガラス
 10
-61.75
 20
-86.35
 70
     8
  0
VERTEX
  8
ガラス
 10
-61.725
 20
-86.275
 70
     8
  0
VERTEX
  8
ガラス
 10
-61.675
 20
-86.2
 70
     8
  0
VERTEX
  8
ガラス
 10
-61.625
 20
-86.125
 70
     8
  0
VERTEX
  8
ガラス
 10
-61.575
 20
-86.05
 70
     8
  0
VERTEX
  8
ガラス
 10
-61.525
 20
-85.975
 70
     8
  0
VERTEX
  8
ガラス
 10
-61.475
 20
-85.9
 70
     8
  0
VERTEX
  8
ガラス
 10
-61.425
 20
-85.85
 70
     8
  0
VERTEX
  8
ガラス
 10
-61.375
 20
-85.775
 70
     8
  0
VERTEX
  8
ガラス
 10
-61.3
 20
-85.725
 70
     8
  0
VERTEX
  8
ガラス
 10
-61.25
 20
-85.675
 70
     8
  0
VERTEX
  8
ガラス
 10
-61.175
 20
-85.625
 70
     8
  0
VERTEX
  8
ガラス
 10
-61.125
 20
-85.575
 70
     8
  0
VERTEX
  8
ガラス
 10
-61.05
 20
-85.525
 70
     8
  0
VERTEX
  8
ガラス
 10
-60.975
 20
-85.475
 70
     8
  0
VERTEX
  8
ガラス
 10
-60.9
 20
-85.425
 70
     8
  0
VERTEX
  8
ガラス
 10
-60.825
 20
-85.4
 70
     8
  0
VERTEX
  8
ガラス
 10
-60.75
 20
-85.375
 70
     8
  0
VERTEX
  8
ガラス
 10
-60.675
 20
-85.325
 70
     8
  0
VERTEX
  8
ガラス
 10
-60.575
 20
-85.3
 70
     8
  0
VERTEX
  8
ガラス
 10
-60.5
 20
-85.275
 70
     8
  0
VERTEX
  8
ガラス
 10
-60.425
 20
-85.25
 70
     8
  0
VERTEX
  8
ガラス
 10
-60.325
 20
-85.225
 70
     8
  0
VERTEX
  8
ガラス
 10
-60.25
 20
-85.2
 70
     8
  0
VERTEX
  8
ガラス
 10
-60.15
 20
-85.175
 70
     8
  0
VERTEX
  8
ガラス
 10
-60.075
 20
-85.15
 70
     8
  0
VERTEX
  8
ガラス
 10
-59.975
 20
-85.125
 70
     8
  0
VERTEX
  8
ガラス
 10
-59.875
 20
-85.1
 70
     8
  0
VERTEX
  8
ガラス
 10
-59.8
 20
-85.1
 70
     8
  0
VERTEX
  8
ガラス
 10
-59.7
 20
-85.075
 70
     8
  0
VERTEX
  8
ガラス
 10
-59.625
 20
-85.05
 70
     8
  0
SEQEND
  0
POLYLINE
  8
ガラス
  6
CONTINUOUS
 66
     1
 70
     4
  0
VERTEX
  8
ガラス
 10
-59.625
 20
-85.05
 70
     8
  0
VERTEX
  8
ガラス
 10
-59.65
 20
-85.1
 70
     8
  0
VERTEX
  8
ガラス
 10
-59.675
 20
-85.175
 70
     8
  0
VERTEX
  8
ガラス
 10
-59.675
 20
-85.225
 70
     8
  0
VERTEX
  8
ガラス
 10
-59.7
 20
-85.275
 70
     8
  0
VERTEX
  8
ガラス
 10
-59.725
 20
-85.325
 70
     8
  0
VERTEX
  8
ガラス
 10
-59.75
 20
-85.4
 70
     8
  0
VERTEX
  8
ガラス
 10
-59.775
 20
-85.45
 70
     8
  0
VERTEX
  8
ガラス
 10
-59.8
 20
-85.5
 70
     8
  0
VERTEX
  8
ガラス
 10
-59.825
 20
-85.55
 70
     8
  0
VERTEX
  8
ガラス
 10
-59.85
 20
-85.625
 70
     8
  0
VERTEX
  8
ガラス
 10
-59.875
 20
-85.675
 70
     8
  0
VERTEX
  8
ガラス
 10
-59.9
 20
-85.725
 70
     8
  0
VERTEX
  8
ガラス
 10
-59.925
 20
-85.8
 70
     8
  0
VERTEX
  8
ガラス
 10
-59.925
 20
-85.85
 70
     8
  0
VERTEX
  8
ガラス
 10
-59.95
 20
-85.9
 70
     8
  0
VERTEX
  8
ガラス
 10
-59.975
 20
-85.975
 70
     8
  0
VERTEX
  8
ガラス
 10
-60.0
 20
-86.025
 70
     8
  0
VERTEX
  8
ガラス
 10
-60.0
 20
-86.075
 70
     8
  0
VERTEX
  8
ガラス
 10
-60.025
 20
-86.15
 70
     8
  0
VERTEX
  8
ガラス
 10
-60.05
 20
-86.2
 70
     8
  0
VERTEX
  8
ガラス
 10
-60.05
 20
-86.25
 70
     8
  0
VERTEX
  8
ガラス
 10
-60.075
 20
-86.325
 70
     8
  0
VERTEX
  8
ガラス
 10
-60.075
 20
-86.375
 70
     8
  0
VERTEX
  8
ガラス
 10
-60.1
 20
-86.425
 70
     8
  0
VERTEX
  8
ガラス
 10
-60.125
 20
-86.5
 70
     8
  0
VERTEX
  8
ガラス
 10
-60.125
 20
-86.55
 70
     8
  0
VERTEX
  8
ガラス
 10
-60.125
 20
-86.625
 70
     8
  0
VERTEX
  8
ガラス
 10
-60.15
 20
-86.675
 70
     8
  0
VERTEX
  8
ガラス
 10
-60.15
 20
-86.725
 70
     8
  0
VERTEX
  8
ガラス
 10
-60.175
 20
-86.8
 70
     8
  0
VERTEX
  8
ガラス
 10
-60.175
 20
-86.85
 70
     8
  0
VERTEX
  8
ガラス
 10
-60.175
 20
-86.925
 70
     8
  0
VERTEX
  8
ガラス
 10
-60.2
 20
-86.975
 70
     8
  0
VERTEX
  8
ガラス
 10
-60.2
 20
-87.05
 70
     8
  0
VERTEX
  8
ガラス
 10
-60.2
 20
-87.1
 70
     8
  0
VERTEX
  8
ガラス
 10
-60.225
 20
-87.175
 70
     8
  0
VERTEX
  8
ガラス
 10
-60.225
 20
-87.225
 70
     8
  0
VERTEX
  8
ガラス
 10
-60.225
 20
-87.275
 70
     8
  0
VERTEX
  8
ガラス
 10
-60.225
 20
-87.35
 70
     8
  0
VERTEX
  8
ガラス
 10
-60.25
 20
-87.4
 70
     8
  0
SEQEND
  0
ARC
  8
ガラス
  6
CONTINUOUS
 10
-61.179523
 20
-87.280699
 40
0.955135
 50
173.117443
 51
353.117443
  0
ENDBLK
  0
BLOCK
  2
*GRP_0036
 70
    65
 10
0.0
 20
0.0
  0
POLYLINE
  8
ガラス
  6
CONTINUOUS
 66
     1
 70
     4
  0
VERTEX
  8
ガラス
 10
-64.05
 20
-99.7
 70
     8
  0
VERTEX
  8
ガラス
 10
-64.025
 20
-99.6
 70
     8
  0
VERTEX
  8
ガラス
 10
-63.975
 20
-99.525
 70
     8
  0
VERTEX
  8
ガラス
 10
-63.95
 20
-99.45
 70
     8
  0
VERTEX
  8
ガラス
 10
-63.9
 20
-99.35
 70
     8
  0
VERTEX
  8
ガラス
 10
-63.875
 20
-99.275
 70
     8
  0
VERTEX
  8
ガラス
 10
-63.825
 20
-99.175
 70
     8
  0
VERTEX
  8
ガラス
 10
-63.8
 20
-99.1
 70
     8
  0
VERTEX
  8
ガラス
 10
-63.75
 20
-99.025
 70
     8
  0
VERTEX
  8
ガラス
 10
-63.725
 20
-98.95
 70
     8
  0
VERTEX
  8
ガラス
 10
-63.675
 20
-98.85
 70
     8
  0
VERTEX
  8
ガラス
 10
-63.625
 20
-98.775
 70
     8
  0
VERTEX
  8
ガラス
 10
-63.575
 20
-98.7
 70
     8
  0
VERTEX
  8
ガラス
 10
-63.55
 20
-98.625
 70
     8
  0
VERTEX
  8
ガラス
 10
-63.5
 20
-98.55
 70
     8
  0
VERTEX
  8
ガラス
 10
-63.45
 20
-98.5
 70
     8
  0
VERTEX
  8
ガラス
 10
-63.4
 20
-98.425
 70
     8
  0
VERTEX
  8
ガラス
 10
-63.325
 20
-98.35
 70
     8
  0
VERTEX
  8
ガラス
 10
-63.275
 20
-98.3
 70
     8
  0
VERTEX
  8
ガラス
 10
-63.225
 20
-98.25
 70
     8
  0
VERTEX
  8
ガラス
 10
-63.15
 20
-98.175
 70
     8
  0
VERTEX
  8
ガラス
 10
-63.1
 20
-98.125
 70
     8
  0
VERTEX
  8
ガラス
 10
-63.025
 20
-98.075
 70
     8
  0
VERTEX
  8
ガラス
 10
-62.95
 20
-98.025
 70
     8
  0
VERTEX
  8
ガラス
 10
-62.9
 20
-98.0
 70
     8
  0
VERTEX
  8
ガラス
 10
-62.825
 20
-97.95
 70
     8
  0
VERTEX
  8
ガラス
 10
-62.75
 20
-97.925
 70
     8
  0
VERTEX
  8
ガラス
 10
-62.65
 20
-97.875
 70
     8
  0
VERTEX
  8
ガラス
 10
-62.575
 20
-97.85
 70
     8
  0
VERTEX
  8
ガラス
 10
-62.5
 20
-97.825
 70
     8
  0
VERTEX
  8
ガラス
 10
-62.425
 20
-97.8
 70
     8
  0
VERTEX
  8
ガラス
 10
-62.325
 20
-97.75
 70
     8
  0
VERTEX
  8
ガラス
 10
-62.25
 20
-97.725
 70
     8
  0
VERTEX
  8
ガラス
 10
-62.15
 20
-97.7
 70
     8
  0
VERTEX
  8
ガラス
 10
-62.075
 20
-97.7
 70
     8
  0
VERTEX
  8
ガラス
 10
-61.975
 20
-97.675
 70
     8
  0
VERTEX
  8
ガラス
 10
-61.9
 20
-97.65
 70
     8
  0
VERTEX
  8
ガラス
 10
-61.8
 20
-97.625
 70
     8
  0
VERTEX
  8
ガラス
 10
-61.725
 20
-97.6
 70
     8
  0
VERTEX
  8
ガラス
 10
-61.625
 20
-97.575
 70
     8
  0
VERTEX
  8
ガラス
 10
-61.525
 20
-97.575
 70
     8
  0
SEQEND
  0
POLYLINE
  8
ガラス
  6
CONTINUOUS
 66
     1
 70
     4
  0
VERTEX
  8
ガラス
 10
-61.525
 20
-97.575
 70
     8
  0
VERTEX
  8
ガラス
 10
-61.55
 20
-97.625
 70
     8
  0
VERTEX
  8
ガラス
 10
-61.575
 20
-97.675
 70
     8
  0
VERTEX
  8
ガラス
 10
-61.6
 20
-97.725
 70
     8
  0
VERTEX
  8
ガラス
 10
-61.625
 20
-97.8
 70
     8
  0
VERTEX
  8
ガラス
 10
-61.65
 20
-97.85
 70
     8
  0
VERTEX
  8
ガラス
 10
-61.675
 20
-97.9
 70
     8
  0
VERTEX
  8
ガラス
 10
-61.7
 20
-97.975
 70
     8
  0
VERTEX
  8
ガラス
 10
-61.725
 20
-98.025
 70
     8
  0
VERTEX
  8
ガラス
 10
-61.75
 20
-98.075
 70
     8
  0
VERTEX
  8
ガラス
 10
-61.775
 20
-98.125
 70
     8
  0
VERTEX
  8
ガラス
 10
-61.775
 20
-98.2
 70
     8
  0
VERTEX
  8
ガラス
 10
-61.8
 20
-98.25
 70
     8
  0
VERTEX
  8
ガラス
 10
-61.825
 20
-98.3
 70
     8
  0
VERTEX
  8
ガラス
 10
-61.85
 20
-98.375
 70
     8
  0
VERTEX
  8
ガラス
 10
-61.875
 20
-98.425
 70
     8
  0
VERTEX
  8
ガラス
 10
-61.9
 20
-98.475
 70
     8
  0
VERTEX
  8
ガラス
 10
-61.9
 20
-98.55
 70
     8
  0
VERTEX
  8
ガラス
 10
-61.925
 20
-98.6
 70
     8
  0
VERTEX
  8
ガラス
 10
-61.95
 20
-98.65
 70
     8
  0
VERTEX
  8
ガラス
 10
-61.95
 20
-98.725
 70
     8
  0
VERTEX
  8
ガラス
 10
-61.975
 20
-98.775
 70
     8
  0
VERTEX
  8
ガラス
 10
-62.0
 20
-98.825
 70
     8
  0
VERTEX
  8
ガラス
 10
-62.0
 20
-98.9
 70
     8
  0
VERTEX
  8
ガラス
 10
-62.025
 20
-98.95
 70
     8
  0
VERTEX
  8
ガラス
 10
-62.025
 20
-99.025
 70
     8
  0
VERTEX
  8
ガラス
 10
-62.05
 20
-99.075
 70
     8
  0
VERTEX
  8
ガラス
 10
-62.05
 20
-99.125
 70
     8
  0
VERTEX
  8
ガラス
 10
-62.075
 20
-99.2
 70
     8
  0
VERTEX
  8
ガラス
 10
-62.075
 20
-99.25
 70
     8
  0
VERTEX
  8
ガラス
 10
-62.075
 20
-99.325
 70
     8
  0
VERTEX
  8
ガラス
 10
-62.1
 20
-99.375
 70
     8
  0
VERTEX
  8
ガラス
 10
-62.1
 20
-99.425
 70
     8
  0
VERTEX
  8
ガラス
 10
-62.1
 20
-99.5
 70
     8
  0
VERTEX
  8
ガラス
 10
-62.125
 20
-99.55
 70
     8
  0
VERTEX
  8
ガラス
 10
-62.125
 20
-99.625
 70
     8
  0
VERTEX
  8
ガラス
 10
-62.125
 20
-99.675
 70
     8
  0
VERTEX
  8
ガラス
 10
-62.15
 20
-99.75
 70
     8
  0
VERTEX
  8
ガラス
 10
-62.15
 20
-99.8
 70
     8
  0
VERTEX
  8
ガラス
 10
-62.15
 20
-99.875
 70
     8
  0
VERTEX
  8
ガラス
 10
-62.15
 20
-99.925
 70
     8
  0
SEQEND
  0
ARC
  8
ガラス
  6
CONTINUOUS
 10
-63.096039
 20
-99.79794
 40
0.955135
 50
173.117443
 51
353.117443
  0
ENDBLK
  0
BLOCK
  2
*GRP_0037
 70
    65
 10
0.0
 20
0.0
  0
POLYLINE
  8
ガラス
  6
CONTINUOUS
 66
     1
 70
     4
  0
VERTEX
  8
ガラス
 10
-34.1
 20
-64.9
 70
     8
  0
VERTEX
  8
ガラス
 10
-34.075
 20
-64.8
 70
     8
  0
VERTEX
  8
ガラス
 10
-34.025
 20
-64.725
 70
     8
  0
VERTEX
  8
ガラス
 10
-34.0
 20
-64.65
 70
     8
  0
VERTEX
  8
ガラス
 10
-33.975
 20
-64.55
 70
     8
  0
VERTEX
  8
ガラス
 10
-33.925
 20
-64.475
 70
     8
  0
VERTEX
  8
ガラス
 10
-33.9
 20
-64.375
 70
     8
  0
VERTEX
  8
ガラス
 10
-33.85
 20
-64.3
 70
     8
  0
VERTEX
  8
ガラス
 10
-33.8
 20
-64.225
 70
     8
  0
VERTEX
  8
ガラス
 10
-33.775
 20
-64.15
 70
     8
  0
VERTEX
  8
ガラス
 10
-33.725
 20
-64.05
 70
     8
  0
VERTEX
  8
ガラス
 10
-33.675
 20
-63.975
 70
     8
  0
VERTEX
  8
ガラス
 10
-33.65
 20
-63.9
 70
     8
  0
VERTEX
  8
ガラス
 10
-33.6
 20
-63.825
 70
     8
  0
VERTEX
  8
ガラス
 10
-33.55
 20
-63.75
 70
     8
  0
VERTEX
  8
ガラス
 10
-33.5
 20
-63.7
 70
     8
  0
VERTEX
  8
ガラス
 10
-33.45
 20
-63.625
 70
     8
  0
VERTEX
  8
ガラス
 10
-33.4
 20
-63.55
 70
     8
  0
VERTEX
  8
ガラス
 10
-33.325
 20
-63.5
 70
     8
  0
VERTEX
  8
ガラス
 10
-33.275
 20
-63.45
 70
     8
  0
VERTEX
  8
ガラス
 10
-33.225
 20
-63.375
 70
     8
  0
VERTEX
  8
ガラス
 10
-33.15
 20
-63.325
 70
     8
  0
VERTEX
  8
ガラス
 10
-33.075
 20
-63.275
 70
     8
  0
VERTEX
  8
ガラス
 10
-33.025
 20
-63.225
 70
     8
  0
VERTEX
  8
ガラス
 10
-32.95
 20
-63.2
 70
     8
  0
VERTEX
  8
ガラス
 10
-32.875
 20
-63.15
 70
     8
  0
VERTEX
  8
ガラス
 10
-32.8
 20
-63.125
 70
     8
  0
VERTEX
  8
ガラス
 10
-32.725
 20
-63.075
 70
     8
  0
VERTEX
  8
ガラス
 10
-32.625
 20
-63.05
 70
     8
  0
VERTEX
  8
ガラス
 10
-32.55
 20
-63.025
 70
     8
  0
VERTEX
  8
ガラス
 10
-32.475
 20
-63.0
 70
     8
  0
VERTEX
  8
ガラス
 10
-32.375
 20
-62.95
 70
     8
  0
VERTEX
  8
ガラス
 10
-32.3
 20
-62.925
 70
     8
  0
VERTEX
  8
ガラス
 10
-32.2
 20
-62.9
 70
     8
  0
VERTEX
  8
ガラス
 10
-32.125
 20
-62.9
 70
     8
  0
VERTEX
  8
ガラス
 10
-32.025
 20
-62.875
 70
     8
  0
VERTEX
  8
ガラス
 10
-31.95
 20
-62.85
 70
     8
  0
VERTEX
  8
ガラス
 10
-31.85
 20
-62.825
 70
     8
  0
VERTEX
  8
ガラス
 10
-31.775
 20
-62.8
 70
     8
  0
VERTEX
  8
ガラス
 10
-31.675
 20
-62.775
 70
     8
  0
VERTEX
  8
ガラス
 10
-31.575
 20
-62.775
 70
     8
  0
SEQEND
  0
POLYLINE
  8
ガラス
  6
CONTINUOUS
 66
     1
 70
     4
  0
VERTEX
  8
ガラス
 10
-31.575
 20
-62.775
 70
     8
  0
VERTEX
  8
ガラス
 10
-31.6
 20
-62.825
 70
     8
  0
VERTEX
  8
ガラス
 10
-31.625
 20
-62.875
 70
     8
  0
VERTEX
  8
ガラス
 10
-31.65
 20
-62.95
 70
     8
  0
VERTEX
  8
ガラス
 10
-31.675
 20
-63.0
 70
     8
  0
VERTEX
  8
ガラス
 10
-31.7
 20
-63.05
 70
     8
  0
VERTEX
  8
ガラス
 10
-31.725
 20
-63.1
 70
     8
  0
VERTEX
  8
ガラス
 10
-31.75
 20
-63.175
 70
     8
  0
VERTEX
  8
ガラス
 10
-31.775
 20
-63.225
 70
     8
  0
VERTEX
  8
ガラス
 10
-31.8
 20
-63.275
 70
     8
  0
VERTEX
  8
ガラス
 10
-31.825
 20
-63.325
 70
     8
  0
VERTEX
  8
ガラス
 10
-31.85
 20
-63.4
 70
     8
  0
VERTEX
  8
ガラス
 10
-31.85
 20
-63.45
 70
     8
  0
VERTEX
  8
ガラス
 10
-31.875
 20
-63.5
 70
     8
  0
VERTEX
  8
ガラス
 10
-31.9
 20
-63.575
 70
     8
  0
VERTEX
  8
ガラス
 10
-31.925
 20
-63.625
 70
     8
  0
VERTEX
  8
ガラス
 10
-31.95
 20
-63.675
 70
     8
  0
VERTEX
  8
ガラス
 10
-31.95
 20
-63.75
 70
     8
  0
VERTEX
  8
ガラス
 10
-31.975
 20
-63.8
 70
     8
  0
VERTEX
  8
ガラス
 10
-32.0
 20
-63.85
 70
     8
  0
VERTEX
  8
ガラス
 10
-32.0
 20
-63.925
 70
     8
  0
VERTEX
  8
ガラス
 10
-32.025
 20
-63.975
 70
     8
  0
VERTEX
  8
ガラス
 10
-32.05
 20
-64.025
 70
     8
  0
VERTEX
  8
ガラス
 10
-32.05
 20
-64.1
 70
     8
  0
VERTEX
  8
ガラス
 10
-32.075
 20
-64.15
 70
     8
  0
VERTEX
  8
ガラス
 10
-32.075
 20
-64.225
 70
     8
  0
VERTEX
  8
ガラス
 10
-32.1
 20
-64.275
 70
     8
  0
VERTEX
  8
ガラス
 10
-32.1
 20
-64.325
 70
     8
  0
VERTEX
  8
ガラス
 10
-32.125
 20
-64.4
 70
     8
  0
VERTEX
  8
ガラス
 10
-32.125
 20
-64.45
 70
     8
  0
VERTEX
  8
ガラス
 10
-32.125
 20
-64.525
 70
     8
  0
VERTEX
  8
ガラス
 10
-32.15
 20
-64.575
 70
     8
  0
VERTEX
  8
ガラス
 10
-32.15
 20
-64.625
 70
     8
  0
VERTEX
  8
ガラス
 10
-32.15
 20
-64.7
 70
     8
  0
VERTEX
  8
ガラス
 10
-32.175
 20
-64.75
 70
     8
  0
VERTEX
  8
ガラス
 10
-32.175
 20
-64.825
 70
     8
  0
VERTEX
  8
ガラス
 10
-32.175
 20
-64.875
 70
     8
  0
VERTEX
  8
ガラス
 10
-32.2
 20
-64.95
 70
     8
  0
VERTEX
  8
ガラス
 10
-32.2
 20
-65.0
 70
     8
  0
VERTEX
  8
ガラス
 10
-32.2
 20
-65.075
 70
     8
  0
VERTEX
  8
ガラス
 10
-32.2
 20
-65.125
 70
     8
  0
SEQEND
  0
ARC
  8
ガラス
  6
CONTINUOUS
 10
-33.148174
 20
-64.998573
 40
0.955135
 50
173.117443
 51
353.117443
  0
ENDBLK
  0
BLOCK
  2
*GRP_0038
 70
    65
 10
0.0
 20
0.0
  0
POLYLINE
  8
ガラス
  6
CONTINUOUS
 66
     1
 70
     4
  0
VERTEX
  8
ガラス
 10
-38.325
 20
-83.65
 70
     8
  0
VERTEX
  8
ガラス
 10
-38.225
 20
-83.625
 70
     8
  0
VERTEX
  8
ガラス
 10
-38.15
 20
-83.625
 70
     8
  0
VERTEX
  8
ガラス
 10
-38.05
 20
-83.6
 70
     8
  0
VERTEX
  8
ガラス
 10
-37.95
 20
-83.6
 70
     8
  0
VERTEX
  8
ガラス
 10
-37.85
 20
-83.6
 70
     8
  0
VERTEX
  8
ガラス
 10
-37.775
 20
-83.575
 70
     8
  0
VERTEX
  8
ガラス
 10
-37.675
 20
-83.575
 70
     8
  0
VERTEX
  8
ガラス
 10
-37.575
 20
-83.575
 70
     8
  0
VERTEX
  8
ガラス
 10
-37.5
 20
-83.575
 70
     8
  0
VERTEX
  8
ガラス
 10
-37.4
 20
-83.575
 70
     8
  0
VERTEX
  8
ガラス
 10
-37.325
 20
-83.575
 70
     8
  0
VERTEX
  8
ガラス
 10
-37.225
 20
-83.575
 70
     8
  0
VERTEX
  8
ガラス
 10
-37.15
 20
-83.575
 70
     8
  0
VERTEX
  8
ガラス
 10
-37.05
 20
-83.575
 70
     8
  0
VERTEX
  8
ガラス
 10
-36.975
 20
-83.6
 70
     8
  0
VERTEX
  8
ガラス
 10
-36.9
 20
-83.6
 70
     8
  0
VERTEX
  8
ガラス
 10
-36.8
 20
-83.625
 70
     8
  0
VERTEX
  8
ガラス
 10
-36.725
 20
-83.65
 70
     8
  0
VERTEX
  8
ガラス
 10
-36.65
 20
-83.675
 70
     8
  0
VERTEX
  8
ガラス
 10
-36.575
 20
-83.7
 70
     8
  0
VERTEX
  8
ガラス
 10
-36.5
 20
-83.725
 70
     8
  0
VERTEX
  8
ガラス
 10
-36.425
 20
-83.75
 70
     8
  0
VERTEX
  8
ガラス
 10
-36.35
 20
-83.8
 70
     8
  0
VERTEX
  8
ガラス
 10
-36.275
 20
-83.825
 70
     8
  0
VERTEX
  8
ガラス
 10
-36.2
 20
-83.875
 70
     8
  0
VERTEX
  8
ガラス
 10
-36.125
 20
-83.925
 70
     8
  0
VERTEX
  8
ガラス
 10
-36.05
 20
-83.975
 70
     8
  0
VERTEX
  8
ガラス
 10
-36.0
 20
-84.025
 70
     8
  0
VERTEX
  8
ガラス
 10
-35.925
 20
-84.075
 70
     8
  0
VERTEX
  8
ガラス
 10
-35.85
 20
-84.15
 70
     8
  0
VERTEX
  8
ガラス
 10
-35.8
 20
-84.2
 70
     8
  0
VERTEX
  8
ガラス
 10
-35.725
 20
-84.275
 70
     8
  0
VERTEX
  8
ガラス
 10
-35.675
 20
-84.325
 70
     8
  0
VERTEX
  8
ガラス
 10
-35.6
 20
-84.4
 70
     8
  0
VERTEX
  8
ガラス
 10
-35.55
 20
-84.475
 70
     8
  0
VERTEX
  8
ガラス
 10
-35.475
 20
-84.525
 70
     8
  0
VERTEX
  8
ガラス
 10
-35.425
 20
-84.6
 70
     8
  0
VERTEX
  8
ガラス
 10
-35.35
 20
-84.675
 70
     8
  0
VERTEX
  8
ガラス
 10
-35.3
 20
-84.75
 70
     8
  0
VERTEX
  8
ガラス
 10
-35.225
 20
-84.8
 70
     8
  0
SEQEND
  0
POLYLINE
  8
ガラス
  6
CONTINUOUS
 66
     1
 70
     4
  0
VERTEX
  8
ガラス
 10
-35.225
 20
-84.8
 70
     8
  0
VERTEX
  8
ガラス
 10
-35.3
 20
-84.825
 70
     8
  0
VERTEX
  8
ガラス
 10
-35.35
 20
-84.825
 70
     8
  0
VERTEX
  8
ガラス
 10
-35.425
 20
-84.825
 70
     8
  0
VERTEX
  8
ガラス
 10
-35.475
 20
-84.85
 70
     8
  0
VERTEX
  8
ガラス
 10
-35.55
 20
-84.85
 70
     8
  0
VERTEX
  8
ガラス
 10
-35.6
 20
-84.85
 70
     8
  0
VERTEX
  8
ガラス
 10
-35.65
 20
-84.85
 70
     8
  0
VERTEX
  8
ガラス
 10
-35.725
 20
-84.875
 70
     8
  0
VERTEX
  8
ガラス
 10
-35.775
 20
-84.875
 70
     8
  0
VERTEX
  8
ガラス
 10
-35.85
 20
-84.875
 70
     8
  0
VERTEX
  8
ガラス
 10
-35.9
 20
-84.9
 70
     8
  0
VERTEX
  8
ガラス
 10
-35.975
 20
-84.9
 70
     8
  0
VERTEX
  8
ガラス
 10
-36.025
 20
-84.925
 70
     8
  0
VERTEX
  8
ガラス
 10
-36.1
 20
-84.925
 70
     8
  0
VERTEX
  8
ガラス
 10
-36.15
 20
-84.925
 70
     8
  0
VERTEX
  8
ガラス
 10
-36.2
 20
-84.95
 70
     8
  0
VERTEX
  8
ガラス
 10
-36.275
 20
-84.95
 70
     8
  0
VERTEX
  8
ガラス
 10
-36.325
 20
-84.975
 70
     8
  0
VERTEX
  8
ガラス
 10
-36.375
 20
-84.975
 70
     8
  0
VERTEX
  8
ガラス
 10
-36.45
 20
-85.0
 70
     8
  0
VERTEX
  8
ガラス
 10
-36.5
 20
-85.025
 70
     8
  0
VERTEX
  8
ガラス
 10
-36.575
 20
-85.025
 70
     8
  0
VERTEX
  8
ガラス
 10
-36.625
 20
-85.05
 70
     8
  0
VERTEX
  8
ガラス
 10
-36.675
 20
-85.075
 70
     8
  0
VERTEX
  8
ガラス
 10
-36.75
 20
-85.075
 70
     8
  0
VERTEX
  8
ガラス
 10
-36.8
 20
-85.1
 70
     8
  0
VERTEX
  8
ガラス
 10
-36.85
 20
-85.125
 70
     8
  0
VERTEX
  8
ガラス
 10
-36.925
 20
-85.15
 70
     8
  0
VERTEX
  8
ガラス
 10
-36.975
 20
-85.15
 70
     8
  0
VERTEX
  8
ガラス
 10
-37.025
 20
-85.175
 70
     8
  0
VERTEX
  8
ガラス
 10
-37.075
 20
-85.2
 70
     8
  0
VERTEX
  8
ガラス
 10
-37.15
 20
-85.225
 70
     8
  0
VERTEX
  8
ガラス
 10
-37.2
 20
-85.25
 70
     8
  0
VERTEX
  8
ガラス
 10
-37.25
 20
-85.275
 70
     8
  0
VERTEX
  8
ガラス
 10
-37.325
 20
-85.3
 70
     8
  0
VERTEX
  8
ガラス
 10
-37.375
 20
-85.325
 70
     8
  0
VERTEX
  8
ガラス
 10
-37.425
 20
-85.35
 70
     8
  0
VERTEX
  8
ガラス
 10
-37.475
 20
-85.375
 70
     8
  0
VERTEX
  8
ガラス
 10
-37.55
 20
-85.375
 70
     8
  0
VERTEX
  8
ガラス
 10
-37.6
 20
-85.4
 70
     8
  0
SEQEND
  0
ARC
  8
ガラス
  6
CONTINUOUS
 10
-37.949223
 20
-84.514335
 40
0.955135
 50
112.264588
 51
292.264588
  0
ENDBLK
  0
BLOCK
  2
*GRP_0039
 70
    65
 10
0.0
 20
0.0
  0
POLYLINE
  8
ガラス
  6
CONTINUOUS
 66
     1
 70
     4
  0
VERTEX
  8
ガラス
 10
-50.75
 20
-83.65
 70
     8
  0
VERTEX
  8
ガラス
 10
-50.65
 20
-83.625
 70
     8
  0
VERTEX
  8
ガラス
 10
-50.55
 20
-83.625
 70
     8
  0
VERTEX
  8
ガラス
 10
-50.475
 20
-83.6
 70
     8
  0
VERTEX
  8
ガラス
 10
-50.375
 20
-83.6
 70
     8
  0
VERTEX
  8
ガラス
 10
-50.275
 20
-83.6
 70
     8
  0
VERTEX
  8
ガラス
 10
-50.2
 20
-83.575
 70
     8
  0
VERTEX
  8
ガラス
 10
-50.1
 20
-83.575
 70
     8
  0
VERTEX
  8
ガラス
 10
-50.0
 20
-83.575
 70
     8
  0
VERTEX
  8
ガラス
 10
-49.925
 20
-83.575
 70
     8
  0
VERTEX
  8
ガラス
 10
-49.825
 20
-83.575
 70
     8
  0
VERTEX
  8
ガラス
 10
-49.75
 20
-83.575
 70
     8
  0
VERTEX
  8
ガラス
 10
-49.65
 20
-83.575
 70
     8
  0
VERTEX
  8
ガラス
 10
-49.575
 20
-83.575
 70
     8
  0
VERTEX
  8
ガラス
 10
-49.475
 20
-83.575
 70
     8
  0
VERTEX
  8
ガラス
 10
-49.4
 20
-83.6
 70
     8
  0
VERTEX
  8
ガラス
 10
-49.3
 20
-83.6
 70
     8
  0
VERTEX
  8
ガラス
 10
-49.225
 20
-83.625
 70
     8
  0
VERTEX
  8
ガラス
 10
-49.15
 20
-83.65
 70
     8
  0
VERTEX
  8
ガラス
 10
-49.075
 20
-83.675
 70
     8
  0
VERTEX
  8
ガラス
 10
-48.975
 20
-83.7
 70
     8
  0
VERTEX
  8
ガラス
 10
-48.9
 20
-83.725
 70
     8
  0
VERTEX
  8
ガラス
 10
-48.825
 20
-83.75
 70
     8
  0
VERTEX
  8
ガラス
 10
-48.75
 20
-83.8
 70
     8
  0
VERTEX
  8
ガラス
 10
-48.7
 20
-83.825
 70
     8
  0
VERTEX
  8
ガラス
 10
-48.625
 20
-83.875
 70
     8
  0
VERTEX
  8
ガラス
 10
-48.55
 20
-83.925
 70
     8
  0
VERTEX
  8
ガラス
 10
-48.475
 20
-83.975
 70
     8
  0
VERTEX
  8
ガラス
 10
-48.4
 20
-84.025
 70
     8
  0
VERTEX
  8
ガラス
 10
-48.35
 20
-84.075
 70
     8
  0
VERTEX
  8
ガラス
 10
-48.275
 20
-84.15
 70
     8
  0
VERTEX
  8
ガラス
 10
-48.225
 20
-84.2
 70
     8
  0
VERTEX
  8
ガラス
 10
-48.15
 20
-84.275
 70
     8
  0
VERTEX
  8
ガラス
 10
-48.075
 20
-84.325
 70
     8
  0
VERTEX
  8
ガラス
 10
-48.025
 20
-84.4
 70
     8
  0
VERTEX
  8
ガラス
 10
-47.95
 20
-84.475
 70
     8
  0
VERTEX
  8
ガラス
 10
-47.9
 20
-84.525
 70
     8
  0
VERTEX
  8
ガラス
 10
-47.85
 20
-84.6
 70
     8
  0
VERTEX
  8
ガラス
 10
-47.775
 20
-84.675
 70
     8
  0
VERTEX
  8
ガラス
 10
-47.725
 20
-84.75
 70
     8
  0
VERTEX
  8
ガラス
 10
-47.65
 20
-84.8
 70
     8
  0
SEQEND
  0
POLYLINE
  8
ガラス
  6
CONTINUOUS
 66
     1
 70
     4
  0
VERTEX
  8
ガラス
 10
-47.65
 20
-84.8
 70
     8
  0
VERTEX
  8
ガラス
 10
-47.725
 20
-84.825
 70
     8
  0
VERTEX
  8
ガラス
 10
-47.775
 20
-84.825
 70
     8
  0
VERTEX
  8
ガラス
 10
-47.85
 20
-84.825
 70
     8
  0
VERTEX
  8
ガラス
 10
-47.9
 20
-84.85
 70
     8
  0
VERTEX
  8
ガラス
 10
-47.95
 20
-84.85
 70
     8
  0
VERTEX
  8
ガラス
 10
-48.025
 20
-84.85
 70
     8
  0
VERTEX
  8
ガラス
 10
-48.075
 20
-84.85
 70
     8
  0
VERTEX
  8
ガラス
 10
-48.15
 20
-84.875
 70
     8
  0
VERTEX
  8
ガラス
 10
-48.2
 20
-84.875
 70
     8
  0
VERTEX
  8
ガラス
 10
-48.275
 20
-84.875
 70
     8
  0
VERTEX
  8
ガラス
 10
-48.325
 20
-84.9
 70
     8
  0
VERTEX
  8
ガラス
 10
-48.375
 20
-84.9
 70
     8
  0
VERTEX
  8
ガラス
 10
-48.45
 20
-84.925
 70
     8
  0
VERTEX
  8
ガラス
 10
-48.5
 20
-84.925
 70
     8
  0
VERTEX
  8
ガラス
 10
-48.575
 20
-84.925
 70
     8
  0
VERTEX
  8
ガラス
 10
-48.625
 20
-84.95
 70
     8
  0
VERTEX
  8
ガラス
 10
-48.7
 20
-84.95
 70
     8
  0
VERTEX
  8
ガラス
 10
-48.75
 20
-84.975
 70
     8
  0
VERTEX
  8
ガラス
 10
-48.8
 20
-84.975
 70
     8
  0
VERTEX
  8
ガラス
 10
-48.875
 20
-85.0
 70
     8
  0
VERTEX
  8
ガラス
 10
-48.925
 20
-85.025
 70
     8
  0
VERTEX
  8
ガラス
 10
-48.975
 20
-85.025
 70
     8
  0
VERTEX
  8
ガラス
 10
-49.05
 20
-85.05
 70
     8
  0
VERTEX
  8
ガラス
 10
-49.1
 20
-85.075
 70
     8
  0
VERTEX
  8
ガラス
 10
-49.15
 20
-85.075
 70
     8
  0
VERTEX
  8
ガラス
 10
-49.225
 20
-85.1
 70
     8
  0
VERTEX
  8
ガラス
 10
-49.275
 20
-85.125
 70
     8
  0
VERTEX
  8
ガラス
 10
-49.325
 20
-85.15
 70
     8
  0
VERTEX
  8
ガラス
 10
-49.4
 20
-85.15
 70
     8
  0
VERTEX
  8
ガラス
 10
-49.45
 20
-85.175
 70
     8
  0
VERTEX
  8
ガラス
 10
-49.5
 20
-85.2
 70
     8
  0
VERTEX
  8
ガラス
 10
-49.575
 20
-85.225
 70
     8
  0
VERTEX
  8
ガラス
 10
-49.625
 20
-85.25
 70
     8
  0
VERTEX
  8
ガラス
 10
-49.675
 20
-85.275
 70
     8
  0
VERTEX
  8
ガラス
 10
-49.725
 20
-85.3
 70
     8
  0
VERTEX
  8
ガラス
 10
-49.8
 20
-85.325
 70
     8
  0
VERTEX
  8
ガラス
 10
-49.85
 20
-85.35
 70
     8
  0
VERTEX
  8
ガラス
 10
-49.9
 20
-85.375
 70
     8
  0
VERTEX
  8
ガラス
 10
-49.975
 20
-85.375
 70
     8
  0
VERTEX
  8
ガラス
 10
-50.025
 20
-85.4
 70
     8
  0
SEQEND
  0
ARC
  8
ガラス
  6
CONTINUOUS
 10
-50.369223
 20
-84.514335
 40
0.955135
 50
112.264588
 51
292.264588
  0
ENDBLK
  0
BLOCK
  2
*GRP_0040
 70
    65
 10
0.0
 20
0.0
  0
POLYLINE
  8
ガラス
  6
CONTINUOUS
 66
     1
 70
     4
  0
VERTEX
  8
ガラス
 10
-34.1
 20
-77.2
 70
     8
  0
VERTEX
  8
ガラス
 10
-34.075
 20
-77.125
 70
     8
  0
VERTEX
  8
ガラス
 10
-34.025
 20
-77.025
 70
     8
  0
VERTEX
  8
ガラス
 10
-34.0
 20
-76.95
 70
     8
  0
VERTEX
  8
ガラス
 10
-33.975
 20
-76.875
 70
     8
  0
VERTEX
  8
ガラス
 10
-33.925
 20
-76.775
 70
     8
  0
VERTEX
  8
ガラス
 10
-33.9
 20
-76.7
 70
     8
  0
VERTEX
  8
ガラス
 10
-33.85
 20
-76.625
 70
     8
  0
VERTEX
  8
ガラス
 10
-33.8
 20
-76.525
 70
     8
  0
VERTEX
  8
ガラス
 10
-33.775
 20
-76.45
 70
     8
  0
VERTEX
  8
ガラス
 10
-33.725
 20
-76.375
 70
     8
  0
VERTEX
  8
ガラス
 10
-33.675
 20
-76.3
 70
     8
  0
VERTEX
  8
ガラス
 10
-33.65
 20
-76.225
 70
     8
  0
VERTEX
  8
ガラス
 10
-33.6
 20
-76.15
 70
     8
  0
VERTEX
  8
ガラス
 10
-33.55
 20
-76.075
 70
     8
  0
VERTEX
  8
ガラス
 10
-33.5
 20
-76.0
 70
     8
  0
VERTEX
  8
ガラス
 10
-33.45
 20
-75.925
 70
     8
  0
VERTEX
  8
ガラス
 10
-33.4
 20
-75.875
 70
     8
  0
VERTEX
  8
ガラス
 10
-33.325
 20
-75.8
 70
     8
  0
VERTEX
  8
ガラス
 10
-33.275
 20
-75.75
 70
     8
  0
VERTEX
  8
ガラス
 10
-33.225
 20
-75.7
 70
     8
  0
VERTEX
  8
ガラス
 10
-33.15
 20
-75.65
 70
     8
  0
VERTEX
  8
ガラス
 10
-33.075
 20
-75.6
 70
     8
  0
VERTEX
  8
ガラス
 10
-33.025
 20
-75.55
 70
     8
  0
VERTEX
  8
ガラス
 10
-32.95
 20
-75.5
 70
     8
  0
VERTEX
  8
ガラス
 10
-32.875
 20
-75.475
 70
     8
  0
VERTEX
  8
ガラス
 10
-32.8
 20
-75.425
 70
     8
  0
VERTEX
  8
ガラス
 10
-32.725
 20
-75.4
 70
     8
  0
VERTEX
  8
ガラス
 10
-32.625
 20
-75.35
 70
     8
  0
VERTEX
  8
ガラス
 10
-32.55
 20
-75.325
 70
     8
  0
VERTEX
  8
ガラス
 10
-32.475
 20
-75.3
 70
     8
  0
VERTEX
  8
ガラス
 10
-32.375
 20
-75.275
 70
     8
  0
VERTEX
  8
ガラス
 10
-32.3
 20
-75.25
 70
     8
  0
VERTEX
  8
ガラス
 10
-32.2
 20
-75.225
 70
     8
  0
VERTEX
  8
ガラス
 10
-32.125
 20
-75.2
 70
     8
  0
VERTEX
  8
ガラス
 10
-32.025
 20
-75.175
 70
     8
  0
VERTEX
  8
ガラス
 10
-31.95
 20
-75.15
 70
     8
  0
VERTEX
  8
ガラス
 10
-31.85
 20
-75.15
 70
     8
  0
VERTEX
  8
ガラス
 10
-31.775
 20
-75.125
 70
     8
  0
VERTEX
  8
ガラス
 10
-31.675
 20
-75.1
 70
     8
  0
VERTEX
  8
ガラス
 10
-31.575
 20
-75.075
 70
     8
  0
SEQEND
  0
POLYLINE
  8
ガラス
  6
CONTINUOUS
 66
     1
 70
     4
  0
VERTEX
  8
ガラス
 10
-31.575
 20
-75.075
 70
     8
  0
VERTEX
  8
ガラス
 10
-31.6
 20
-75.125
 70
     8
  0
VERTEX
  8
ガラス
 10
-31.625
 20
-75.2
 70
     8
  0
VERTEX
  8
ガラス
 10
-31.65
 20
-75.25
 70
     8
  0
VERTEX
  8
ガラス
 10
-31.675
 20
-75.3
 70
     8
  0
VERTEX
  8
ガラス
 10
-31.7
 20
-75.375
 70
     8
  0
VERTEX
  8
ガラス
 10
-31.725
 20
-75.425
 70
     8
  0
VERTEX
  8
ガラス
 10
-31.75
 20
-75.475
 70
     8
  0
VERTEX
  8
ガラス
 10
-31.775
 20
-75.525
 70
     8
  0
VERTEX
  8
ガラス
 10
-31.8
 20
-75.6
 70
     8
  0
VERTEX
  8
ガラス
 10
-31.825
 20
-75.65
 70
     8
  0
VERTEX
  8
ガラス
 10
-31.85
 20
-75.7
 70
     8
  0
VERTEX
  8
ガラス
 10
-31.85
 20
-75.775
 70
     8
  0
VERTEX
  8
ガラス
 10
-31.875
 20
-75.825
 70
     8
  0
VERTEX
  8
ガラス
 10
-31.9
 20
-75.875
 70
     8
  0
VERTEX
  8
ガラス
 10
-31.925
 20
-75.925
 70
     8
  0
VERTEX
  8
ガラス
 10
-31.95
 20
-76.0
 70
     8
  0
VERTEX
  8
ガラス
 10
-31.95
 20
-76.05
 70
     8
  0
VERTEX
  8
ガラス
 10
-31.975
 20
-76.1
 70
     8
  0
VERTEX
  8
ガラス
 10
-32.0
 20
-76.175
 70
     8
  0
VERTEX
  8
ガラス
 10
-32.0
 20
-76.225
 70
     8
  0
VERTEX
  8
ガラス
 10
-32.025
 20
-76.3
 70
     8
  0
VERTEX
  8
ガラス
 10
-32.05
 20
-76.35
 70
     8
  0
VERTEX
  8
ガラス
 10
-32.05
 20
-76.4
 70
     8
  0
VERTEX
  8
ガラス
 10
-32.075
 20
-76.475
 70
     8
  0
VERTEX
  8
ガラス
 10
-32.075
 20
-76.525
 70
     8
  0
VERTEX
  8
ガラス
 10
-32.1
 20
-76.575
 70
     8
  0
VERTEX
  8
ガラス
 10
-32.1
 20
-76.65
 70
     8
  0
VERTEX
  8
ガラス
 10
-32.125
 20
-76.7
 70
     8
  0
VERTEX
  8
ガラス
 10
-32.125
 20
-76.775
 70
     8
  0
VERTEX
  8
ガラス
 10
-32.125
 20
-76.825
 70
     8
  0
VERTEX
  8
ガラス
 10
-32.15
 20
-76.9
 70
     8
  0
VERTEX
  8
ガラス
 10
-32.15
 20
-76.95
 70
     8
  0
VERTEX
  8
ガラス
 10
-32.15
 20
-77.0
 70
     8
  0
VERTEX
  8
ガラス
 10
-32.175
 20
-77.075
 70
     8
  0
VERTEX
  8
ガラス
 10
-32.175
 20
-77.125
 70
     8
  0
VERTEX
  8
ガラス
 10
-32.175
 20
-77.2
 70
     8
  0
VERTEX
  8
ガラス
 10
-32.2
 20
-77.25
 70
     8
  0
VERTEX
  8
ガラス
 10
-32.2
 20
-77.325
 70
     8
  0
VERTEX
  8
ガラス
 10
-32.2
 20
-77.375
 70
     8
  0
VERTEX
  8
ガラス
 10
-32.2
 20
-77.45
 70
     8
  0
SEQEND
  0
ARC
  8
ガラス
  6
CONTINUOUS
 10
-33.148174
 20
-77.310573
 40
0.955135
 50
173.117443
 51
353.117443
  0
ENDBLK
  0
BLOCK
  2
*GRP_0041
 70
    65
 10
0.0
 20
0.0
  0
POLYLINE
  8
ガラス
  6
CONTINUOUS
 66
     1
 70
     4
  0
VERTEX
  8
ガラス
 10
-23.7
 20
-43.5
 70
     8
  0
VERTEX
  8
ガラス
 10
-23.65
 20
-43.4
 70
     8
  0
VERTEX
  8
ガラス
 10
-23.625
 20
-43.325
 70
     8
  0
VERTEX
  8
ガラス
 10
-23.575
 20
-43.225
 70
     8
  0
VERTEX
  8
ガラス
 10
-23.55
 20
-43.15
 70
     8
  0
VERTEX
  8
ガラス
 10
-23.5
 20
-43.05
 70
     8
  0
VERTEX
  8
ガラス
 10
-23.475
 20
-42.975
 70
     8
  0
VERTEX
  8
ガラス
 10
-23.425
 20
-42.9
 70
     8
  0
VERTEX
  8
ガラス
 10
-23.4
 20
-42.8
 70
     8
  0
VERTEX
  8
ガラス
 10
-23.35
 20
-42.725
 70
     8
  0
VERTEX
  8
ガラス
 10
-23.3
 20
-42.65
 70
     8
  0
VERTEX
  8
ガラス
 10
-23.275
 20
-42.575
 70
     8
  0
VERTEX
  8
ガラス
 10
-23.225
 20
-42.5
 70
     8
  0
VERTEX
  8
ガラス
 10
-23.175
 20
-42.425
 70
     8
  0
VERTEX
  8
ガラス
 10
-23.125
 20
-42.35
 70
     8
  0
VERTEX
  8
ガラス
 10
-23.075
 20
-42.275
 70
     8
  0
VERTEX
  8
ガラス
 10
-23.025
 20
-42.225
 70
     8
  0
VERTEX
  8
ガラス
 10
-22.975
 20
-42.15
 70
     8
  0
VERTEX
  8
ガラス
 10
-22.925
 20
-42.1
 70
     8
  0
VERTEX
  8
ガラス
 10
-22.85
 20
-42.025
 70
     8
  0
VERTEX
  8
ガラス
 10
-22.8
 20
-41.975
 70
     8
  0
VERTEX
  8
ガラス
 10
-22.725
 20
-41.925
 70
     8
  0
VERTEX
  8
ガラス
 10
-22.675
 20
-41.875
 70
     8
  0
VERTEX
  8
ガラス
 10
-22.6
 20
-41.825
 70
     8
  0
VERTEX
  8
ガラス
 10
-22.525
 20
-41.775
 70
     8
  0
VERTEX
  8
ガラス
 10
-22.45
 20
-41.75
 70
     8
  0
VERTEX
  8
ガラス
 10
-22.375
 20
-41.7
 70
     8
  0
VERTEX
  8
ガラス
 10
-22.3
 20
-41.675
 70
     8
  0
VERTEX
  8
ガラス
 10
-22.225
 20
-41.65
 70
     8
  0
VERTEX
  8
ガラス
 10
-22.125
 20
-41.6
 70
     8
  0
VERTEX
  8
ガラス
 10
-22.05
 20
-41.575
 70
     8
  0
VERTEX
  8
ガラス
 10
-21.975
 20
-41.55
 70
     8
  0
VERTEX
  8
ガラス
 10
-21.875
 20
-41.525
 70
     8
  0
VERTEX
  8
ガラス
 10
-21.8
 20
-41.5
 70
     8
  0
VERTEX
  8
ガラス
 10
-21.7
 20
-41.475
 70
     8
  0
VERTEX
  8
ガラス
 10
-21.625
 20
-41.45
 70
     8
  0
VERTEX
  8
ガラス
 10
-21.525
 20
-41.45
 70
     8
  0
VERTEX
  8
ガラス
 10
-21.425
 20
-41.425
 70
     8
  0
VERTEX
  8
ガラス
 10
-21.35
 20
-41.4
 70
     8
  0
VERTEX
  8
ガラス
 10
-21.25
 20
-41.375
 70
     8
  0
VERTEX
  8
ガラス
 10
-21.175
 20
-41.35
 70
     8
  0
SEQEND
  0
POLYLINE
  8
ガラス
  6
CONTINUOUS
 66
     1
 70
     4
  0
VERTEX
  8
ガラス
 10
-21.175
 20
-41.35
 70
     8
  0
VERTEX
  8
ガラス
 10
-21.2
 20
-41.425
 70
     8
  0
VERTEX
  8
ガラス
 10
-21.2
 20
-41.475
 70
     8
  0
VERTEX
  8
ガラス
 10
-21.225
 20
-41.525
 70
     8
  0
VERTEX
  8
ガラス
 10
-21.25
 20
-41.575
 70
     8
  0
VERTEX
  8
ガラス
 10
-21.275
 20
-41.65
 70
     8
  0
VERTEX
  8
ガラス
 10
-21.3
 20
-41.7
 70
     8
  0
VERTEX
  8
ガラス
 10
-21.325
 20
-41.75
 70
     8
  0
VERTEX
  8
ガラス
 10
-21.35
 20
-41.825
 70
     8
  0
VERTEX
  8
ガラス
 10
-21.375
 20
-41.875
 70
     8
  0
VERTEX
  8
ガラス
 10
-21.4
 20
-41.925
 70
     8
  0
VERTEX
  8
ガラス
 10
-21.425
 20
-41.975
 70
     8
  0
VERTEX
  8
ガラス
 10
-21.45
 20
-42.05
 70
     8
  0
VERTEX
  8
ガラス
 10
-21.45
 20
-42.1
 70
     8
  0
VERTEX
  8
ガラス
 10
-21.475
 20
-42.15
 70
     8
  0
VERTEX
  8
ガラス
 10
-21.5
 20
-42.225
 70
     8
  0
VERTEX
  8
ガラス
 10
-21.525
 20
-42.275
 70
     8
  0
VERTEX
  8
ガラス
 10
-21.55
 20
-42.325
 70
     8
  0
VERTEX
  8
ガラス
 10
-21.55
 20
-42.4
 70
     8
  0
VERTEX
  8
ガラス
 10
-21.575
 20
-42.45
 70
     8
  0
VERTEX
  8
ガラス
 10
-21.6
 20
-42.5
 70
     8
  0
VERTEX
  8
ガラス
 10
-21.6
 20
-42.575
 70
     8
  0
VERTEX
  8
ガラス
 10
-21.625
 20
-42.625
 70
     8
  0
VERTEX
  8
ガラス
 10
-21.625
 20
-42.675
 70
     8
  0
VERTEX
  8
ガラス
 10
-21.65
 20
-42.75
 70
     8
  0
VERTEX
  8
ガラス
 10
-21.675
 20
-42.8
 70
     8
  0
VERTEX
  8
ガラス
 10
-21.675
 20
-42.875
 70
     8
  0
VERTEX
  8
ガラス
 10
-21.675
 20
-42.925
 70
     8
  0
VERTEX
  8
ガラス
 10
-21.7
 20
-42.975
 70
     8
  0
VERTEX
  8
ガラス
 10
-21.7
 20
-43.05
 70
     8
  0
VERTEX
  8
ガラス
 10
-21.725
 20
-43.1
 70
     8
  0
VERTEX
  8
ガラス
 10
-21.725
 20
-43.175
 70
     8
  0
VERTEX
  8
ガラス
 10
-21.725
 20
-43.225
 70
     8
  0
VERTEX
  8
ガラス
 10
-21.75
 20
-43.3
 70
     8
  0
VERTEX
  8
ガラス
 10
-21.75
 20
-43.35
 70
     8
  0
VERTEX
  8
ガラス
 10
-21.75
 20
-43.4
 70
     8
  0
VERTEX
  8
ガラス
 10
-21.775
 20
-43.475
 70
     8
  0
VERTEX
  8
ガラス
 10
-21.775
 20
-43.525
 70
     8
  0
VERTEX
  8
ガラス
 10
-21.775
 20
-43.6
 70
     8
  0
VERTEX
  8
ガラス
 10
-21.775
 20
-43.65
 70
     8
  0
VERTEX
  8
ガラス
 10
-21.8
 20
-43.725
 70
     8
  0
SEQEND
  0
ARC
  8
ガラス
  6
CONTINUOUS
 10
-22.729174
 20
-43.590573
 40
0.955135
 50
173.117443
 51
353.117443
  0
ENDBLK
  0
BLOCK
  2
*GRP_0042
 70
    65
 10
0.0
 20
0.0
  0
POLYLINE
  8
ガラス
  6
CONTINUOUS
 66
     1
 70
     4
  0
VERTEX
  8
ガラス
 10
-23.7
 20
-55.15
 70
     8
  0
VERTEX
  8
ガラス
 10
-23.65
 20
-55.075
 70
     8
  0
VERTEX
  8
ガラス
 10
-23.625
 20
-54.975
 70
     8
  0
VERTEX
  8
ガラス
 10
-23.575
 20
-54.9
 70
     8
  0
VERTEX
  8
ガラス
 10
-23.55
 20
-54.8
 70
     8
  0
VERTEX
  8
ガラス
 10
-23.5
 20
-54.725
 70
     8
  0
VERTEX
  8
ガラス
 10
-23.475
 20
-54.65
 70
     8
  0
VERTEX
  8
ガラス
 10
-23.425
 20
-54.55
 70
     8
  0
VERTEX
  8
ガラス
 10
-23.4
 20
-54.475
 70
     8
  0
VERTEX
  8
ガラス
 10
-23.35
 20
-54.4
 70
     8
  0
VERTEX
  8
ガラス
 10
-23.3
 20
-54.325
 70
     8
  0
VERTEX
  8
ガラス
 10
-23.275
 20
-54.25
 70
     8
  0
VERTEX
  8
ガラス
 10
-23.225
 20
-54.175
 70
     8
  0
VERTEX
  8
ガラス
 10
-23.175
 20
-54.1
 70
     8
  0
VERTEX
  8
ガラス
 10
-23.125
 20
-54.025
 70
     8
  0
VERTEX
  8
ガラス
 10
-23.075
 20
-53.95
 70
     8
  0
VERTEX
  8
ガラス
 10
-23.025
 20
-53.875
 70
     8
  0
VERTEX
  8
ガラス
 10
-22.975
 20
-53.825
 70
     8
  0
VERTEX
  8
ガラス
 10
-22.925
 20
-53.75
 70
     8
  0
VERTEX
  8
ガラス
 10
-22.85
 20
-53.7
 70
     8
  0
VERTEX
  8
ガラス
 10
-22.8
 20
-53.65
 70
     8
  0
VERTEX
  8
ガラス
 10
-22.725
 20
-53.6
 70
     8
  0
VERTEX
  8
ガラス
 10
-22.675
 20
-53.55
 70
     8
  0
VERTEX
  8
ガラス
 10
-22.6
 20
-53.5
 70
     8
  0
VERTEX
  8
ガラス
 10
-22.525
 20
-53.45
 70
     8
  0
VERTEX
  8
ガラス
 10
-22.45
 20
-53.4
 70
     8
  0
VERTEX
  8
ガラス
 10
-22.375
 20
-53.375
 70
     8
  0
VERTEX
  8
ガラス
 10
-22.3
 20
-53.325
 70
     8
  0
VERTEX
  8
ガラス
 10
-22.225
 20
-53.3
 70
     8
  0
VERTEX
  8
ガラス
 10
-22.125
 20
-53.275
 70
     8
  0
VERTEX
  8
ガラス
 10
-22.05
 20
-53.25
 70
     8
  0
VERTEX
  8
ガラス
 10
-21.975
 20
-53.225
 70
     8
  0
VERTEX
  8
ガラス
 10
-21.875
 20
-53.2
 70
     8
  0
VERTEX
  8
ガラス
 10
-21.8
 20
-53.175
 70
     8
  0
VERTEX
  8
ガラス
 10
-21.7
 20
-53.15
 70
     8
  0
VERTEX
  8
ガラス
 10
-21.625
 20
-53.125
 70
     8
  0
VERTEX
  8
ガラス
 10
-21.525
 20
-53.1
 70
     8
  0
VERTEX
  8
ガラス
 10
-21.425
 20
-53.075
 70
     8
  0
VERTEX
  8
ガラス
 10
-21.35
 20
-53.05
 70
     8
  0
VERTEX
  8
ガラス
 10
-21.25
 20
-53.05
 70
     8
  0
VERTEX
  8
ガラス
 10
-21.175
 20
-53.025
 70
     8
  0
SEQEND
  0
POLYLINE
  8
ガラス
  6
CONTINUOUS
 66
     1
 70
     4
  0
VERTEX
  8
ガラス
 10
-21.175
 20
-53.025
 70
     8
  0
VERTEX
  8
ガラス
 10
-21.2
 20
-53.075
 70
     8
  0
VERTEX
  8
ガラス
 10
-21.2
 20
-53.125
 70
     8
  0
VERTEX
  8
ガラス
 10
-21.225
 20
-53.2
 70
     8
  0
VERTEX
  8
ガラス
 10
-21.25
 20
-53.25
 70
     8
  0
VERTEX
  8
ガラス
 10
-21.275
 20
-53.3
 70
     8
  0
VERTEX
  8
ガラス
 10
-21.3
 20
-53.375
 70
     8
  0
VERTEX
  8
ガラス
 10
-21.325
 20
-53.425
 70
     8
  0
VERTEX
  8
ガラス
 10
-21.35
 20
-53.475
 70
     8
  0
VERTEX
  8
ガラス
 10
-21.375
 20
-53.525
 70
     8
  0
VERTEX
  8
ガラス
 10
-21.4
 20
-53.6
 70
     8
  0
VERTEX
  8
ガラス
 10
-21.425
 20
-53.65
 70
     8
  0
VERTEX
  8
ガラス
 10
-21.45
 20
-53.7
 70
     8
  0
VERTEX
  8
ガラス
 10
-21.45
 20
-53.775
 70
     8
  0
VERTEX
  8
ガラス
 10
-21.475
 20
-53.825
 70
     8
  0
VERTEX
  8
ガラス
 10
-21.5
 20
-53.875
 70
     8
  0
VERTEX
  8
ガラス
 10
-21.525
 20
-53.95
 70
     8
  0
VERTEX
  8
ガラス
 10
-21.55
 20
-54.0
 70
     8
  0
VERTEX
  8
ガラス
 10
-21.55
 20
-54.05
 70
     8
  0
VERTEX
  8
ガラス
 10
-21.575
 20
-54.125
 70
     8
  0
VERTEX
  8
ガラス
 10
-21.6
 20
-54.175
 70
     8
  0
VERTEX
  8
ガラス
 10
-21.6
 20
-54.225
 70
     8
  0
VERTEX
  8
ガラス
 10
-21.625
 20
-54.3
 70
     8
  0
VERTEX
  8
ガラス
 10
-21.625
 20
-54.35
 70
     8
  0
VERTEX
  8
ガラス
 10
-21.65
 20
-54.4
 70
     8
  0
VERTEX
  8
ガラス
 10
-21.675
 20
-54.475
 70
     8
  0
VERTEX
  8
ガラス
 10
-21.675
 20
-54.525
 70
     8
  0
VERTEX
  8
ガラス
 10
-21.675
 20
-54.6
 70
     8
  0
VERTEX
  8
ガラス
 10
-21.7
 20
-54.65
 70
     8
  0
VERTEX
  8
ガラス
 10
-21.7
 20
-54.7
 70
     8
  0
VERTEX
  8
ガラス
 10
-21.725
 20
-54.775
 70
     8
  0
VERTEX
  8
ガラス
 10
-21.725
 20
-54.825
 70
     8
  0
VERTEX
  8
ガラス
 10
-21.725
 20
-54.9
 70
     8
  0
VERTEX
  8
ガラス
 10
-21.75
 20
-54.95
 70
     8
  0
VERTEX
  8
ガラス
 10
-21.75
 20
-55.025
 70
     8
  0
VERTEX
  8
ガラス
 10
-21.75
 20
-55.075
 70
     8
  0
VERTEX
  8
ガラス
 10
-21.775
 20
-55.125
 70
     8
  0
VERTEX
  8
ガラス
 10
-21.775
 20
-55.2
 70
     8
  0
VERTEX
  8
ガラス
 10
-21.775
 20
-55.25
 70
     8
  0
VERTEX
  8
ガラス
 10
-21.775
 20
-55.325
 70
     8
  0
VERTEX
  8
ガラス
 10
-21.8
 20
-55.375
 70
     8
  0
SEQEND
  0
ARC
  8
ガラス
  6
CONTINUOUS
 10
-22.729174
 20
-55.254573
 40
0.955135
 50
173.117443
 51
353.117443
  0
ENDBLK
  0
BLOCK
  2
*GRP_0043
 70
    65
 10
0.0
 20
0.0
  0
POLYLINE
  8
ガラス
  6
CONTINUOUS
 66
     1
 70
     4
  0
VERTEX
  8
ガラス
 10
-27.675
 20
-61.575
 70
     8
  0
VERTEX
  8
ガラス
 10
-27.575
 20
-61.575
 70
     8
  0
VERTEX
  8
ガラス
 10
-27.475
 20
-61.55
 70
     8
  0
VERTEX
  8
ガラス
 10
-27.4
 20
-61.55
 70
     8
  0
VERTEX
  8
ガラス
 10
-27.3
 20
-61.55
 70
     8
  0
VERTEX
  8
ガラス
 10
-27.2
 20
-61.525
 70
     8
  0
VERTEX
  8
ガラス
 10
-27.125
 20
-61.525
 70
     8
  0
VERTEX
  8
ガラス
 10
-27.025
 20
-61.525
 70
     8
  0
VERTEX
  8
ガラス
 10
-26.925
 20
-61.525
 70
     8
  0
VERTEX
  8
ガラス
 10
-26.85
 20
-61.5
 70
     8
  0
VERTEX
  8
ガラス
 10
-26.75
 20
-61.5
 70
     8
  0
VERTEX
  8
ガラス
 10
-26.675
 20
-61.5
 70
     8
  0
VERTEX
  8
ガラス
 10
-26.575
 20
-61.5
 70
     8
  0
VERTEX
  8
ガラス
 10
-26.5
 20
-61.525
 70
     8
  0
VERTEX
  8
ガラス
 10
-26.4
 20
-61.525
 70
     8
  0
VERTEX
  8
ガラス
 10
-26.325
 20
-61.525
 70
     8
  0
VERTEX
  8
ガラス
 10
-26.25
 20
-61.55
 70
     8
  0
VERTEX
  8
ガラス
 10
-26.15
 20
-61.55
 70
     8
  0
VERTEX
  8
ガラス
 10
-26.075
 20
-61.575
 70
     8
  0
VERTEX
  8
ガラス
 10
-26.0
 20
-61.6
 70
     8
  0
VERTEX
  8
ガラス
 10
-25.925
 20
-61.625
 70
     8
  0
VERTEX
  8
ガラス
 10
-25.85
 20
-61.65
 70
     8
  0
VERTEX
  8
ガラス
 10
-25.775
 20
-61.7
 70
     8
  0
VERTEX
  8
ガラス
 10
-25.7
 20
-61.725
 70
     8
  0
VERTEX
  8
ガラス
 10
-25.625
 20
-61.775
 70
     8
  0
VERTEX
  8
ガラス
 10
-25.55
 20
-61.825
 70
     8
  0
VERTEX
  8
ガラス
 10
-25.475
 20
-61.875
 70
     8
  0
VERTEX
  8
ガラス
 10
-25.4
 20
-61.925
 70
     8
  0
VERTEX
  8
ガラス
 10
-25.35
 20
-61.975
 70
     8
  0
VERTEX
  8
ガラス
 10
-25.275
 20
-62.025
 70
     8
  0
VERTEX
  8
ガラス
 10
-25.2
 20
-62.075
 70
     8
  0
VERTEX
  8
ガラス
 10
-25.15
 20
-62.15
 70
     8
  0
VERTEX
  8
ガラス
 10
-25.075
 20
-62.2
 70
     8
  0
VERTEX
  8
ガラス
 10
-25.025
 20
-62.275
 70
     8
  0
VERTEX
  8
ガラス
 10
-24.95
 20
-62.35
 70
     8
  0
VERTEX
  8
ガラス
 10
-24.9
 20
-62.4
 70
     8
  0
VERTEX
  8
ガラス
 10
-24.825
 20
-62.475
 70
     8
  0
VERTEX
  8
ガラス
 10
-24.775
 20
-62.55
 70
     8
  0
VERTEX
  8
ガラス
 10
-24.7
 20
-62.6
 70
     8
  0
VERTEX
  8
ガラス
 10
-24.65
 20
-62.675
 70
     8
  0
VERTEX
  8
ガラス
 10
-24.575
 20
-62.75
 70
     8
  0
SEQEND
  0
POLYLINE
  8
ガラス
  6
CONTINUOUS
 66
     1
 70
     4
  0
VERTEX
  8
ガラス
 10
-24.575
 20
-62.75
 70
     8
  0
VERTEX
  8
ガラス
 10
-24.65
 20
-62.75
 70
     8
  0
VERTEX
  8
ガラス
 10
-24.7
 20
-62.775
 70
     8
  0
VERTEX
  8
ガラス
 10
-24.775
 20
-62.775
 70
     8
  0
VERTEX
  8
ガラス
 10
-24.825
 20
-62.775
 70
     8
  0
VERTEX
  8
ガラス
 10
-24.9
 20
-62.775
 70
     8
  0
VERTEX
  8
ガラス
 10
-24.95
 20
-62.8
 70
     8
  0
VERTEX
  8
ガラス
 10
-25.0
 20
-62.8
 70
     8
  0
VERTEX
  8
ガラス
 10
-25.075
 20
-62.8
 70
     8
  0
VERTEX
  8
ガラス
 10
-25.125
 20
-62.825
 70
     8
  0
VERTEX
  8
ガラス
 10
-25.2
 20
-62.825
 70
     8
  0
VERTEX
  8
ガラス
 10
-25.25
 20
-62.825
 70
     8
  0
VERTEX
  8
ガラス
 10
-25.325
 20
-62.85
 70
     8
  0
VERTEX
  8
ガラス
 10
-25.375
 20
-62.85
 70
     8
  0
VERTEX
  8
ガラス
 10
-25.425
 20
-62.875
 70
     8
  0
VERTEX
  8
ガラス
 10
-25.5
 20
-62.875
 70
     8
  0
VERTEX
  8
ガラス
 10
-25.55
 20
-62.875
 70
     8
  0
VERTEX
  8
ガラス
 10
-25.625
 20
-62.9
 70
     8
  0
VERTEX
  8
ガラス
 10
-25.675
 20
-62.9
 70
     8
  0
VERTEX
  8
ガラス
 10
-25.725
 20
-62.925
 70
     8
  0
VERTEX
  8
ガラス
 10
-25.8
 20
-62.925
 70
     8
  0
VERTEX
  8
ガラス
 10
-25.85
 20
-62.95
 70
     8
  0
VERTEX
  8
ガラス
 10
-25.925
 20
-62.975
 70
     8
  0
VERTEX
  8
ガラス
 10
-25.975
 20
-62.975
 70
     8
  0
VERTEX
  8
ガラス
 10
-26.025
 20
-63.0
 70
     8
  0
VERTEX
  8
ガラス
 10
-26.1
 20
-63.025
 70
     8
  0
VERTEX
  8
ガラス
 10
-26.15
 20
-63.05
 70
     8
  0
VERTEX
  8
ガラス
 10
-26.2
 20
-63.05
 70
     8
  0
VERTEX
  8
ガラス
 10
-26.275
 20
-63.075
 70
     8
  0
VERTEX
  8
ガラス
 10
-26.325
 20
-63.1
 70
     8
  0
VERTEX
  8
ガラス
 10
-26.375
 20
-63.125
 70
     8
  0
VERTEX
  8
ガラス
 10
-26.425
 20
-63.15
 70
     8
  0
VERTEX
  8
ガラス
 10
-26.5
 20
-63.175
 70
     8
  0
VERTEX
  8
ガラス
 10
-26.55
 20
-63.175
 70
     8
  0
VERTEX
  8
ガラス
 10
-26.6
 20
-63.2
 70
     8
  0
VERTEX
  8
ガラス
 10
-26.675
 20
-63.225
 70
     8
  0
VERTEX
  8
ガラス
 10
-26.725
 20
-63.25
 70
     8
  0
VERTEX
  8
ガラス
 10
-26.775
 20
-63.275
 70
     8
  0
VERTEX
  8
ガラス
 10
-26.825
 20
-63.3
 70
     8
  0
VERTEX
  8
ガラス
 10
-26.9
 20
-63.325
 70
     8
  0
VERTEX
  8
ガラス
 10
-26.95
 20
-63.35
 70
     8
  0
SEQEND
  0
ARC
  8
ガラス
  6
CONTINUOUS
 10
-27.298359
 20
-62.453807
 40
0.955135
 50
112.264588
 51
292.264588
  0
ENDBLK
  0
BLOCK
  2
*GRP_0044
 70
    65
 10
0.0
 20
0.0
  0
POLYLINE
  8
ガラス
  6
CONTINUOUS
 66
     1
 70
     4
  0
VERTEX
  8
ガラス
 10
-23.7
 20
-36.525
 70
     8
  0
VERTEX
  8
ガラス
 10
-23.65
 20
-36.425
 70
     8
  0
VERTEX
  8
ガラス
 10
-23.625
 20
-36.35
 70
     8
  0
VERTEX
  8
ガラス
 10
-23.575
 20
-36.275
 70
     8
  0
VERTEX
  8
ガラス
 10
-23.55
 20
-36.175
 70
     8
  0
VERTEX
  8
ガラス
 10
-23.5
 20
-36.1
 70
     8
  0
VERTEX
  8
ガラス
 10
-23.475
 20
-36.0
 70
     8
  0
VERTEX
  8
ガラス
 10
-23.425
 20
-35.925
 70
     8
  0
VERTEX
  8
ガラス
 10
-23.4
 20
-35.85
 70
     8
  0
VERTEX
  8
ガラス
 10
-23.35
 20
-35.775
 70
     8
  0
VERTEX
  8
ガラス
 10
-23.3
 20
-35.675
 70
     8
  0
VERTEX
  8
ガラス
 10
-23.275
 20
-35.6
 70
     8
  0
VERTEX
  8
ガラス
 10
-23.225
 20
-35.525
 70
     8
  0
VERTEX
  8
ガラス
 10
-23.175
 20
-35.45
 70
     8
  0
VERTEX
  8
ガラス
 10
-23.125
 20
-35.375
 70
     8
  0
VERTEX
  8
ガラス
 10
-23.075
 20
-35.325
 70
     8
  0
VERTEX
  8
ガラス
 10
-23.025
 20
-35.25
 70
     8
  0
VERTEX
  8
ガラス
 10
-22.975
 20
-35.175
 70
     8
  0
VERTEX
  8
ガラス
 10
-22.925
 20
-35.125
 70
     8
  0
VERTEX
  8
ガラス
 10
-22.85
 20
-35.075
 70
     8
  0
VERTEX
  8
ガラス
 10
-22.8
 20
-35.0
 70
     8
  0
VERTEX
  8
ガラス
 10
-22.725
 20
-34.95
 70
     8
  0
VERTEX
  8
ガラス
 10
-22.675
 20
-34.9
 70
     8
  0
VERTEX
  8
ガラス
 10
-22.6
 20
-34.875
 70
     8
  0
VERTEX
  8
ガラス
 10
-22.525
 20
-34.825
 70
     8
  0
VERTEX
  8
ガラス
 10
-22.45
 20
-34.775
 70
     8
  0
VERTEX
  8
ガラス
 10
-22.375
 20
-34.75
 70
     8
  0
VERTEX
  8
ガラス
 10
-22.3
 20
-34.7
 70
     8
  0
VERTEX
  8
ガラス
 10
-22.225
 20
-34.675
 70
     8
  0
VERTEX
  8
ガラス
 10
-22.125
 20
-34.65
 70
     8
  0
VERTEX
  8
ガラス
 10
-22.05
 20
-34.625
 70
     8
  0
VERTEX
  8
ガラス
 10
-21.975
 20
-34.575
 70
     8
  0
VERTEX
  8
ガラス
 10
-21.875
 20
-34.55
 70
     8
  0
VERTEX
  8
ガラス
 10
-21.8
 20
-34.55
 70
     8
  0
VERTEX
  8
ガラス
 10
-21.7
 20
-34.525
 70
     8
  0
VERTEX
  8
ガラス
 10
-21.625
 20
-34.5
 70
     8
  0
VERTEX
  8
ガラス
 10
-21.525
 20
-34.475
 70
     8
  0
VERTEX
  8
ガラス
 10
-21.425
 20
-34.45
 70
     8
  0
VERTEX
  8
ガラス
 10
-21.35
 20
-34.425
 70
     8
  0
VERTEX
  8
ガラス
 10
-21.25
 20
-34.425
 70
     8
  0
VERTEX
  8
ガラス
 10
-21.175
 20
-34.4
 70
     8
  0
SEQEND
  0
POLYLINE
  8
ガラス
  6
CONTINUOUS
 66
     1
 70
     4
  0
VERTEX
  8
ガラス
 10
-21.175
 20
-34.4
 70
     8
  0
VERTEX
  8
ガラス
 10
-21.2
 20
-34.45
 70
     8
  0
VERTEX
  8
ガラス
 10
-21.2
 20
-34.5
 70
     8
  0
VERTEX
  8
ガラス
 10
-21.225
 20
-34.575
 70
     8
  0
VERTEX
  8
ガラス
 10
-21.25
 20
-34.625
 70
     8
  0
VERTEX
  8
ガラス
 10
-21.275
 20
-34.675
 70
     8
  0
VERTEX
  8
ガラス
 10
-21.3
 20
-34.725
 70
     8
  0
VERTEX
  8
ガラス
 10
-21.325
 20
-34.8
 70
     8
  0
VERTEX
  8
ガラス
 10
-21.35
 20
-34.85
 70
     8
  0
VERTEX
  8
ガラス
 10
-21.375
 20
-34.9
 70
     8
  0
VERTEX
  8
ガラス
 10
-21.4
 20
-34.975
 70
     8
  0
VERTEX
  8
ガラス
 10
-21.425
 20
-35.025
 70
     8
  0
VERTEX
  8
ガラス
 10
-21.45
 20
-35.075
 70
     8
  0
VERTEX
  8
ガラス
 10
-21.45
 20
-35.125
 70
     8
  0
VERTEX
  8
ガラス
 10
-21.475
 20
-35.2
 70
     8
  0
VERTEX
  8
ガラス
 10
-21.5
 20
-35.25
 70
     8
  0
VERTEX
  8
ガラス
 10
-21.525
 20
-35.3
 70
     8
  0
VERTEX
  8
ガラス
 10
-21.55
 20
-35.375
 70
     8
  0
VERTEX
  8
ガラス
 10
-21.55
 20
-35.425
 70
     8
  0
VERTEX
  8
ガラス
 10
-21.575
 20
-35.475
 70
     8
  0
VERTEX
  8
ガラス
 10
-21.6
 20
-35.55
 70
     8
  0
VERTEX
  8
ガラス
 10
-21.6
 20
-35.6
 70
     8
  0
VERTEX
  8
ガラス
 10
-21.625
 20
-35.65
 70
     8
  0
VERTEX
  8
ガラス
 10
-21.625
 20
-35.725
 70
     8
  0
VERTEX
  8
ガラス
 10
-21.65
 20
-35.775
 70
     8
  0
VERTEX
  8
ガラス
 10
-21.675
 20
-35.85
 70
     8
  0
VERTEX
  8
ガラス
 10
-21.675
 20
-35.9
 70
     8
  0
VERTEX
  8
ガラス
 10
-21.675
 20
-35.95
 70
     8
  0
VERTEX
  8
ガラス
 10
-21.7
 20
-36.025
 70
     8
  0
VERTEX
  8
ガラス
 10
-21.7
 20
-36.075
 70
     8
  0
VERTEX
  8
ガラス
 10
-21.725
 20
-36.15
 70
     8
  0
VERTEX
  8
ガラス
 10
-21.725
 20
-36.2
 70
     8
  0
VERTEX
  8
ガラス
 10
-21.725
 20
-36.275
 70
     8
  0
VERTEX
  8
ガラス
 10
-21.75
 20
-36.325
 70
     8
  0
VERTEX
  8
ガラス
 10
-21.75
 20
-36.375
 70
     8
  0
VERTEX
  8
ガラス
 10
-21.75
 20
-36.45
 70
     8
  0
VERTEX
  8
ガラス
 10
-21.775
 20
-36.5
 70
     8
  0
VERTEX
  8
ガラス
 10
-21.775
 20
-36.575
 70
     8
  0
VERTEX
  8
ガラス
 10
-21.775
 20
-36.625
 70
     8
  0
VERTEX
  8
ガラス
 10
-21.775
 20
-36.7
 70
     8
  0
VERTEX
  8
ガラス
 10
-21.8
 20
-36.75
 70
     8
  0
SEQEND
  0
ARC
  8
ガラス
  6
CONTINUOUS
 10
-22.729174
 20
-36.624573
 40
0.955135
 50
173.117443
 51
353.117443
  0
ENDBLK
  0
BLOCK
  2
*GRP_0045
 70
    65
 10
0.0
 20
0.0
  0
POLYLINE
  8
ガラス
  6
CONTINUOUS
 66
     1
 70
     4
  0
VERTEX
  8
ガラス
 10
-5.85
 20
-47.675
 70
     8
  0
VERTEX
  8
ガラス
 10
-5.8
 20
-47.6
 70
     8
  0
VERTEX
  8
ガラス
 10
-5.775
 20
-47.525
 70
     8
  0
VERTEX
  8
ガラス
 10
-5.725
 20
-47.425
 70
     8
  0
VERTEX
  8
ガラス
 10
-5.7
 20
-47.35
 70
     8
  0
VERTEX
  8
ガラス
 10
-5.65
 20
-47.25
 70
     8
  0
VERTEX
  8
ガラス
 10
-5.625
 20
-47.175
 70
     8
  0
VERTEX
  8
ガラス
 10
-5.575
 20
-47.1
 70
     8
  0
VERTEX
  8
ガラス
 10
-5.55
 20
-47.0
 70
     8
  0
VERTEX
  8
ガラス
 10
-5.5
 20
-46.925
 70
     8
  0
VERTEX
  8
ガラス
 10
-5.45
 20
-46.85
 70
     8
  0
VERTEX
  8
ガラス
 10
-5.425
 20
-46.775
 70
     8
  0
VERTEX
  8
ガラス
 10
-5.375
 20
-46.7
 70
     8
  0
VERTEX
  8
ガラス
 10
-5.325
 20
-46.625
 70
     8
  0
VERTEX
  8
ガラス
 10
-5.275
 20
-46.55
 70
     8
  0
VERTEX
  8
ガラス
 10
-5.225
 20
-46.475
 70
     8
  0
VERTEX
  8
ガラス
 10
-5.175
 20
-46.425
 70
     8
  0
VERTEX
  8
ガラス
 10
-5.125
 20
-46.35
 70
     8
  0
VERTEX
  8
ガラス
 10
-5.075
 20
-46.3
 70
     8
  0
VERTEX
  8
ガラス
 10
-5.0
 20
-46.225
 70
     8
  0
VERTEX
  8
ガラス
 10
-4.95
 20
-46.175
 70
     8
  0
VERTEX
  8
ガラス
 10
-4.875
 20
-46.125
 70
     8
  0
VERTEX
  8
ガラス
 10
-4.825
 20
-46.075
 70
     8
  0
VERTEX
  8
ガラス
 10
-4.75
 20
-46.025
 70
     8
  0
VERTEX
  8
ガラス
 10
-4.675
 20
-45.975
 70
     8
  0
VERTEX
  8
ガラス
 10
-4.6
 20
-45.95
 70
     8
  0
VERTEX
  8
ガラス
 10
-4.525
 20
-45.9
 70
     8
  0
VERTEX
  8
ガラス
 10
-4.45
 20
-45.875
 70
     8
  0
VERTEX
  8
ガラス
 10
-4.375
 20
-45.85
 70
     8
  0
VERTEX
  8
ガラス
 10
-4.275
 20
-45.8
 70
     8
  0
VERTEX
  8
ガラス
 10
-4.2
 20
-45.775
 70
     8
  0
VERTEX
  8
ガラス
 10
-4.125
 20
-45.75
 70
     8
  0
VERTEX
  8
ガラス
 10
-4.025
 20
-45.725
 70
     8
  0
VERTEX
  8
ガラス
 10
-3.95
 20
-45.7
 70
     8
  0
VERTEX
  8
ガラス
 10
-3.85
 20
-45.675
 70
     8
  0
VERTEX
  8
ガラス
 10
-3.775
 20
-45.65
 70
     8
  0
VERTEX
  8
ガラス
 10
-3.675
 20
-45.625
 70
     8
  0
VERTEX
  8
ガラス
 10
-3.6
 20
-45.625
 70
     8
  0
VERTEX
  8
ガラス
 10
-3.5
 20
-45.6
 70
     8
  0
VERTEX
  8
ガラス
 10
-3.4
 20
-45.575
 70
     8
  0
VERTEX
  8
ガラス
 10
-3.325
 20
-45.55
 70
     8
  0
SEQEND
  0
POLYLINE
  8
ガラス
  6
CONTINUOUS
 66
     1
 70
     4
  0
VERTEX
  8
ガラス
 10
-3.325
 20
-45.55
 70
     8
  0
VERTEX
  8
ガラス
 10
-3.35
 20
-45.625
 70
     8
  0
VERTEX
  8
ガラス
 10
-3.375
 20
-45.675
 70
     8
  0
VERTEX
  8
ガラス
 10
-3.4
 20
-45.725
 70
     8
  0
VERTEX
  8
ガラス
 10
-3.4
 20
-45.775
 70
     8
  0
VERTEX
  8
ガラス
 10
-3.425
 20
-45.85
 70
     8
  0
VERTEX
  8
ガラス
 10
-3.45
 20
-45.9
 70
     8
  0
VERTEX
  8
ガラス
 10
-3.475
 20
-45.95
 70
     8
  0
VERTEX
  8
ガラス
 10
-3.5
 20
-46.0
 70
     8
  0
VERTEX
  8
ガラス
 10
-3.525
 20
-46.075
 70
     8
  0
VERTEX
  8
ガラス
 10
-3.55
 20
-46.125
 70
     8
  0
VERTEX
  8
ガラス
 10
-3.575
 20
-46.175
 70
     8
  0
VERTEX
  8
ガラス
 10
-3.6
 20
-46.25
 70
     8
  0
VERTEX
  8
ガラス
 10
-3.625
 20
-46.3
 70
     8
  0
VERTEX
  8
ガラス
 10
-3.625
 20
-46.35
 70
     8
  0
VERTEX
  8
ガラス
 10
-3.65
 20
-46.425
 70
     8
  0
VERTEX
  8
ガラス
 10
-3.675
 20
-46.475
 70
     8
  0
VERTEX
  8
ガラス
 10
-3.7
 20
-46.525
 70
     8
  0
VERTEX
  8
ガラス
 10
-3.7
 20
-46.6
 70
     8
  0
VERTEX
  8
ガラス
 10
-3.725
 20
-46.65
 70
     8
  0
VERTEX
  8
ガラス
 10
-3.75
 20
-46.7
 70
     8
  0
VERTEX
  8
ガラス
 10
-3.75
 20
-46.775
 70
     8
  0
VERTEX
  8
ガラス
 10
-3.775
 20
-46.825
 70
     8
  0
VERTEX
  8
ガラス
 10
-3.8
 20
-46.875
 70
     8
  0
VERTEX
  8
ガラス
 10
-3.8
 20
-46.95
 70
     8
  0
VERTEX
  8
ガラス
 10
-3.825
 20
-47.0
 70
     8
  0
VERTEX
  8
ガラス
 10
-3.825
 20
-47.075
 70
     8
  0
VERTEX
  8
ガラス
 10
-3.85
 20
-47.125
 70
     8
  0
VERTEX
  8
ガラス
 10
-3.85
 20
-47.175
 70
     8
  0
VERTEX
  8
ガラス
 10
-3.85
 20
-47.25
 70
     8
  0
VERTEX
  8
ガラス
 10
-3.875
 20
-47.3
 70
     8
  0
VERTEX
  8
ガラス
 10
-3.875
 20
-47.375
 70
     8
  0
VERTEX
  8
ガラス
 10
-3.875
 20
-47.425
 70
     8
  0
VERTEX
  8
ガラス
 10
-3.9
 20
-47.5
 70
     8
  0
VERTEX
  8
ガラス
 10
-3.9
 20
-47.55
 70
     8
  0
VERTEX
  8
ガラス
 10
-3.9
 20
-47.6
 70
     8
  0
VERTEX
  8
ガラス
 10
-3.925
 20
-47.675
 70
     8
  0
VERTEX
  8
ガラス
 10
-3.925
 20
-47.725
 70
     8
  0
VERTEX
  8
ガラス
 10
-3.925
 20
-47.8
 70
     8
  0
VERTEX
  8
ガラス
 10
-3.95
 20
-47.85
 70
     8
  0
VERTEX
  8
ガラス
 10
-3.95
 20
-47.925
 70
     8
  0
SEQEND
  0
ARC
  8
ガラス
  6
CONTINUOUS
 10
-4.88096
 20
-47.788413
 40
0.955135
 50
173.117443
 51
353.117443
  0
ENDBLK
  0
BLOCK
  2
*GRP_0046
 70
    65
 10
0.0
 20
0.0
  0
POLYLINE
  8
ガラス
  6
CONTINUOUS
 66
     1
 70
     4
  0
VERTEX
  8
ガラス
 10
0.6
 20
-44.375
 70
     8
  0
VERTEX
  8
ガラス
 10
0.675
 20
-44.35
 70
     8
  0
VERTEX
  8
ガラス
 10
0.775
 20
-44.35
 70
     8
  0
VERTEX
  8
ガラス
 10
0.875
 20
-44.35
 70
     8
  0
VERTEX
  8
ガラス
 10
0.975
 20
-44.325
 70
     8
  0
VERTEX
  8
ガラス
 10
1.05
 20
-44.325
 70
     8
  0
VERTEX
  8
ガラス
 10
1.15
 20
-44.325
 70
     8
  0
VERTEX
  8
ガラス
 10
1.25
 20
-44.3
 70
     8
  0
VERTEX
  8
ガラス
 10
1.325
 20
-44.3
 70
     8
  0
VERTEX
  8
ガラス
 10
1.425
 20
-44.3
 70
     8
  0
VERTEX
  8
ガラス
 10
1.5
 20
-44.3
 70
     8
  0
VERTEX
  8
ガラス
 10
1.6
 20
-44.3
 70
     8
  0
VERTEX
  8
ガラス
 10
1.7
 20
-44.3
 70
     8
  0
VERTEX
  8
ガラス
 10
1.775
 20
-44.3
 70
     8
  0
VERTEX
  8
ガラス
 10
1.85
 20
-44.3
 70
     8
  0
VERTEX
  8
ガラス
 10
1.95
 20
-44.325
 70
     8
  0
VERTEX
  8
ガラス
 10
2.025
 20
-44.325
 70
     8
  0
VERTEX
  8
ガラス
 10
2.1
 20
-44.35
 70
     8
  0
VERTEX
  8
ガラス
 10
2.2
 20
-44.375
 70
     8
  0
VERTEX
  8
ガラス
 10
2.275
 20
-44.4
 70
     8
  0
VERTEX
  8
ガラス
 10
2.35
 20
-44.425
 70
     8
  0
VERTEX
  8
ガラス
 10
2.425
 20
-44.45
 70
     8
  0
VERTEX
  8
ガラス
 10
2.5
 20
-44.475
 70
     8
  0
VERTEX
  8
ガラス
 10
2.575
 20
-44.525
 70
     8
  0
VERTEX
  8
ガラス
 10
2.65
 20
-44.55
 70
     8
  0
VERTEX
  8
ガラス
 10
2.725
 20
-44.6
 70
     8
  0
VERTEX
  8
ガラス
 10
2.8
 20
-44.65
 70
     8
  0
VERTEX
  8
ガラス
 10
2.85
 20
-44.7
 70
     8
  0
VERTEX
  8
ガラス
 10
2.925
 20
-44.75
 70
     8
  0
VERTEX
  8
ガラス
 10
3.0
 20
-44.825
 70
     8
  0
VERTEX
  8
ガラス
 10
3.05
 20
-44.875
 70
     8
  0
VERTEX
  8
ガラス
 10
3.125
 20
-44.925
 70
     8
  0
VERTEX
  8
ガラス
 10
3.2
 20
-45.0
 70
     8
  0
VERTEX
  8
ガラス
 10
3.25
 20
-45.05
 70
     8
  0
VERTEX
  8
ガラス
 10
3.325
 20
-45.125
 70
     8
  0
VERTEX
  8
ガラス
 10
3.375
 20
-45.2
 70
     8
  0
VERTEX
  8
ガラス
 10
3.45
 20
-45.275
 70
     8
  0
VERTEX
  8
ガラス
 10
3.5
 20
-45.325
 70
     8
  0
VERTEX
  8
ガラス
 10
3.55
 20
-45.4
 70
     8
  0
VERTEX
  8
ガラス
 10
3.625
 20
-45.475
 70
     8
  0
VERTEX
  8
ガラス
 10
3.675
 20
-45.55
 70
     8
  0
SEQEND
  0
POLYLINE
  8
ガラス
  6
CONTINUOUS
 66
     1
 70
     4
  0
VERTEX
  8
ガラス
 10
3.675
 20
-45.55
 70
     8
  0
VERTEX
  8
ガラス
 10
3.625
 20
-45.55
 70
     8
  0
VERTEX
  8
ガラス
 10
3.55
 20
-45.55
 70
     8
  0
VERTEX
  8
ガラス
 10
3.5
 20
-45.55
 70
     8
  0
VERTEX
  8
ガラス
 10
3.45
 20
-45.575
 70
     8
  0
VERTEX
  8
ガラス
 10
3.375
 20
-45.575
 70
     8
  0
VERTEX
  8
ガラス
 10
3.325
 20
-45.575
 70
     8
  0
VERTEX
  8
ガラス
 10
3.25
 20
-45.6
 70
     8
  0
VERTEX
  8
ガラス
 10
3.2
 20
-45.6
 70
     8
  0
VERTEX
  8
ガラス
 10
3.125
 20
-45.6
 70
     8
  0
VERTEX
  8
ガラス
 10
3.075
 20
-45.625
 70
     8
  0
VERTEX
  8
ガラス
 10
3.0
 20
-45.625
 70
     8
  0
VERTEX
  8
ガラス
 10
2.95
 20
-45.625
 70
     8
  0
VERTEX
  8
ガラス
 10
2.9
 20
-45.65
 70
     8
  0
VERTEX
  8
ガラス
 10
2.825
 20
-45.65
 70
     8
  0
VERTEX
  8
ガラス
 10
2.775
 20
-45.675
 70
     8
  0
VERTEX
  8
ガラス
 10
2.7
 20
-45.675
 70
     8
  0
VERTEX
  8
ガラス
 10
2.65
 20
-45.675
 70
     8
  0
VERTEX
  8
ガラス
 10
2.6
 20
-45.7
 70
     8
  0
VERTEX
  8
ガラス
 10
2.525
 20
-45.725
 70
     8
  0
VERTEX
  8
ガラス
 10
2.475
 20
-45.725
 70
     8
  0
VERTEX
  8
ガラス
 10
2.425
 20
-45.75
 70
     8
  0
VERTEX
  8
ガラス
 10
2.35
 20
-45.75
 70
     8
  0
VERTEX
  8
ガラス
 10
2.3
 20
-45.775
 70
     8
  0
VERTEX
  8
ガラス
 10
2.225
 20
-45.8
 70
     8
  0
VERTEX
  8
ガラス
 10
2.175
 20
-45.8
 70
     8
  0
VERTEX
  8
ガラス
 10
2.125
 20
-45.825
 70
     8
  0
VERTEX
  8
ガラス
 10
2.05
 20
-45.85
 70
     8
  0
VERTEX
  8
ガラス
 10
2.0
 20
-45.875
 70
     8
  0
VERTEX
  8
ガラス
 10
1.95
 20
-45.9
 70
     8
  0
VERTEX
  8
ガラス
 10
1.9
 20
-45.9
 70
     8
  0
VERTEX
  8
ガラス
 10
1.825
 20
-45.925
 70
     8
  0
VERTEX
  8
ガラス
 10
1.775
 20
-45.95
 70
     8
  0
VERTEX
  8
ガラス
 10
1.725
 20
-45.975
 70
     8
  0
VERTEX
  8
ガラス
 10
1.65
 20
-46.0
 70
     8
  0
VERTEX
  8
ガラス
 10
1.6
 20
-46.025
 70
     8
  0
VERTEX
  8
ガラス
 10
1.55
 20
-46.05
 70
     8
  0
VERTEX
  8
ガラス
 10
1.5
 20
-46.075
 70
     8
  0
VERTEX
  8
ガラス
 10
1.425
 20
-46.1
 70
     8
  0
VERTEX
  8
ガラス
 10
1.375
 20
-46.125
 70
     8
  0
VERTEX
  8
ガラス
 10
1.325
 20
-46.15
 70
     8
  0
SEQEND
  0
ARC
  8
ガラス
  6
CONTINUOUS
 10
0.968855
 20
-45.243647
 40
0.955135
 50
112.264588
 51
292.264588
  0
ENDBLK
  0
BLOCK
  2
*GRP_0047
 70
    65
 10
0.0
 20
0.0
  0
POLYLINE
  8
ガラス
  6
CONTINUOUS
 66
     1
 70
     4
  0
VERTEX
  8
ガラス
 10
-5.85
 20
-58.575
 70
     8
  0
VERTEX
  8
ガラス
 10
-5.8
 20
-58.5
 70
     8
  0
VERTEX
  8
ガラス
 10
-5.775
 20
-58.4
 70
     8
  0
VERTEX
  8
ガラス
 10
-5.725
 20
-58.325
 70
     8
  0
VERTEX
  8
ガラス
 10
-5.7
 20
-58.225
 70
     8
  0
VERTEX
  8
ガラス
 10
-5.65
 20
-58.15
 70
     8
  0
VERTEX
  8
ガラス
 10
-5.625
 20
-58.05
 70
     8
  0
VERTEX
  8
ガラス
 10
-5.575
 20
-57.975
 70
     8
  0
VERTEX
  8
ガラス
 10
-5.55
 20
-57.9
 70
     8
  0
VERTEX
  8
ガラス
 10
-5.5
 20
-57.825
 70
     8
  0
VERTEX
  8
ガラス
 10
-5.45
 20
-57.725
 70
     8
  0
VERTEX
  8
ガラス
 10
-5.425
 20
-57.65
 70
     8
  0
VERTEX
  8
ガラス
 10
-5.375
 20
-57.575
 70
     8
  0
VERTEX
  8
ガラス
 10
-5.325
 20
-57.5
 70
     8
  0
VERTEX
  8
ガラス
 10
-5.275
 20
-57.45
 70
     8
  0
VERTEX
  8
ガラス
 10
-5.225
 20
-57.375
 70
     8
  0
VERTEX
  8
ガラス
 10
-5.175
 20
-57.3
 70
     8
  0
VERTEX
  8
ガラス
 10
-5.125
 20
-57.25
 70
     8
  0
VERTEX
  8
ガラス
 10
-5.075
 20
-57.175
 70
     8
  0
VERTEX
  8
ガラス
 10
-5.0
 20
-57.125
 70
     8
  0
VERTEX
  8
ガラス
 10
-4.95
 20
-57.05
 70
     8
  0
VERTEX
  8
ガラス
 10
-4.875
 20
-57.0
 70
     8
  0
VERTEX
  8
ガラス
 10
-4.825
 20
-56.95
 70
     8
  0
VERTEX
  8
ガラス
 10
-4.75
 20
-56.925
 70
     8
  0
VERTEX
  8
ガラス
 10
-4.675
 20
-56.875
 70
     8
  0
VERTEX
  8
ガラス
 10
-4.6
 20
-56.825
 70
     8
  0
VERTEX
  8
ガラス
 10
-4.525
 20
-56.8
 70
     8
  0
VERTEX
  8
ガラス
 10
-4.45
 20
-56.75
 70
     8
  0
VERTEX
  8
ガラス
 10
-4.375
 20
-56.725
 70
     8
  0
VERTEX
  8
ガラス
 10
-4.275
 20
-56.7
 70
     8
  0
VERTEX
  8
ガラス
 10
-4.2
 20
-56.675
 70
     8
  0
VERTEX
  8
ガラス
 10
-4.125
 20
-56.65
 70
     8
  0
VERTEX
  8
ガラス
 10
-4.025
 20
-56.625
 70
     8
  0
VERTEX
  8
ガラス
 10
-3.95
 20
-56.6
 70
     8
  0
VERTEX
  8
ガラス
 10
-3.85
 20
-56.575
 70
     8
  0
VERTEX
  8
ガラス
 10
-3.775
 20
-56.55
 70
     8
  0
VERTEX
  8
ガラス
 10
-3.675
 20
-56.525
 70
     8
  0
VERTEX
  8
ガラス
 10
-3.6
 20
-56.5
 70
     8
  0
VERTEX
  8
ガラス
 10
-3.5
 20
-56.475
 70
     8
  0
VERTEX
  8
ガラス
 10
-3.4
 20
-56.475
 70
     8
  0
VERTEX
  8
ガラス
 10
-3.325
 20
-56.45
 70
     8
  0
SEQEND
  0
POLYLINE
  8
ガラス
  6
CONTINUOUS
 66
     1
 70
     4
  0
VERTEX
  8
ガラス
 10
-3.325
 20
-56.45
 70
     8
  0
VERTEX
  8
ガラス
 10
-3.35
 20
-56.5
 70
     8
  0
VERTEX
  8
ガラス
 10
-3.375
 20
-56.55
 70
     8
  0
VERTEX
  8
ガラス
 10
-3.4
 20
-56.625
 70
     8
  0
VERTEX
  8
ガラス
 10
-3.4
 20
-56.675
 70
     8
  0
VERTEX
  8
ガラス
 10
-3.425
 20
-56.725
 70
     8
  0
VERTEX
  8
ガラス
 10
-3.45
 20
-56.775
 70
     8
  0
VERTEX
  8
ガラス
 10
-3.475
 20
-56.85
 70
     8
  0
VERTEX
  8
ガラス
 10
-3.5
 20
-56.9
 70
     8
  0
VERTEX
  8
ガラス
 10
-3.525
 20
-56.95
 70
     8
  0
VERTEX
  8
ガラス
 10
-3.55
 20
-57.025
 70
     8
  0
VERTEX
  8
ガラス
 10
-3.575
 20
-57.075
 70
     8
  0
VERTEX
  8
ガラス
 10
-3.6
 20
-57.125
 70
     8
  0
VERTEX
  8
ガラス
 10
-3.625
 20
-57.175
 70
     8
  0
VERTEX
  8
ガラス
 10
-3.625
 20
-57.25
 70
     8
  0
VERTEX
  8
ガラス
 10
-3.65
 20
-57.3
 70
     8
  0
VERTEX
  8
ガラス
 10
-3.675
 20
-57.35
 70
     8
  0
VERTEX
  8
ガラス
 10
-3.7
 20
-57.425
 70
     8
  0
VERTEX
  8
ガラス
 10
-3.7
 20
-57.475
 70
     8
  0
VERTEX
  8
ガラス
 10
-3.725
 20
-57.525
 70
     8
  0
VERTEX
  8
ガラス
 10
-3.75
 20
-57.6
 70
     8
  0
VERTEX
  8
ガラス
 10
-3.75
 20
-57.65
 70
     8
  0
VERTEX
  8
ガラス
 10
-3.775
 20
-57.725
 70
     8
  0
VERTEX
  8
ガラス
 10
-3.8
 20
-57.775
 70
     8
  0
VERTEX
  8
ガラス
 10
-3.8
 20
-57.825
 70
     8
  0
VERTEX
  8
ガラス
 10
-3.825
 20
-57.9
 70
     8
  0
VERTEX
  8
ガラス
 10
-3.825
 20
-57.95
 70
     8
  0
VERTEX
  8
ガラス
 10
-3.85
 20
-58.0
 70
     8
  0
VERTEX
  8
ガラス
 10
-3.85
 20
-58.075
 70
     8
  0
VERTEX
  8
ガラス
 10
-3.85
 20
-58.125
 70
     8
  0
VERTEX
  8
ガラス
 10
-3.875
 20
-58.2
 70
     8
  0
VERTEX
  8
ガラス
 10
-3.875
 20
-58.25
 70
     8
  0
VERTEX
  8
ガラス
 10
-3.875
 20
-58.325
 70
     8
  0
VERTEX
  8
ガラス
 10
-3.9
 20
-58.375
 70
     8
  0
VERTEX
  8
ガラス
 10
-3.9
 20
-58.425
 70
     8
  0
VERTEX
  8
ガラス
 10
-3.9
 20
-58.5
 70
     8
  0
VERTEX
  8
ガラス
 10
-3.925
 20
-58.55
 70
     8
  0
VERTEX
  8
ガラス
 10
-3.925
 20
-58.625
 70
     8
  0
VERTEX
  8
ガラス
 10
-3.925
 20
-58.675
 70
     8
  0
VERTEX
  8
ガラス
 10
-3.95
 20
-58.75
 70
     8
  0
VERTEX
  8
ガラス
 10
-3.95
 20
-58.8
 70
     8
  0
SEQEND
  0
ARC
  8
ガラス
  6
CONTINUOUS
 10
-4.88096
 20
-58.675975
 40
0.955135
 50
173.117443
 51
353.117443
  0
ENDBLK
  0
BLOCK
  2
*GRP_0048
 70
    65
 10
0.0
 20
0.0
  0
POLYLINE
  8
ガラス
  6
CONTINUOUS
 66
     1
 70
     4
  0
VERTEX
  8
ガラス
 10
-12.775
 20
-61.575
 70
     8
  0
VERTEX
  8
ガラス
 10
-12.675
 20
-61.575
 70
     8
  0
VERTEX
  8
ガラス
 10
-12.575
 20
-61.55
 70
     8
  0
VERTEX
  8
ガラス
 10
-12.5
 20
-61.55
 70
     8
  0
VERTEX
  8
ガラス
 10
-12.4
 20
-61.55
 70
     8
  0
VERTEX
  8
ガラス
 10
-12.3
 20
-61.525
 70
     8
  0
VERTEX
  8
ガラス
 10
-12.225
 20
-61.525
 70
     8
  0
VERTEX
  8
ガラス
 10
-12.125
 20
-61.525
 70
     8
  0
VERTEX
  8
ガラス
 10
-12.025
 20
-61.525
 70
     8
  0
VERTEX
  8
ガラス
 10
-11.95
 20
-61.5
 70
     8
  0
VERTEX
  8
ガラス
 10
-11.85
 20
-61.5
 70
     8
  0
VERTEX
  8
ガラス
 10
-11.775
 20
-61.5
 70
     8
  0
VERTEX
  8
ガラス
 10
-11.675
 20
-61.5
 70
     8
  0
VERTEX
  8
ガラス
 10
-11.6
 20
-61.525
 70
     8
  0
VERTEX
  8
ガラス
 10
-11.5
 20
-61.525
 70
     8
  0
VERTEX
  8
ガラス
 10
-11.425
 20
-61.525
 70
     8
  0
VERTEX
  8
ガラス
 10
-11.325
 20
-61.55
 70
     8
  0
VERTEX
  8
ガラス
 10
-11.25
 20
-61.55
 70
     8
  0
VERTEX
  8
ガラス
 10
-11.175
 20
-61.575
 70
     8
  0
VERTEX
  8
ガラス
 10
-11.1
 20
-61.6
 70
     8
  0
VERTEX
  8
ガラス
 10
-11.0
 20
-61.625
 70
     8
  0
VERTEX
  8
ガラス
 10
-10.925
 20
-61.65
 70
     8
  0
VERTEX
  8
ガラス
 10
-10.85
 20
-61.7
 70
     8
  0
VERTEX
  8
ガラス
 10
-10.775
 20
-61.725
 70
     8
  0
VERTEX
  8
ガラス
 10
-10.725
 20
-61.775
 70
     8
  0
VERTEX
  8
ガラス
 10
-10.65
 20
-61.825
 70
     8
  0
VERTEX
  8
ガラス
 10
-10.575
 20
-61.875
 70
     8
  0
VERTEX
  8
ガラス
 10
-10.5
 20
-61.925
 70
     8
  0
VERTEX
  8
ガラス
 10
-10.425
 20
-61.975
 70
     8
  0
VERTEX
  8
ガラス
 10
-10.375
 20
-62.025
 70
     8
  0
VERTEX
  8
ガラス
 10
-10.3
 20
-62.075
 70
     8
  0
VERTEX
  8
ガラス
 10
-10.25
 20
-62.15
 70
     8
  0
VERTEX
  8
ガラス
 10
-10.175
 20
-62.2
 70
     8
  0
VERTEX
  8
ガラス
 10
-10.1
 20
-62.275
 70
     8
  0
VERTEX
  8
ガラス
 10
-10.05
 20
-62.35
 70
     8
  0
VERTEX
  8
ガラス
 10
-9.975
 20
-62.4
 70
     8
  0
VERTEX
  8
ガラス
 10
-9.925
 20
-62.475
 70
     8
  0
VERTEX
  8
ガラス
 10
-9.875
 20
-62.55
 70
     8
  0
VERTEX
  8
ガラス
 10
-9.8
 20
-62.6
 70
     8
  0
VERTEX
  8
ガラス
 10
-9.75
 20
-62.675
 70
     8
  0
VERTEX
  8
ガラス
 10
-9.675
 20
-62.75
 70
     8
  0
SEQEND
  0
POLYLINE
  8
ガラス
  6
CONTINUOUS
 66
     1
 70
     4
  0
VERTEX
  8
ガラス
 10
-9.675
 20
-62.75
 70
     8
  0
VERTEX
  8
ガラス
 10
-9.75
 20
-62.75
 70
     8
  0
VERTEX
  8
ガラス
 10
-9.8
 20
-62.775
 70
     8
  0
VERTEX
  8
ガラス
 10
-9.875
 20
-62.775
 70
     8
  0
VERTEX
  8
ガラス
 10
-9.925
 20
-62.775
 70
     8
  0
VERTEX
  8
ガラス
 10
-9.975
 20
-62.775
 70
     8
  0
VERTEX
  8
ガラス
 10
-10.05
 20
-62.8
 70
     8
  0
VERTEX
  8
ガラス
 10
-10.1
 20
-62.8
 70
     8
  0
VERTEX
  8
ガラス
 10
-10.175
 20
-62.8
 70
     8
  0
VERTEX
  8
ガラス
 10
-10.225
 20
-62.825
 70
     8
  0
VERTEX
  8
ガラス
 10
-10.3
 20
-62.825
 70
     8
  0
VERTEX
  8
ガラス
 10
-10.35
 20
-62.825
 70
     8
  0
VERTEX
  8
ガラス
 10
-10.4
 20
-62.85
 70
     8
  0
VERTEX
  8
ガラス
 10
-10.475
 20
-62.85
 70
     8
  0
VERTEX
  8
ガラス
 10
-10.525
 20
-62.875
 70
     8
  0
VERTEX
  8
ガラス
 10
-10.6
 20
-62.875
 70
     8
  0
VERTEX
  8
ガラス
 10
-10.65
 20
-62.875
 70
     8
  0
VERTEX
  8
ガラス
 10
-10.725
 20
-62.9
 70
     8
  0
VERTEX
  8
ガラス
 10
-10.775
 20
-62.9
 70
     8
  0
VERTEX
  8
ガラス
 10
-10.825
 20
-62.925
 70
     8
  0
VERTEX
  8
ガラス
 10
-10.9
 20
-62.925
 70
     8
  0
VERTEX
  8
ガラス
 10
-10.95
 20
-62.95
 70
     8
  0
VERTEX
  8
ガラス
 10
-11.0
 20
-62.975
 70
     8
  0
VERTEX
  8
ガラス
 10
-11.075
 20
-62.975
 70
     8
  0
VERTEX
  8
ガラス
 10
-11.125
 20
-63.0
 70
     8
  0
VERTEX
  8
ガラス
 10
-11.175
 20
-63.025
 70
     8
  0
VERTEX
  8
ガラス
 10
-11.25
 20
-63.05
 70
     8
  0
VERTEX
  8
ガラス
 10
-11.3
 20
-63.05
 70
     8
  0
VERTEX
  8
ガラス
 10
-11.35
 20
-63.075
 70
     8
  0
VERTEX
  8
ガラス
 10
-11.425
 20
-63.1
 70
     8
  0
VERTEX
  8
ガラス
 10
-11.475
 20
-63.125
 70
     8
  0
VERTEX
  8
ガラス
 10
-11.525
 20
-63.15
 70
     8
  0
VERTEX
  8
ガラス
 10
-11.6
 20
-63.175
 70
     8
  0
VERTEX
  8
ガラス
 10
-11.65
 20
-63.175
 70
     8
  0
VERTEX
  8
ガラス
 10
-11.7
 20
-63.2
 70
     8
  0
VERTEX
  8
ガラス
 10
-11.75
 20
-63.225
 70
     8
  0
VERTEX
  8
ガラス
 10
-11.825
 20
-63.25
 70
     8
  0
VERTEX
  8
ガラス
 10
-11.875
 20
-63.275
 70
     8
  0
VERTEX
  8
ガラス
 10
-11.925
 20
-63.3
 70
     8
  0
VERTEX
  8
ガラス
 10
-12.0
 20
-63.325
 70
     8
  0
VERTEX
  8
ガラス
 10
-12.05
 20
-63.35
 70
     8
  0
SEQEND
  0
ARC
  8
ガラス
  6
CONTINUOUS
 10
-12.394359
 20
-62.453807
 40
0.955135
 50
112.264588
 51
292.264588
  0
ENDBLK
  0
BLOCK
  2
*GRP_0049
 70
    65
 10
0.0
 20
0.0
  0
LINE
  8
別途部材
  6
DOT
 10
-46.58471
 20
-75.87364
 11
-56.584707
 21
-75.87364
  0
LINE
  8
別途部材
  6
DOT
 10
-56.584707
 20
-85.873638
 11
-56.584707
 21
-75.87364
  0
INSERT
  2
*HAT_0001
  8
別途部材
 10
0.0
 20
0.0
  0
LINE
  8
別途部材
  6
DOT
 10
-46.58471
 20
-85.873638
 11
-46.58471
 21
-75.87364
  0
LINE
  8
別途部材
  6
DOT
 10
-46.58471
 20
-85.873638
 11
-56.584707
 21
-85.873638
  0
ENDBLK
  0
BLOCK
  2
*GRP_0050
 70
    65
 10
0.0
 20
0.0
  0
POLYLINE
  8
寸法
  6
CONTINUOUS
 66
     1
  0
VERTEX
  8
寸法
 10
22.826633
 20
-74.07146
  0
VERTEX
  8
寸法
 10
29.422595
 20
-83.77019
  0
VERTEX
  8
寸法
 10
44.515155
 20
-83.77019
  0
SEQEND
  0
ENDBLK
  0
BLOCK
  2
*GRP_0051
 70
    65
 10
0.0
 20
0.0
  0
POLYLINE
  8
寸法
  6
CONTINUOUS
 66
     1
  0
VERTEX
  8
寸法
 10
-37.802722
 20
-44.37187
  0
VERTEX
  8
寸法
 10
-45.897912
 20
-55.511932
  0
VERTEX
  8
寸法
 10
-64.763612
 20
-55.511932
  0
SEQEND
  0
ENDBLK
  0
BLOCK
  2
*GRP_0052
 70
    65
 10
0.0
 20
0.0
  0
POLYLINE
  8
寸法
  6
CONTINUOUS
 66
     1
  0
VERTEX
  8
寸法
 10
-16.500925
 20
-73.78923
  0
VERTEX
  8
寸法
 10
-22.5
 20
-70.05
  0
VERTEX
  8
寸法
 10
-29.078903
 20
-70.05
  0
SEQEND
  0
ENDBLK
  0
BLOCK
  2
*GRP_0053
 70
    65
 10
0.0
 20
0.0
  0
LINE
  8
通り芯
  6
CONTINUOUS
 10
-52.768347
 20
-47.373638
 11
-57.393215
 21
-47.373638
  0
LINE
  8
通り芯
  6
CONTINUOUS
 10
-56.584715
 20
-45.723638
 11
-54.584713
 21
-45.723638
  0
LINE
  8
通り芯
  6
CONTINUOUS
 10
-56.584715
 20
-49.023638
 11
-54.584713
 21
-49.023638
  0
LINE
  8
通り芯
  6
CONTINUOUS
 10
-55.084715
 20
-45.723638
 11
-55.084715
 21
-49.023638
  0
LINE
  8
通り芯
  6
CONTINUOUS
 10
-55.584717
 20
-45.723638
 11
-55.584717
 21
-49.023638
  0
LINE
  8
通り芯
  6
CONTINUOUS
 10
-56.084713
 20
-45.723638
 11
-56.084713
 21
-49.023638
  0
LINE
  8
型材断面
  6
CONTINUOUS
 10
-55.084723
 20
-47.373638
 11
-59.961035
 21
-47.373638
  0
LINE
  8
型材断面
  6
CONTINUOUS
 10
-58.084715
 20
-49.023638
 11
-56.08472
 21
-49.023638
  0
LINE
  8
型材断面
  6
CONTINUOUS
 10
-58.084715
 20
-45.723638
 11
-56.08472
 21
-45.723638
  0
LINE
  8
型材断面
  6
CONTINUOUS
 10
-57.584713
 20
-45.723638
 11
-57.584713
 21
-49.023638
  0
LINE
  8
型材断面
  6
CONTINUOUS
 10
-57.084717
 20
-45.723638
 11
-57.084717
 21
-49.023638
  0
LINE
  8
型材断面
  6
CONTINUOUS
 10
-56.584715
 20
-45.723638
 11
-56.584715
 21
-49.023638
  0
LINE
  8
ボルト／ビス
  6
CONTINUOUS
 10
-58.084715
 20
-44.373638
 11
-58.084715
 21
-50.373638
  0
LINE
  8
ボルト／ビス
  6
CONTINUOUS
 10
-58.084715
 20
-44.373638
 11
-58.584717
 21
-44.87364
  0
LINE
  8
ボルト／ビス
  6
CONTINUOUS
 10
-58.084715
 20
-50.373638
 11
-58.58471
 21
-49.873643
  0
LINE
  8
ボルト／ビス
  6
CONTINUOUS
 10
-58.584717
 20
-44.87364
 11
-58.58471
 21
-49.873643
  0
LINE
  8
ボルト／ビス
  6
CONTINUOUS
 10
-53.584707
 20
-44.373638
 11
-53.584707
 21
-50.373638
  0
LINE
  8
ボルト／ビス
  6
CONTINUOUS
 10
-53.584707
 20
-44.373638
 11
-54.584713
 21
-44.373638
  0
LINE
  8
ボルト／ビス
  6
CONTINUOUS
 10
-53.584707
 20
-50.373638
 11
-54.584705
 21
-50.373638
  0
LINE
  8
ボルト／ビス
  6
CONTINUOUS
 10
-54.584713
 20
-44.373638
 11
-54.584705
 21
-50.373638
  0
LINE
  8
ボルト／ビス
  6
CONTINUOUS
 10
-53.584707
 20
-45.373643
 11
-53.584707
 21
-45.373643
  0
ARC
  8
ボルト／ビス
  6
CONTINUOUS
 10
-53.584712
 20
-45.873635
 40
0.5
 50
0.000036
 51
90.0
  0
LINE
  8
ボルト／ビス
  6
CONTINUOUS
 10
-53.084713
 20
-45.873638
 11
-53.084705
 21
-48.873638
  0
LINE
  8
ボルト／ビス
  6
CONTINUOUS
 10
-53.584707
 20
-49.37364
 11
-53.584707
 21
-49.37364
  0
ARC
  8
ボルト／ビス
  6
CONTINUOUS
 10
-53.584711
 20
-48.873635
 40
0.5
 50
-90.0
 51
0.000041
  0
LINE
  8
ボルト／ビス
  6
CONTINUOUS
 10
-58.084715
 20
-45.373643
 11
-54.584713
 21
-45.373643
  0
LINE
  8
ボルト／ビス
  6
CONTINUOUS
 10
-58.084715
 20
-49.37364
 11
-54.584713
 21
-49.37364
  0
ENDBLK
  0
BLOCK
  2
*GRP_0054
 70
    65
 10
0.0
 20
0.0
  0
LINE
  8
通り芯
  6
CONTINUOUS
 10
-52.768347
 20
-72.373638
 11
-57.393215
 21
-72.373638
  0
LINE
  8
通り芯
  6
CONTINUOUS
 10
-56.584715
 20
-70.723638
 11
-54.584713
 21
-70.723638
  0
LINE
  8
通り芯
  6
CONTINUOUS
 10
-56.584715
 20
-74.023638
 11
-54.584713
 21
-74.023638
  0
LINE
  8
通り芯
  6
CONTINUOUS
 10
-55.084715
 20
-70.723638
 11
-55.084715
 21
-74.023638
  0
LINE
  8
通り芯
  6
CONTINUOUS
 10
-55.584717
 20
-70.723638
 11
-55.584717
 21
-74.023638
  0
LINE
  8
通り芯
  6
CONTINUOUS
 10
-56.084713
 20
-70.723638
 11
-56.084713
 21
-74.023638
  0
LINE
  8
型材断面
  6
CONTINUOUS
 10
-55.084723
 20
-72.373638
 11
-59.961035
 21
-72.373638
  0
LINE
  8
型材断面
  6
CONTINUOUS
 10
-58.084715
 20
-74.023638
 11
-56.08472
 21
-74.023638
  0
LINE
  8
型材断面
  6
CONTINUOUS
 10
-58.084715
 20
-70.723638
 11
-56.08472
 21
-70.723638
  0
LINE
  8
型材断面
  6
CONTINUOUS
 10
-57.584713
 20
-70.723638
 11
-57.584713
 21
-74.023638
  0
LINE
  8
型材断面
  6
CONTINUOUS
 10
-57.084717
 20
-70.723638
 11
-57.084717
 21
-74.023638
  0
LINE
  8
型材断面
  6
CONTINUOUS
 10
-56.584715
 20
-70.723638
 11
-56.584715
 21
-74.023638
  0
LINE
  8
ボルト／ビス
  6
CONTINUOUS
 10
-58.084715
 20
-69.373638
 11
-58.084715
 21
-75.373638
  0
LINE
  8
ボルト／ビス
  6
CONTINUOUS
 10
-58.084715
 20
-69.373638
 11
-58.584717
 21
-69.87364
  0
LINE
  8
ボルト／ビス
  6
CONTINUOUS
 10
-58.084715
 20
-75.373638
 11
-58.58471
 21
-74.873643
  0
LINE
  8
ボルト／ビス
  6
CONTINUOUS
 10
-58.584717
 20
-69.87364
 11
-58.58471
 21
-74.873643
  0
LINE
  8
ボルト／ビス
  6
CONTINUOUS
 10
-53.584707
 20
-69.373638
 11
-53.584707
 21
-75.373638
  0
LINE
  8
ボルト／ビス
  6
CONTINUOUS
 10
-53.584707
 20
-69.373638
 11
-54.584713
 21
-69.373638
  0
LINE
  8
ボルト／ビス
  6
CONTINUOUS
 10
-53.584707
 20
-75.373638
 11
-54.584705
 21
-75.373638
  0
LINE
  8
ボルト／ビス
  6
CONTINUOUS
 10
-54.584713
 20
-69.373638
 11
-54.584705
 21
-75.373638
  0
LINE
  8
ボルト／ビス
  6
CONTINUOUS
 10
-53.584707
 20
-70.373643
 11
-53.584707
 21
-70.373643
  0
ARC
  8
ボルト／ビス
  6
CONTINUOUS
 10
-53.584712
 20
-70.873635
 40
0.5
 50
0.000036
 51
90.0
  0
LINE
  8
ボルト／ビス
  6
CONTINUOUS
 10
-53.084713
 20
-70.873638
 11
-53.084705
 21
-73.873638
  0
LINE
  8
ボルト／ビス
  6
CONTINUOUS
 10
-53.584707
 20
-74.37364
 11
-53.584707
 21
-74.37364
  0
ARC
  8
ボルト／ビス
  6
CONTINUOUS
 10
-53.584711
 20
-73.873635
 40
0.5
 50
-90.0
 51
0.000041
  0
LINE
  8
ボルト／ビス
  6
CONTINUOUS
 10
-58.084715
 20
-70.373643
 11
-54.584713
 21
-70.373643
  0
LINE
  8
ボルト／ビス
  6
CONTINUOUS
 10
-58.084715
 20
-74.37364
 11
-54.584713
 21
-74.37364
  0
ENDBLK
  0
BLOCK
  2
*GRP_0055
 70
    65
 10
0.0
 20
0.0
  0
LINE
  8
通り芯
  6
CONTINUOUS
 10
-29.084717
 20
-82.05727
 11
-29.084717
 21
-86.682138
  0
LINE
  8
通り芯
  6
CONTINUOUS
 10
-30.734717
 20
-85.873638
 11
-30.734717
 21
-83.873635
  0
LINE
  8
通り芯
  6
CONTINUOUS
 10
-27.434717
 20
-85.873638
 11
-27.434717
 21
-83.873635
  0
LINE
  8
通り芯
  6
CONTINUOUS
 10
-30.734717
 20
-84.373638
 11
-27.434717
 21
-84.373638
  0
LINE
  8
通り芯
  6
CONTINUOUS
 10
-30.734717
 20
-84.87364
 11
-27.434717
 21
-84.87364
  0
LINE
  8
通り芯
  6
CONTINUOUS
 10
-30.734717
 20
-85.373635
 11
-27.434717
 21
-85.373635
  0
LINE
  8
型材断面
  6
CONTINUOUS
 10
-29.084717
 20
-84.373645
 11
-29.084717
 21
-89.249957
  0
LINE
  8
型材断面
  6
CONTINUOUS
 10
-27.434717
 20
-87.373638
 11
-27.434717
 21
-85.373643
  0
LINE
  8
型材断面
  6
CONTINUOUS
 10
-30.734717
 20
-87.373638
 11
-30.734717
 21
-85.373643
  0
LINE
  8
型材断面
  6
CONTINUOUS
 10
-30.734717
 20
-86.873635
 11
-27.434717
 21
-86.873635
  0
LINE
  8
型材断面
  6
CONTINUOUS
 10
-30.734717
 20
-86.37364
 11
-27.434717
 21
-86.37364
  0
LINE
  8
型材断面
  6
CONTINUOUS
 10
-30.734717
 20
-85.873638
 11
-27.434717
 21
-85.873638
  0
LINE
  8
ボルト／ビス
  6
CONTINUOUS
 10
-32.084717
 20
-87.373638
 11
-26.084717
 21
-87.373638
  0
LINE
  8
ボルト／ビス
  6
CONTINUOUS
 10
-32.084717
 20
-87.373638
 11
-31.584715
 21
-87.87364
  0
LINE
  8
ボルト／ビス
  6
CONTINUOUS
 10
-26.084717
 20
-87.373638
 11
-26.584713
 21
-87.873632
  0
LINE
  8
ボルト／ビス
  6
CONTINUOUS
 10
-31.584715
 20
-87.87364
 11
-26.584713
 21
-87.873632
  0
LINE
  8
ボルト／ビス
  6
CONTINUOUS
 10
-32.084717
 20
-82.87363
 11
-26.084717
 21
-82.87363
  0
LINE
  8
ボルト／ビス
  6
CONTINUOUS
 10
-32.084717
 20
-82.87363
 11
-32.084717
 21
-83.873635
  0
LINE
  8
ボルト／ビス
  6
CONTINUOUS
 10
-26.084717
 20
-82.87363
 11
-26.084717
 21
-83.873628
  0
LINE
  8
ボルト／ビス
  6
CONTINUOUS
 10
-32.084717
 20
-83.873635
 11
-26.084717
 21
-83.873628
  0
LINE
  8
ボルト／ビス
  6
CONTINUOUS
 10
-31.084713
 20
-82.87363
 11
-31.084713
 21
-82.87363
  0
ARC
  8
ボルト／ビス
  6
CONTINUOUS
 10
-30.584721
 20
-82.873636
 40
0.5
 50
90.000036
 51
180.0
  0
LINE
  8
ボルト／ビス
  6
CONTINUOUS
 10
-30.584717
 20
-82.373635
 11
-27.584717
 21
-82.373628
  0
LINE
  8
ボルト／ビス
  6
CONTINUOUS
 10
-27.084715
 20
-82.87363
 11
-27.084715
 21
-82.87363
  0
ARC
  8
ボルト／ビス
  6
CONTINUOUS
 10
-27.584721
 20
-82.873634
 40
0.5
 50
0.0
 51
90.000041
  0
LINE
  8
ボルト／ビス
  6
CONTINUOUS
 10
-31.084713
 20
-87.373638
 11
-31.084713
 21
-83.873635
  0
LINE
  8
ボルト／ビス
  6
CONTINUOUS
 10
-27.084715
 20
-87.373638
 11
-27.084715
 21
-83.873635
  0
ENDBLK
  0
BLOCK
  2
*GRP_0056
 70
    65
 10
0.0
 20
0.0
  0
ARC
  8
通り芯
  6
CONTINUOUS
 10
-54.584712
 20
-83.873633
 40
2.0
 50
180.0
 51
270.0
  0
INSERT
  2
*GRP_0053
  8
通り芯
  6
DOT
 10
0.0
 20
0.0
  0
INSERT
  2
*GRP_0054
  8
通り芯
  6
DOT
 10
0.0
 20
0.0
  0
INSERT
  2
*GRP_0055
  8
通り芯
  6
DOT
 10
0.0
 20
0.0
  0
ARC
  8
通り芯
  6
CONTINUOUS
 10
-22.584815
 20
-83.873633
 40
2.0
 50
270.0
 51
360.0
  0
LINE
  8
通り芯
  6
CONTINUOUS
 10
-54.584713
 20
-83.873635
 11
-22.584813
 21
-83.873635
  0
LINE
  8
通り芯
  6
CONTINUOUS
 10
-56.584715
 20
-85.873638
 11
-20.584818
 21
-85.873638
  0
LINE
  8
通り芯
  6
CONTINUOUS
 10
-20.584818
 20
-85.873638
 11
-20.584818
 21
-77.373643
  0
LINE
  8
通り芯
  6
CONTINUOUS
 10
-22.584813
 20
-83.873635
 11
-22.584813
 21
-77.373643
  0
LINE
  8
通り芯
  6
CONTINUOUS
 10
-20.584818
 20
-77.373643
 11
-22.584813
 21
-77.373643
  0
LINE
  8
通り芯
  6
CONTINUOUS
 10
-54.584713
 20
-83.873635
 11
-54.584713
 21
-38.873733
  0
LINE
  8
通り芯
  6
CONTINUOUS
 10
-56.584715
 20
-85.873638
 11
-56.584715
 21
-38.873678
  0
LINE
  8
通り芯
  6
CONTINUOUS
 10
-54.584713
 20
-38.873733
 11
-56.584715
 21
-38.873678
  0
ENDBLK
  0
BLOCK
  2
*GRP_0057
 70
    65
 10
0.0
 20
0.0
  0
POLYLINE
  8
寸法
  6
CONTINUOUS
 66
     1
  0
VERTEX
  8
寸法
 10
-58.584715
 20
-47.373638
  0
VERTEX
  8
寸法
 10
-64.04099
 20
-35.42436
  0
VERTEX
  8
寸法
 10
-72.040678
 20
-35.42436
  0
SEQEND
  0
ENDBLK
  0
ENDSEC
  0
SECTION
  2
ENTITIES
  0
POLYLINE
  8
通り芯
  6
CONTINUOUS
 66
     1
 70
     1
  0
VERTEX
  8
通り芯
 10
-210.0
 20
-148.5
  0
VERTEX
  8
通り芯
 10
210.0
 20
-148.5
  0
VERTEX
  8
通り芯
 10
210.0
 20
148.5
  0
VERTEX
  8
通り芯
 10
-210.0
 20
148.5
  0
SEQEND
  0
INSERT
  2
*GRP_0056
  8
通り芯
  6
DOT
 10
0.0
 20
0.0
  0
INSERT
  2
*GRP_0001
  8
型材断面
  6
CONTINUOUS
 10
0.0
 20
0.0
  0
LINE
  8
型材断面
  6
CONTINUOUS
 10
-9.790265
 20
-18.829382
 11
17.85577
 21
-46.47541
  0
LINE
  8
型材断面
  6
CONTINUOUS
 10
5.919737
 20
77.605938
 11
10.9824
 21
78.861235
  0
LINE
  8
型材断面
  6
CONTINUOUS
 10
5.919737
 20
77.605938
 11
10.9824
 21
76.35064
  0
LINE
  8
型材断面
  6
CONTINUOUS
 10
10.9824
 20
78.861235
 11
10.9824
 21
76.35064
  0
LINE
  8
型材断面
  6
CONTINUOUS
 10
5.919737
 20
77.605938
 11
116.775545
 21
77.605938
  0
LINE
  8
型材断面
  6
CONTINUOUS
 10
116.775545
 20
77.605938
 11
111.712882
 21
78.861235
  0
LINE
  8
型材断面
  6
CONTINUOUS
 10
116.775545
 20
77.605938
 11
111.712882
 21
76.35064
  0
LINE
  8
型材断面
  6
CONTINUOUS
 10
111.712882
 20
78.861235
 11
111.712882
 21
76.35064
  0
LINE
  8
型材断面
  6
CONTINUOUS
 10
114.729055
 20
77.605938
 11
109.666393
 21
78.861235
  0
LINE
  8
型材断面
  6
CONTINUOUS
 10
114.729055
 20
77.605938
 11
109.666393
 21
76.35064
  0
LINE
  8
型材断面
  6
CONTINUOUS
 10
109.666393
 20
78.861235
 11
109.666393
 21
76.35064
  0
LINE
  8
型材断面
  6
DASHDOT
 10
5.919737
 20
-65.429447
 11
5.919737
 21
77.605938
  0
LINE
  8
型材断面
  6
CONTINUOUS
 10
10.077595
 20
-38.697235
 11
65.940015
 21
17.165185
  0
LINE
  8
型材断面
  6
CONTINUOUS
 10
17.85577
 20
-46.47541
 11
73.71819
 21
9.38701
  0
LINE
  8
型材断面
  6
CONTINUOUS
 10
-9.790265
 20
-18.829382
 11
46.07216
 21
37.03304
  0
LINE
  8
型材断面
  6
CONTINUOUS
 10
-33.337205
 20
4.716965
 11
22.525518
 21
60.579687
  0
LINE
  8
型材断面
  6
CONTINUOUS
 10
-36.165042
 20
7.544795
 11
19.697688
 21
63.407517
  0
LINE
  8
型材断面
  6
CONTINUOUS
 62
    47
 10
-121.311168
 20
56.352425
 11
-122.01826
 21
56.352448
  0
LINE
  8
型材断面
  6
CONTINUOUS
 62
    47
 10
-121.311168
 20
56.352425
 11
-121.311153
 21
57.059525
  0
LINE
  8
型材断面
  6
CONTINUOUS
 62
    47
 10
-122.01826
 20
56.352448
 11
-125.200285
 21
53.170505
  0
LINE
  8
型材断面
  6
CONTINUOUS
 62
    47
 10
-132.978377
 20
59.53457
 11
-132.271263
 21
60.241662
  0
LINE
  8
型材断面
  6
CONTINUOUS
 62
    47
 10
-132.978377
 20
59.53457
 11
-132.978392
 21
58.120355
  0
LINE
  8
型材断面
  6
CONTINUOUS
 62
    47
 10
-132.978392
 20
58.120355
 11
-126.260973
 21
51.402748
  0
LINE
  8
型材断面
  6
CONTINUOUS
 62
    47
 10
-126.260973
 20
51.402748
 11
-124.13965
 21
51.402725
  0
LINE
  8
型材断面
  6
CONTINUOUS
 62
    47
 10
-121.311153
 20
57.059533
 11
-118.12912
 21
60.241482
  0
LINE
  8
型材断面
  6
CONTINUOUS
 62
    47
 10
-92.943595
 20
67.583052
 11
-101.6536
 21
76.292878
  0
LINE
  8
型材断面
  6
CONTINUOUS
 62
    47
 10
-106.249878
 20
64.625772
 11
-108.72478
 21
67.100622
  0
LINE
  8
型材断面
  6
CONTINUOUS
 62
    47
 10
-107.310557
 20
63.56513
 11
-110.846125
 21
67.10063
  0
LINE
  8
型材断面
  6
CONTINUOUS
 62
    47
 10
-108.72478
 20
67.100622
 11
-106.956985
 21
68.868365
  0
LINE
  8
型材断面
  6
CONTINUOUS
 62
    47
 10
-103.421403
 20
72.403843
 11
-101.653607
 21
74.171585
  0
LINE
  8
型材断面
  6
CONTINUOUS
 62
    47
 10
-99.178705
 20
71.696735
 11
-101.653607
 21
74.171585
  0
LINE
  8
型材断面
  6
CONTINUOUS
 62
    47
 10
-114.38182
 20
56.494085
 11
-107.310557
 21
63.56513
  0
LINE
  8
型材断面
  6
CONTINUOUS
 62
    47
 10
-106.249878
 20
64.625772
 11
-99.178705
 21
71.696735
  0
LINE
  8
型材断面
  6
CONTINUOUS
 62
    47
 10
-104.0578
 20
73.888753
 11
-101.65351
 21
76.292967
  0
LINE
  8
型材断面
  6
CONTINUOUS
 62
    47
 10
-104.0578
 20
73.040232
 11
-103.421403
 21
72.403843
  0
LINE
  8
型材断面
  6
CONTINUOUS
 62
    47
 10
-104.0578
 20
73.888753
 11
-104.0578
 21
73.040232
  0
LINE
  8
型材断面
  6
CONTINUOUS
 62
    47
 10
-108.441925
 20
69.504755
 11
-110.846125
 21
67.10063
  0
LINE
  8
型材断面
  6
CONTINUOUS
 62
    47
 10
-107.59339
 20
69.504755
 11
-106.956985
 21
68.868365
  0
LINE
  8
型材断面
  6
CONTINUOUS
 62
    47
 10
-108.441925
 20
69.504755
 11
-107.59339
 21
69.504755
  0
LINE
  8
型材断面
  6
CONTINUOUS
 62
    47
 10
-128.94784
 20
56.493882
 11
-128.94784
 21
56.91815
  0
LINE
  8
型材断面
  6
CONTINUOUS
 62
    47
 10
-128.94784
 20
56.493882
 11
-128.52358
 21
56.493882
  0
LINE
  8
型材断面
  6
CONTINUOUS
 62
    47
 10
-125.200285
 20
53.170505
 11
-128.52358
 21
56.493882
  0
LINE
  8
型材断面
  6
CONTINUOUS
 62
    47
 10
-128.94784
 20
56.91815
 11
-132.271263
 21
60.241662
  0
LINE
  8
型材断面
  6
CONTINUOUS
 62
    47
 10
-118.12912
 20
60.241482
 11
-117.20989
 21
59.32223
  0
LINE
  8
型材断面
  6
CONTINUOUS
 62
    47
 10
-117.20989
 20
59.32223
 11
-118.129143
 21
58.403008
  0
LINE
  8
型材断面
  6
CONTINUOUS
 62
    47
 10
-118.129143
 20
58.403008
 11
-116.43211
 21
56.705923
  0
LINE
  8
型材断面
  6
CONTINUOUS
 62
    47
 10
-116.43211
 20
56.705923
 11
-115.512857
 21
57.625152
  0
LINE
  8
型材断面
  6
CONTINUOUS
 62
    47
 10
-114.38182
 20
56.494085
 11
-115.512857
 21
57.625152
  0
LINE
  8
型材断面
  6
CONTINUOUS
 62
    47
 10
-98.118033
 20
70.918925
 11
-114.381843
 21
54.65561
  0
LINE
  8
型材断面
  6
CONTINUOUS
 62
    47
 10
-114.381843
 20
54.65561
 11
-115.512888
 21
55.786678
  0
LINE
  8
型材断面
  6
CONTINUOUS
 62
    47
 10
-121.143595
 20
50.15609
 11
-115.512888
 21
55.786678
  0
LINE
  8
型材断面
  6
CONTINUOUS
 62
    47
 10
-124.13965
 20
51.402725
 11
-122.866825
 21
52.67549
  0
LINE
  8
型材断面
  6
CONTINUOUS
 62
    47
 10
-122.866825
 20
52.67549
 11
-121.664755
 21
51.47339
  0
LINE
  8
型材断面
  6
CONTINUOUS
 62
    47
 10
-92.943595
 20
67.583052
 11
-92.943595
 21
48.69281
  0
LINE
  8
型材断面
  6
CONTINUOUS
 62
    47
 10
-121.664755
 20
51.47339
 11
-122.443592
 21
50.694568
  0
LINE
  8
型材断面
  6
CONTINUOUS
 62
    47
 10
-87.693588
 20
48.392802
 11
-87.993588
 21
48.692802
  0
LINE
  8
型材断面
  6
CONTINUOUS
 62
    47
 10
-87.693588
 20
48.392802
 11
-87.393588
 21
48.692802
  0
LINE
  8
型材断面
  6
CONTINUOUS
 62
    47
 10
-92.943595
 20
48.69281
 11
-87.993595
 21
48.69281
  0
LINE
  8
型材断面
  6
CONTINUOUS
 62
    47
 10
-98.118033
 20
70.918925
 11
-96.703802
 21
69.504725
  0
LINE
  8
型材断面
  6
CONTINUOUS
 62
    47
 10
-95.996695
 20
68.797625
 11
-94.443595
 21
67.244563
  0
LINE
  8
型材断面
  6
CONTINUOUS
 62
    47
 10
-96.70384
 20
69.504688
 11
-97.764483
 21
68.444075
  0
LINE
  8
型材断面
  6
CONTINUOUS
 62
    47
 10
-97.764483
 20
68.444075
 11
-97.057367
 21
67.736975
  0
LINE
  8
型材断面
  6
CONTINUOUS
 62
    47
 10
-95.996748
 20
68.797573
 11
-97.057367
 21
67.736975
  0
LINE
  8
型材断面
  6
CONTINUOUS
 62
    47
 10
-145.447885
 20
69.248488
 11
-144.747887
 21
69.248435
  0
LINE
  8
型材断面
  6
CONTINUOUS
 62
    47
 10
-144.747887
 20
68.24849
 11
-144.747887
 21
69.248435
  0
LINE
  8
型材断面
  6
CONTINUOUS
 62
    47
 10
-142.447885
 20
68.248437
 11
-144.747887
 21
68.24849
  0
LINE
  8
型材断面
  6
CONTINUOUS
 62
    47
 10
-147.147925
 20
73.048445
 11
-147.447872
 21
73.348438
  0
LINE
  8
型材断面
  6
CONTINUOUS
 62
    47
 10
-147.147925
 20
73.048445
 11
-147.44788
 21
72.74849
  0
ARC
  8
型材断面
  6
CONTINUOUS
 62
    47
 10
-146.947948
 20
76.548418
 40
0.5
 50
90.000009
 51
180.000009
  0
LINE
  8
型材断面
  6
CONTINUOUS
 62
    47
 10
-146.947877
 20
77.048322
 11
-145.94788
 21
77.048375
  0
ARC
  8
型材断面
  6
CONTINUOUS
 62
    47
 10
-145.947948
 20
76.548418
 40
0.5
 50
0.000009
 51
90.000009
  0
LINE
  8
型材断面
  6
CONTINUOUS
 62
    47
 10
-147.447872
 20
73.348438
 11
-147.447872
 21
76.548432
  0
LINE
  8
型材断面
  6
CONTINUOUS
 62
    47
 10
-145.447885
 20
69.248488
 11
-145.447877
 21
76.548432
  0
LINE
  8
型材断面
  6
CONTINUOUS
 62
    47
 10
-147.44788
 20
72.74849
 11
-147.447887
 21
66.74855
  0
LINE
  8
型材断面
  6
CONTINUOUS
 62
    47
 10
-149.948013
 20
66.748617
 11
-147.447887
 21
66.74855
  0
ARC
  8
型材断面
  6
CONTINUOUS
 62
    47
 10
-141.947866
 20
76.54864
 40
0.5
 50
90.0
 51
179.999951
  0
LINE
  8
型材断面
  6
CONTINUOUS
 62
    47
 10
-140.447875
 20
75.048447
 11
-140.947885
 21
75.548458
  0
LINE
  8
型材断面
  6
CONTINUOUS
 62
    47
 10
-140.447875
 20
71.048443
 11
-140.947885
 21
70.548432
  0
LINE
  8
型材断面
  6
CONTINUOUS
 62
    47
 10
-140.447875
 20
75.048447
 11
-140.447883
 21
71.048435
  0
LINE
  8
型材断面
  6
CONTINUOUS
 62
    47
 10
-141.947875
 20
77.048638
 11
-141.447887
 21
77.048638
  0
LINE
  8
型材断面
  6
CONTINUOUS
 62
    47
 10
-140.947885
 20
75.548458
 11
-140.947885
 21
76.548635
  0
ARC
  8
型材断面
  6
CONTINUOUS
 62
    47
 10
-141.447871
 20
76.54864
 40
0.5
 50
0.0
 51
90.0
  0
LINE
  8
型材断面
  6
CONTINUOUS
 62
    47
 10
-146.247887
 20
67.04852
 11
-146.247887
 21
65.54852
  0
LINE
  8
型材断面
  6
CONTINUOUS
 62
    47
 10
-146.247887
 20
65.54852
 11
-148.448042
 21
65.54858
  0
LINE
  8
型材断面
  6
CONTINUOUS
 62
    47
 10
-140.947885
 20
70.548432
 11
-140.947885
 21
68.2484
  0
LINE
  8
型材断面
  6
CONTINUOUS
 62
    47
 10
-138.64804
 20
57.948313
 11
-148.448042
 21
57.948582
  0
LINE
  8
型材断面
  6
CONTINUOUS
 62
    47
 10
-148.448042
 20
65.54858
 11
-148.448042
 21
57.948582
  0
LINE
  8
型材断面
  6
CONTINUOUS
 62
    47
 10
-145.948038
 20
56.748582
 11
-145.948038
 21
55.248515
  0
LINE
  8
型材断面
  6
CONTINUOUS
 62
    47
 10
-145.948038
 20
55.248515
 11
-144.94804
 21
55.248485
  0
LINE
  8
型材断面
  6
CONTINUOUS
 62
    47
 10
-144.94804
 20
56.748582
 11
-144.94804
 21
55.248485
  0
LINE
  8
型材断面
  6
CONTINUOUS
 62
    47
 10
-148.448042
 20
56.748582
 11
-145.948038
 21
56.748515
  0
LINE
  8
型材断面
  6
CONTINUOUS
 62
    47
 10
-142.14802
 20
73.048445
 11
-142.447967
 21
73.348438
  0
LINE
  8
型材断面
  6
CONTINUOUS
 62
    47
 10
-142.14802
 20
73.048445
 11
-142.447975
 21
72.74849
  0
LINE
  8
型材断面
  6
CONTINUOUS
 62
    47
 10
-142.447877
 20
76.548635
 11
-142.447877
 21
73.348348
  0
LINE
  8
型材断面
  6
CONTINUOUS
 62
    47
 10
-142.447877
 20
72.748588
 11
-142.447885
 21
68.248437
  0
LINE
  8
型材断面
  6
CONTINUOUS
 62
    47
 10
-131.564207
 20
49.635043
 11
-133.68553
 21
48.220828
  0
LINE
  8
型材断面
  6
CONTINUOUS
 62
    47
 10
-137.22106
 20
51.756365
 11
-135.806868
 21
53.87765
  0
LINE
  8
型材断面
  6
CONTINUOUS
 62
    47
 10
-134.517257
 20
46.224125
 11
-131.71711
 21
48.09089
  0
LINE
  8
型材断面
  6
CONTINUOUS
 62
    47
 10
-131.71711
 20
48.09089
 11
-130.99852
 21
47.3723
  0
LINE
  8
型材断面
  6
CONTINUOUS
 62
    47
 10
-130.99852
 20
47.3723
 11
-130.149993
 21
48.220828
  0
LINE
  8
型材断面
  6
CONTINUOUS
 62
    47
 10
-131.564207
 20
49.635043
 11
-130.149993
 21
48.220828
  0
LINE
  8
型材断面
  6
CONTINUOUS
 62
    47
 10
-134.517257
 20
46.224125
 11
-139.217763
 21
50.924638
  0
LINE
  8
型材断面
  6
CONTINUOUS
 62
    47
 10
-139.217763
 20
50.924638
 11
-137.520723
 21
53.470205
  0
LINE
  8
型材断面
  6
CONTINUOUS
 62
    47
 10
-135.665433
 20
49.776462
 11
-135.665433
 21
50.20073
  0
LINE
  8
型材断面
  6
CONTINUOUS
 62
    47
 10
-135.665433
 20
49.776462
 11
-135.241165
 21
49.776462
  0
LINE
  8
型材断面
  6
CONTINUOUS
 62
    47
 10
-137.22106
 20
51.756365
 11
-135.665433
 21
50.20073
  0
LINE
  8
型材断面
  6
CONTINUOUS
 62
    47
 10
-135.241165
 20
49.776462
 11
-133.68553
 21
48.220828
  0
LINE
  8
型材断面
  6
CONTINUOUS
 62
    47
 10
-135.806868
 20
53.87765
 11
-137.44804
 21
55.518882
  0
LINE
  8
型材断面
  6
CONTINUOUS
 62
    47
 10
-137.520723
 20
53.470205
 11
-138.94804
 21
54.897575
  0
LINE
  8
型材断面
  6
CONTINUOUS
 62
    47
 10
-138.94804
 20
54.897575
 11
-138.94804
 21
56.74832
  0
LINE
  8
型材断面
  6
CONTINUOUS
 62
    47
 10
-144.94804
 20
56.748485
 11
-138.94804
 21
56.74832
  0
LINE
  8
型材断面
  6
CONTINUOUS
 62
    47
 10
-146.247887
 20
67.04852
 11
-140.77519
 21
67.048408
  0
LINE
  8
型材断面
  6
CONTINUOUS
 62
    47
 10
-140.947885
 20
68.2484
 11
-140.27812
 21
68.248385
  0
LINE
  8
型材断面
  6
CONTINUOUS
 62
    47
 10
-140.77519
 20
67.048408
 11
-138.64804
 21
64.92125
  0
LINE
  8
型材断面
  6
CONTINUOUS
 62
    47
 10
-138.64804
 20
57.948313
 11
-138.64804
 21
64.92125
  0
LINE
  8
型材断面
  6
CONTINUOUS
 62
    47
 10
-137.44804
 20
55.518882
 11
-137.44804
 21
64.290245
  0
LINE
  8
型材断面
  6
CONTINUOUS
 62
    47
 10
-137.44804
 20
64.290245
 11
-136.884003
 21
64.854275
  0
LINE
  8
型材断面
  6
CONTINUOUS
 62
    47
 10
-140.27812
 20
68.248385
 11
-136.884003
 21
64.854275
  0
LINE
  8
型材断面
  6
CONTINUOUS
 62
    47
 10
-92.943595
 20
47.19281
 11
-92.943595
 21
41.723812
  0
LINE
  8
型材断面
  6
CONTINUOUS
 62
    47
 10
-94.443595
 20
67.244563
 11
-94.443595
 21
41.723812
  0
LINE
  8
型材断面
  6
CONTINUOUS
 62
    47
 10
-121.143595
 20
50.15609
 11
-121.143595
 21
41.723812
  0
LINE
  8
型材断面
  6
CONTINUOUS
 62
    47
 10
-122.443592
 20
50.694568
 11
-122.443592
 21
41.723812
  0
LINE
  8
型材断面
  6
CONTINUOUS
 62
    47
 10
-149.948042
 20
66.748617
 11
-149.948042
 21
41.723812
  0
LINE
  8
型材断面
  6
CONTINUOUS
 62
    47
 10
-148.448042
 20
56.748582
 11
-148.448042
 21
41.723812
  0
LINE
  8
型材断面
  6
CONTINUOUS
 10
-101.653593
 20
76.292878
 11
-84.790703
 21
93.155767
  0
LINE
  8
型材断面
  6
CONTINUOUS
 10
-101.653593
 20
76.292878
 11
-84.790703
 21
59.429992
  0
LINE
  8
型材断面
  6
CONTINUOUS
 62
    47
 10
-92.943595
 20
47.19281
 11
-84.790703
 21
47.19281
  0
LINE
  8
型材断面
  6
CONTINUOUS
 62
    47
 10
-87.39358
 20
48.69281
 11
-84.790703
 21
48.69281
  0
INSERT
  2
*GRP_0031
  8
型材断面
  6
DOT
 10
0.0
 20
0.0
  0
INSERT
  2
*GRP_0032
  8
型材断面
  6
DOT
 10
0.0
 20
0.0
  0
INSERT
  2
*GRP_0033
  8
型材断面
  6
DOT
 10
0.0
 20
0.0
  0
INSERT
  2
*GRP_0034
  8
型材断面
  6
DOT
 10
0.0
 20
0.0
  0
LINE
  8
ガラス
  6
CONTINUOUS
 10
-38.64038
 20
-15.43495
 11
-26.053895
 21
-28.021443
  0
LINE
  8
ガラス
  6
CONTINUOUS
 10
-26.619515
 20
-18.97054
 11
-30.862145
 21
-14.72791
  0
LINE
  8
ガラス
  6
CONTINUOUS
 10
-30.862145
 20
-14.72791
 11
-30.86222
 21
-23.213118
  0
LINE
  8
ガラス
  6
CONTINUOUS
 10
-35.10485
 20
-18.97048
 11
-26.619515
 21
-18.97054
  0
LINE
  8
ガラス
  6
CONTINUOUS
 10
-26.407445
 20
-27.667893
 11
42.183895
 21
40.921307
  0
LINE
  8
ガラス
  6
CONTINUOUS
 10
-26.053895
 20
-28.021443
 11
42.537445
 21
40.567757
  0
LINE
  8
ガラス
  6
CONTINUOUS
 10
-30.86222
 20
-23.213118
 11
37.729115
 21
45.376087
  0
LINE
  8
ガラス
  6
CONTINUOUS
 10
-30.508662
 20
-23.566675
 11
38.082673
 21
45.02253
  0
LINE
  8
ガラス
  6
CONTINUOUS
 10
-35.10485
 20
-18.97048
 11
33.486485
 21
49.61872
  0
LINE
  8
ガラス
  6
CONTINUOUS
 10
-35.458407
 20
-18.616922
 11
33.132928
 21
49.972278
  0
LINE
  8
ガラス
  6
CONTINUOUS
 10
-38.64038
 20
-15.43495
 11
29.95095
 21
53.154255
  0
LINE
  8
ガラス
  6
CONTINUOUS
 10
-38.28683
 20
-15.7885
 11
30.3045
 21
52.800705
  0
LINE
  8
ガラス
  6
CONTINUOUS
 10
-124.98811
 20
74.171705
 11
-129.796428
 21
78.98003
  0
LINE
  8
ガラス
  6
CONTINUOUS
 10
-129.796428
 20
78.98003
 11
-94.77763
 21
113.997742
  0
LINE
  8
ガラス
  6
CONTINUOUS
 10
-129.442878
 20
78.62648
 11
-94.070518
 21
113.997742
  0
LINE
  8
ガラス
  6
CONTINUOUS
 10
-125.34166
 20
74.525262
 11
-85.867955
 21
113.997742
  0
LINE
  8
ガラス
  6
CONTINUOUS
 10
-124.98811
 20
74.171705
 11
-85.160845
 21
113.997742
  0
INSERT
  2
*GRP_0035
  8
ガラス
  6
CONTINUOUS
 10
0.0
 20
0.0
  0
INSERT
  2
*GRP_0036
  8
ガラス
  6
CONTINUOUS
 10
0.0
 20
0.0
  0
INSERT
  2
*GRP_0037
  8
ガラス
  6
CONTINUOUS
 10
0.0
 20
0.0
  0
INSERT
  2
*GRP_0038
  8
ガラス
  6
CONTINUOUS
 10
0.0
 20
0.0
  0
INSERT
  2
*GRP_0039
  8
ガラス
  6
CONTINUOUS
 10
0.0
 20
0.0
  0
INSERT
  2
*GRP_0040
  8
ガラス
  6
CONTINUOUS
 10
0.0
 20
0.0
  0
INSERT
  2
*GRP_0041
  8
ガラス
  6
CONTINUOUS
 10
0.0
 20
0.0
  0
INSERT
  2
*GRP_0042
  8
ガラス
  6
CONTINUOUS
 10
0.0
 20
0.0
  0
INSERT
  2
*GRP_0043
  8
ガラス
  6
CONTINUOUS
 10
0.0
 20
0.0
  0
INSERT
  2
*GRP_0044
  8
ガラス
  6
CONTINUOUS
 10
0.0
 20
0.0
  0
INSERT
  2
*GRP_0045
  8
ガラス
  6
CONTINUOUS
 10
0.0
 20
0.0
  0
INSERT
  2
*GRP_0046
  8
ガラス
  6
CONTINUOUS
 10
0.0
 20
0.0
  0
INSERT
  2
*GRP_0047
  8
ガラス
  6
CONTINUOUS
 10
0.0
 20
0.0
  0
INSERT
  2
*GRP_0048
  8
ガラス
  6
CONTINUOUS
 10
0.0
 20
0.0
  0
INSERT
  2
*GRP_0002
  8
ゴム等
  6
CONTINUOUS
 62
    63
 10
0.0
 20
0.0
  0
INSERT
  2
*GRP_0003
  8
ゴム等
  6
DOT
 62
    63
 10
0.0
 20
0.0
  0
INSERT
  2
*GRP_0004
  8
ゴム等
  6
CONTINUOUS
 62
    63
 10
0.0
 20
0.0
  0
INSERT
  2
*GRP_0005
  8
ゴム等
  6
CONTINUOUS
 10
0.0
 20
0.0
  0
INSERT
  2
*GRP_0026
  8
ゴム等
  6
DOT
 62
    63
 10
0.0
 20
0.0
  0
INSERT
  2
*GRP_0027
  8
ゴム等
  6
CONTINUOUS
 62
    63
 10
0.0
 20
0.0
  0
INSERT
  2
*GRP_0006
  8
ボルト／ビス
  6
CONTINUOUS
 10
0.0
 20
0.0
  0
INSERT
  2
*GRP_0007
  8
ボルト／ビス
  6
CONTINUOUS
 10
0.0
 20
0.0
  0
INSERT
  2
*GRP_0008
  8
ボルト／ビス
  6
CONTINUOUS
 62
    64
 10
0.0
 20
0.0
  0
INSERT
  2
*GRP_0009
  8
ボルト／ビス
  6
CONTINUOUS
 62
    64
 10
0.0
 20
0.0
  0
INSERT
  2
*GRP_0028
  8
ボルト／ビス
  6
CONTINUOUS
 10
0.0
 20
0.0
  0
TEXT
  7
TextStyle03
  8
文字
  6
CONTINUOUS
 10
82.1
 20
91.825
  1
ＮＳコード：ＮＳ４ＣＫ
 40
5.0
 72
     5
 11
143.35
 21
91.825
  0
TEXT
  7
TextStyle03
  8
文字
  6
CONTINUOUS
 10
82.25
 20
112.55
  1
シリーズ：ＴＦ４Ｋ
 40
5.0
 72
     5
 11
132.25
 21
112.55
  0
TEXT
  7
TextStyle03
  8
文字
  6
CONTINUOUS
 10
82.25
 20
106.925
  1
　　　　　四角錘（固定）
 40
5.0
 72
     5
 11
149.125
 21
106.925
  0
TEXT
  7
TextStyle03
  8
文字
  6
CONTINUOUS
 10
82.25
 20
101.3
  1
図面名　：下枠断面詳細図
 40
5.0
 72
     5
 11
149.125
 21
101.3
  0
TEXT
  7
TextStyle03
  8
文字
  6
CONTINUOUS
 10
67.7
 20
78.625
  1
呼称寸法
 40
3.5
 72
     5
 11
83.05
 21
78.625
  0
TEXT
  7
TextStyle03
  8
文字
  6
CONTINUOUS
 10
28.2
 20
-118.775
  1
コーナー部工場シール
 40
4.0
 72
     5
 11
72.7
 21
-118.775
  0
TEXT
  7
TextStyle03
  8
文字
  6
CONTINUOUS
 10
23.65
 20
-94.475
  1
全周シール
 40
4.0
 72
     5
 11
45.65
 21
-94.475
  0
POLYLINE
  8
文字
  6
CONTINUOUS
 66
     1
 70
     1
  0
VERTEX
  8
文字
 10
-84.790703
 20
113.997742
  0
VERTEX
  8
文字
 10
-159.01748
 20
113.997742
  0
VERTEX
  8
文字
 10
-159.01748
 20
41.723812
  0
VERTEX
  8
文字
 10
-84.790703
 20
41.723812
  0
SEQEND
  0
TEXT
  7
TextStyle03
  8
文字
  6
CONTINUOUS
 10
-147.675
 20
107.825
  1
シングルガラスタイプ
 40
3.5
 72
     5
 11
-108.625
 21
107.825
  0
TEXT
  7
TextStyle03
  8
文字
  6
CONTINUOUS
 10
44.975
 20
-85.425
  1
アンカー　St-3.2t
 40
4.0
 72
     5
 11
82.975
 21
-85.425
  0
TEXT
  7
TextStyle03
  8
文字
  6
CONTINUOUS
 10
-83.475
 20
-57.65
  1
TKR-1401
 40
4.0
 72
     5
 11
-65.725
 21
-57.65
  0
TEXT
  7
TextStyle03
  8
文字
  6
CONTINUOUS
 10
-47.875
 20
-72.0
  1
TKR-1402
 40
4.0
 72
     5
 11
-30.125
 21
-72.0
  0
TEXT
  7
TextStyle03
  8
文字
  6
CONTINUOUS
 10
-94.475
 20
-37.15
  1
M4リベット
 40
4.0
 72
     5
 11
-72.475
 21
-37.15
  0
TEXT
  7
TextStyle03
  8
文字
  6
CONTINUOUS
 10
-94.475
 20
-41.65
  1
(コーナー)
 40
4.0
 72
     5
 11
-72.225
 21
-41.65
  0
INSERT
  2
*GRP_0010
  8
寸法
  6
CONTINUOUS
 10
0.0
 20
0.0
  0
INSERT
  2
*GRP_0011
  8
寸法
  6
CONTINUOUS
 10
0.0
 20
0.0
  0
INSERT
  2
*GRP_0012
  8
寸法
  6
CONTINUOUS
 10
0.0
 20
0.0
  0
INSERT
  2
*DIM_0014
  8
寸法
  6
CONTINUOUS
 10
0.0
 20
0.0
  0
INSERT
  2
*DIM_0015
  8
寸法
  6
CONTINUOUS
 10
0.0
 20
0.0
  0
INSERT
  2
*DIM_0016
  8
寸法
  6
CONTINUOUS
 10
0.0
 20
0.0
  0
INSERT
  2
*DIM_0017
  8
寸法
  6
CONTINUOUS
 10
0.0
 20
0.0
  0
INSERT
  2
*DIM_0018
  8
寸法
  6
CONTINUOUS
 10
0.0
 20
0.0
  0
INSERT
  2
*DIM_0019
  8
寸法
  6
CONTINUOUS
 10
0.0
 20
0.0
  0
INSERT
  2
*DIM_0020
  8
寸法
  6
CONTINUOUS
 10
0.0
 20
0.0
  0
INSERT
  2
*DIM_0021
  8
寸法
  6
CONTINUOUS
 10
0.0
 20
0.0
  0
INSERT
  2
*DIM_0022
  8
寸法
  6
CONTINUOUS
 10
0.0
 20
0.0
  0
INSERT
  2
*GRP_0023
  8
寸法
  6
CONTINUOUS
 10
0.0
 20
0.0
  0
INSERT
  2
*GRP_0024
  8
寸法
  6
CONTINUOUS
 10
0.0
 20
0.0
  0
INSERT
  2
*GRP_0025
  8
寸法
  6
CONTINUOUS
 10
0.0
 20
0.0
  0
INSERT
  2
*GRP_0029
  8
寸法
  6
CONTINUOUS
 10
0.0
 20
0.0
  0
INSERT
  2
*GRP_0050
  8
寸法
  6
CONTINUOUS
 10
0.0
 20
0.0
  0
INSERT
  2
*GRP_0051
  8
寸法
  6
CONTINUOUS
 10
0.0
 20
0.0
  0
INSERT
  2
*GRP_0052
  8
寸法
  6
CONTINUOUS
 10
0.0
 20
0.0
  0
INSERT
  2
*GRP_0057
  8
寸法
  6
CONTINUOUS
 10
0.0
 20
0.0
  0
INSERT
  2
*HAT_0002
  8
ﾊｯﾁﾝｸﾞ
 10
0.0
 20
0.0
  0
INSERT
  2
*HAT_0003
  8
ﾊｯﾁﾝｸﾞ
 10
0.0
 20
0.0
  0
INSERT
  2
*HAT_0004
  8
ﾊｯﾁﾝｸﾞ
 10
0.0
 20
0.0
  0
INSERT
  2
*HAT_0005
  8
ﾊｯﾁﾝｸﾞ
 10
0.0
 20
0.0
  0
INSERT
  2
*HAT_0006
  8
ﾊｯﾁﾝｸﾞ
 10
0.0
 20
0.0
  0
INSERT
  2
*GRP_0049
  8
別途部材
  6
DOT
 10
0.0
 20
0.0
  0
INSERT
  2
*GRP_0013
  8
St
  6
DOT
 10
0.0
 20
0.0
  0
LINE
  8
その他部品等
  6
CONTINUOUS
 10
-36.165042
 20
7.544795
 11
-15.659922
 21
7.544795
  0
LINE
  8
その他部品等
  6
CONTINUOUS
 10
-32.98376
 20
-9.778607
 11
-41.822495
 21
-0.939873
  0
LINE
  8
その他部品等
  6
CONTINUOUS
 10
-38.640613
 20
-15.43546
 11
-47.479348
 21
-6.596725
  0
LINE
  8
その他部品等
  6
CONTINUOUS
 10
-47.479348
 20
-6.596725
 11
-32.98376
 21
-9.778607
  0
LINE
  8
その他部品等
  6
CONTINUOUS
 10
-2.77706
 20
-72.429445
 11
-9.684815
 21
-77.97364
  0
LINE
  8
その他部品等
  6
CONTINUOUS
 10
-39.084717
 20
-101.37364
 11
-19.584822
 21
-95.273643
  0
LINE
  8
その他部品等
  6
CONTINUOUS
 10
-17.195907
 20
-95.08786
 11
-9.684815
 21
-77.97364
  0
INSERT
  2
*GRP_0030
  8
その他部品等
  6
CONTINUOUS
 10
0.0
 20
0.0
  0
LINE
  8
その他部品等
  6
CONTINUOUS
 10
-139.342675
 20
88.525535
 11
-129.796803
 21
78.979663
  0
LINE
  8
その他部品等
  6
CONTINUOUS
 10
-133.685823
 20
94.182388
 11
-124.13986
 21
84.636425
  0
LINE
  8
その他部品等
  6
CONTINUOUS
 10
-128.02837
 20
102.667055
 11
-106.108667
 21
102.667055
  0
LINE
  8
その他部品等
  6
CONTINUOUS
 10
-139.342675
 20
88.525535
 11
-124.13986
 21
84.636425
  0
ENDSEC
  0
EOF
