  0
SECTION
  2
HEADER
  9
$EXTMIN
 10
-210.0
 20
-148.5
  9
$EXTMAX
 10
210.0
 20
148.5
  9
$PDMODE
 70
    32
  9
$PDSIZE
 40
1.5
  9
$LTSCALE
 40
10.0
  0
ENDSEC
  0
SECTION
  2
TABLES
  0
TABLE
  2
LTYPE
 70
    15
  0
LTYPE
  2
CONTINUOUS
 70
    64
  3
実線
 72
    65
 73
     0
 40
0.0
  0
LTYPE
  2
DASHED
 70
    64
  3
破線A
 72
    65
 73
     2
 40
0.6
 49
0.4
 49
-0.2
  0
LTYPE
  2
DASHEDX2
 70
    64
  3
破線B
 72
    65
 73
     2
 40
1.3
 49
0.9
 49
-0.4
  0
LTYPE
  2
DASHDOT
 70
    64
  3
１点鎖線A
 72
    65
 73
     4
 40
0.5375
 49
0.375
 49
-0.05
 49
0.0625
 49
-0.05
  0
LTYPE
  2
DASHDOTX2
 70
    64
  3
１点鎖線B
 72
    65
 73
     4
 40
1.075
 49
0.75
 49
-0.1
 49
0.125
 49
-0.1
  0
LTYPE
  2
DIVIDE2
 70
    64
  3
２点鎖線A
 72
    65
 73
     6
 40
0.5125
 49
0.3
 49
-0.0375
 49
0.05
 49
-0.0375
 49
0.05
 49
-0.0375
  0
LTYPE
  2
DIVIDE
 70
    64
  3
２点鎖線B
 72
    65
 73
     6
 40
1.05
 49
0.55
 49
-0.1
 49
0.1
 49
-0.1
 49
0.1
 49
-0.1
  0
LTYPE
  2
DOT
 70
    64
  3
点線A
 72
    65
 73
     2
 40
0.1125
 49
0.0625
 49
-0.05
  0
LTYPE
  2
DOTX2
 70
    64
  3
点線B
 72
    65
 73
     2
 40
0.275
 49
0.15
 49
-0.125
  0
LTYPE
  2
CONTINUOUS
 70
    64
  3
実線
 72
    65
 73
     0
 40
0.0
  0
LTYPE
  2
CONTINUOUS
 70
    64
  3
実線
 72
    65
 73
     0
 40
0.0
  0
LTYPE
  2
CONTINUOUS
 70
    64
  3
実線
 72
    65
 73
     0
 40
0.0
  0
LTYPE
  2
CONTINUOUS
 70
    64
  3
実線
 72
    65
 73
     0
 40
0.0
  0
LTYPE
  2
CONTINUOUS
 70
    64
  3
実線
 72
    65
 73
     0
 40
0.0
  0
LTYPE
  2
CONTINUOUS
 70
    64
  3
実線
 72
    65
 73
     0
 40
0.0
  0
ENDTAB
  0
TABLE
  2
LAYER
 70
    35
  0
LAYER
  2
通り芯
 70
     0
 62
    15
  6
CONTINUOUS
  0
LAYER
  2
補助線
 70
     0
 62
    16
  6
DOT
  0
LAYER
  2
躯体
 70
     0
 62
    31
  6
CONTINUOUS
  0
LAYER
  2
型材
 70
     0
 62
    32
  6
CONTINUOUS
  0
LAYER
  2
型材断面
 70
     0
 62
    47
  6
CONTINUOUS
  0
LAYER
  2
ガラス
 70
     0
 62
    48
  6
CONTINUOUS
  0
LAYER
  2
ゴム等
 70
     0
 62
    63
  6
CONTINUOUS
  0
LAYER
  2
ボルト／ビス
 70
     0
 62
    64
  6
CONTINUOUS
  0
LAYER
  2
文字
 70
     0
 62
    79
  6
CONTINUOUS
  0
LAYER
  2
寸法
 70
     0
 62
    80
  6
CONTINUOUS
  0
LAYER
  2
ﾊｯﾁﾝｸﾞ
 70
     0
 62
    95
  6
CONTINUOUS
  0
LAYER
  2
別途部材
 70
     0
 62
    96
  6
CONTINUOUS
  0
LAYER
  2
曲げ物
 70
     0
 62
   111
  6
CONTINUOUS
  0
LAYER
  2
鉄骨等
 70
     0
 62
   112
  6
CONTINUOUS
  0
LAYER
  2
St
 70
     0
 62
   127
  6
CONTINUOUS
  0
LAYER
  2
その他部品等
 70
     0
 62
   128
  6
CONTINUOUS
  0
LAYER
  2
ｶﾞｽｹｯﾄ
 70
     0
 62
   143
  6
CONTINUOUS
  0
LAYER
  2
ｽｹｯﾁ
 70
     0
 62
    14
  6
CONTINUOUS
  0
LAYER
  2
0
 70
     0
 62
    17
  6
CONTINUOUS
  0
LAYER
  2
1
 70
     0
 62
    30
  6
CONTINUOUS
  0
LAYER
  2
4
 70
     0
 62
    33
  6
CONTINUOUS
  0
LAYER
  2
ﾚｲﾔ3
 70
     0
 62
    46
  6
CONTINUOUS
  0
LAYER
  2
外形線
 70
     0
 62
    49
  6
CONTINUOUS
  0
LAYER
  2
部品
 70
     0
 62
    14
  6
CONTINUOUS
  0
LAYER
  2
サッシ芯
 70
     0
 62
    17
  6
DASHDOTX2
  0
LAYER
  2
寸法線
 70
     0
 62
    62
  6
CONTINUOUS
  0
LAYER
  2
姿図外形線
 70
     0
 62
    65
  6
CONTINUOUS
  0
LAYER
  2
姿補助線
 70
     0
 62
    30
  6
CONTINUOUS
  0
LAYER
  2
透視線
 70
     0
 62
    78
  6
DOT
  0
LAYER
  2
用紙
 70
     0
 62
    81
  6
CONTINUOUS
  0
LAYER
  2
実線図枠
 70
     0
 62
    94
  6
CONTINUOUS
  0
LAYER
  2
補助図枠
 70
     0
 62
    97
  6
CONTINUOUS
  0
LAYER
  2
建具記号
 70
     0
 62
   110
  6
CONTINUOUS
  0
LAYER
  2
補助文字
 70
     0
 62
   113
  6
CONTINUOUS
  0
LAYER
  2
01
 70
     0
 62
     1
  6
CONTINUOUS
  0
ENDTAB
  0
TABLE
  2
STYLE
 70
    10
  0
STYLE
  2
STANDARD
 70
     0
 40
1.0
 41
1.0
 42
1.0
 50
0.0
 71
     0
  3
TXT
  4
BIGFONT
  0
STYLE
  2
TATE
 70
     4
 40
1.0
 41
1.0
 42
1.0
 50
0.0
 71
     0
  3
TXT
  4
BIGFONT
  0
STYLE
  2
TextStyle03
 70
     0
 40
1.0
 41
1.0
 42
1.0
 50
0.0
 71
     0
  3
MONOTXT
  4
BIGFONT
  0
STYLE
  2
TextStyle04
 70
     0
 40
1.0
 41
1.0
 42
1.0
 50
0.0
 71
     0
  3
MONOTXT
  4
BIGFONT
  0
STYLE
  2
TextStyle05
 70
     0
 40
1.0
 41
1.0
 42
1.0
 50
0.0
 71
     0
  3
MONOTXT
  4
BIGFONT
  0
STYLE
  2
TextStyle06
 70
     0
 40
1.0
 41
1.0
 42
1.0
 50
0.0
 71
     0
  3
MONOTXT
  4
BIGFONT
  0
STYLE
  2
TextStyle07
 70
     0
 40
1.0
 41
1.0
 42
1.0
 50
0.0
 71
     0
  3
MONOTXT
  4
BIGFONT
  0
STYLE
  2
TextStyle08
 70
     0
 40
1.0
 41
1.0
 42
1.0
 50
0.0
 71
     0
  3
MONOTXT
  4
BIGFONT
  0
STYLE
  2
TextStyle09
 70
     0
 40
1.0
 41
1.0
 42
1.0
 50
0.0
 71
     0
  3
MONOTXT
  4
BIGFONT
  0
STYLE
  2
TextStyle10
 70
     0
 40
1.0
 41
1.0
 42
1.0
 50
0.0
 71
     0
  3
MONOTXT
  4
BIGFONT
  0
ENDTAB
  0
ENDSEC
  0
SECTION
  2
BLOCKS
  0
BLOCK
  2
*GRP_0001
 70
    65
 10
0.0
 20
0.0
  0
LINE
  8
型材断面
  6
CONTINUOUS
 10
195.0
 20
133.5
 11
195.0
 21
-133.5
  0
LINE
  8
型材断面
  6
CONTINUOUS
 10
195.0
 20
-133.5
 11
-185.0
 21
-133.5
  0
LINE
  8
型材断面
  6
CONTINUOUS
 10
-185.0
 20
-133.5
 11
-185.0
 21
133.5
  0
LINE
  8
型材断面
  6
CONTINUOUS
 10
195.0
 20
133.5
 11
-185.0
 21
133.5
  0
LINE
  8
型材断面
  6
CONTINUOUS
 10
145.0
 20
-133.5
 11
145.0
 21
-118.5
  0
LINE
  8
型材断面
  6
CONTINUOUS
 10
195.0
 20
-118.5
 11
145.0
 21
-118.5
  0
ENDBLK
  0
BLOCK
  2
*DIM_0002
 70
    65
 10
0.0
 20
0.0
  0
LINE
  8
寸法
  6
BYBLOCK
 62
     0
 10
-65.97611
 20
54.941453
 11
-65.97611
 21
74.530632
  0
LINE
  8
寸法
  6
BYBLOCK
 62
     0
 10
-45.97611
 20
54.941453
 11
-45.97611
 21
74.530632
  0
LINE
  8
寸法
  6
BYBLOCK
 62
     0
 10
-65.97611
 20
74.530632
 11
-45.97611
 21
74.530632
  0
POINT
  8
寸法
 62
     0
 10
-65.97611
 20
74.530632
  0
POINT
  8
寸法
 62
     0
 10
-45.97611
 20
74.530632
  0
TEXT
  7
TextStyle03
  8
寸法
  6
CONTINUOUS
 62
     0
 10
-58.4375
 20
74.9
  1
400
 40
3.0
 72
     5
 11
-53.5625
 21
74.9
  0
ENDBLK
  0
BLOCK
  2
*DIM_0003
 70
    65
 10
0.0
 20
0.0
  0
LINE
  8
寸法
  6
BYBLOCK
 62
     0
 10
-61.101115
 20
-60.58216
 11
-61.101115
 21
-44.242515
  0
LINE
  8
寸法
  6
BYBLOCK
 62
     0
 10
-50.85111
 20
-60.58216
 11
-50.85111
 21
-44.242515
  0
LINE
  8
寸法
  6
BYBLOCK
 62
     0
 10
-61.101115
 20
-44.242515
 11
-50.85111
 21
-44.242515
  0
POINT
  8
寸法
 62
     0
 10
-61.101115
 20
-44.242515
  0
POINT
  8
寸法
 62
     0
 10
-50.85111
 20
-44.242515
  0
TEXT
  7
TextStyle03
  8
寸法
  6
CONTINUOUS
 62
     0
 10
-58.4625
 20
-43.875
  1
205
 40
3.0
 72
     5
 11
-53.5875
 21
-43.875
  0
ENDBLK
  0
BLOCK
  2
*DIM_0004
 70
    65
 10
0.0
 20
0.0
  0
LINE
  8
寸法
  6
BYBLOCK
 62
     0
 10
-70.976112
 20
-27.569693
 11
-40.976112
 21
-27.569693
  0
POINT
  8
寸法
 62
     0
 10
-70.976112
 20
-27.569693
  0
POINT
  8
寸法
 62
     0
 10
-40.976112
 20
-27.569693
  0
TEXT
  7
TextStyle03
  8
寸法
  6
CONTINUOUS
 62
     0
 10
-66.875
 20
-27.25
  1
呼称寸法　600
 40
3.0
 72
     5
 11
-45.125
 21
-27.25
  0
ENDBLK
  0
BLOCK
  2
*DIM_0005
 70
    65
 10
0.0
 20
0.0
  0
LINE
  8
寸法
  6
BYBLOCK
 62
     0
 10
-49.85111
 20
-62.00716
 11
-47.424377
 21
-62.00716
  0
LINE
  8
寸法
  6
BYBLOCK
 62
     0
 10
-47.424377
 20
-56.882162
 11
-47.424377
 21
-62.00716
  0
POINT
  8
寸法
 62
     0
 10
-47.424377
 20
-56.882162
  0
POINT
  8
寸法
 62
     0
 10
-47.424377
 20
-62.00716
  0
TEXT
  7
TextStyle03
  8
寸法
  6
CONTINUOUS
 62
     0
 10
-44.425
 20
-63.625
  1
102.5
 40
3.0
 50
90.0
 72
     5
 11
-44.425
 21
-55.375
  0
ENDBLK
  0
BLOCK
  2
*DIM_0006
 70
    65
 10
0.0
 20
0.0
  0
LINE
  8
寸法
  6
CONTINUOUS
 10
-32.775893
 20
-78.873802
 11
-22.816
 21
-78.873802
  0
LINE
  8
寸法
  6
CONTINUOUS
 10
-32.775893
 20
-75.223802
 11
-22.816
 21
-75.223802
  0
LINE
  8
寸法
  6
CONTINUOUS
 10
-22.816
 20
-78.873802
 11
-22.816
 21
-75.223802
  0
POINT
  8
寸法
 10
-22.816
 20
-78.873802
  0
POINT
  8
寸法
 10
-22.816
 20
-75.223802
  0
TEXT
  7
TextStyle03
  8
寸法
  6
CONTINUOUS
 10
-23.2
 20
-78.69375
  1
73
 40
3.0
 50
90.0
 72
     5
 11
-23.2
 21
-75.50625
  0
ENDBLK
  0
BLOCK
  2
*DIM_0007
 70
    65
 10
0.0
 20
0.0
  0
LINE
  8
寸法
  6
CONTINUOUS
 10
-37.775893
 20
-70.223802
 11
-37.775893
 21
-27.569693
  0
LINE
  8
寸法
  6
CONTINUOUS
 10
-40.976112
 20
-27.569693
 11
-37.775893
 21
-27.569693
  0
POINT
  8
寸法
 10
-40.976112
 20
-27.569693
  0
POINT
  8
寸法
 10
-37.775893
 20
-27.569693
  0
TEXT
  7
TextStyle03
  8
寸法
  6
CONTINUOUS
 10
-40.99375
 20
-27.225
  1
64
 40
3.0
 72
     5
 11
-37.80625
 21
-27.225
  0
ENDBLK
  0
BLOCK
  2
*DIM_0008
 70
    65
 10
0.0
 20
0.0
  0
LINE
  8
寸法
  6
CONTINUOUS
 10
-74.176332
 20
-70.223802
 11
-74.176332
 21
-27.569693
  0
LINE
  8
寸法
  6
CONTINUOUS
 10
-70.976112
 20
-27.569693
 11
-74.176332
 21
-27.569693
  0
POINT
  8
寸法
 10
-70.976112
 20
-27.569693
  0
POINT
  8
寸法
 10
-74.176332
 20
-27.569693
  0
TEXT
  7
TextStyle03
  8
寸法
  6
CONTINUOUS
 10
-74.19375
 20
-27.225
  1
64
 40
3.0
 72
     5
 11
-71.00625
 21
-27.225
  0
ENDBLK
  0
BLOCK
  2
*DIM_0009
 70
    65
 10
0.0
 20
0.0
  0
LINE
  8
寸法
  6
BYBLOCK
 62
     0
 10
-52.976112
 20
-56.882162
 11
-22.816
 21
-56.882162
  0
LINE
  8
寸法
  6
BYBLOCK
 62
     0
 10
-22.816
 20
-75.223802
 11
-22.816
 21
-56.882162
  0
POINT
  8
寸法
 62
     0
 10
-22.816
 20
-75.223802
  0
POINT
  8
寸法
 62
     0
 10
-22.816
 20
-56.882162
  0
TEXT
  7
TextStyle03
  8
寸法
  6
CONTINUOUS
 62
     0
 10
-23.2
 20
-70.2
  1
366.8
 40
3.0
 50
90.0
 72
     5
 11
-23.2
 21
-61.95
  0
ENDBLK
  0
BLOCK
  2
*DIM_0010
 70
    65
 10
0.0
 20
0.0
  0
LINE
  8
寸法
  6
BYBLOCK
 62
     0
 10
119.167805
 20
-81.705
 11
119.167805
 21
-91.640905
  0
LINE
  8
寸法
  6
BYBLOCK
 62
     0
 10
149.2125
 20
-81.705
 11
149.2125
 21
-91.640905
  0
LINE
  8
寸法
  6
BYBLOCK
 62
     0
 10
119.167805
 20
-91.640905
 11
149.2125
 21
-91.640905
  0
POINT
  8
寸法
 62
     0
 10
119.167805
 20
-91.640905
  0
POINT
  8
寸法
 62
     0
 10
149.2125
 20
-91.640905
  0
TEXT
  7
TextStyle03
  8
寸法
  6
CONTINUOUS
 62
     0
 10
130.025
 20
-91.3
  1
600.9
 40
3.0
 72
     5
 11
138.275
 21
-91.3
  0
ENDBLK
  0
BLOCK
  2
*DIM_0011
 70
    65
 10
0.0
 20
0.0
  0
LINE
  8
寸法
  6
BYBLOCK
 62
     0
 10
152.2125
 20
-78.705
 11
160.643273
 21
-78.705
  0
LINE
  8
寸法
  6
BYBLOCK
 62
     0
 10
137.190152
 20
-57.460192
 11
160.643273
 21
-57.460192
  0
LINE
  8
寸法
  6
BYBLOCK
 62
     0
 10
160.643273
 20
-78.705
 11
160.643273
 21
-57.460192
  0
POINT
  8
寸法
 62
     0
 10
160.643273
 20
-78.705
  0
POINT
  8
寸法
 62
     0
 10
160.643273
 20
-57.460192
  0
TEXT
  7
TextStyle03
  8
寸法
  6
CONTINUOUS
 62
     0
 10
160.225
 20
-72.225
  1
424.9
 40
3.0
 50
90.0
 72
     5
 11
160.225
 21
-63.975
  0
ENDBLK
  0
ENDSEC
  0
SECTION
  2
ENTITIES
  0
POLYLINE
  8
通り芯
  6
CONTINUOUS
 66
     1
 70
     1
  0
VERTEX
  8
通り芯
 10
-210.0
 20
-148.5
  0
VERTEX
  8
通り芯
 10
210.0
 20
-148.5
  0
VERTEX
  8
通り芯
 10
210.0
 20
148.5
  0
VERTEX
  8
通り芯
 10
-210.0
 20
148.5
  0
SEQEND
  0
INSERT
  2
*GRP_0001
  8
型材断面
  6
CONTINUOUS
 10
0.0
 20
0.0
  0
LINE
  8
型材断面
  6
DASHDOT
 10
-70.976112
 20
23.94145
 11
-40.976112
 21
23.94145
  0
LINE
  8
型材断面
  6
DASHDOT
 10
-70.976112
 20
-79.573802
 11
-70.976112
 21
53.94145
  0
LINE
  8
型材断面
  6
DASHDOT
 10
-55.976112
 20
-79.573802
 11
-55.976112
 21
53.94145
  0
LINE
  8
型材断面
  6
DASHDOT
 10
-40.976112
 20
-79.573802
 11
-40.976112
 21
53.94145
  0
LINE
  8
型材断面
  6
CONTINUOUS
 10
-50.85111
 20
33.81645
 11
-55.97611
 21
33.81645
  0
LINE
  8
型材断面
  6
CONTINUOUS
 10
-50.85111
 20
33.81645
 11
-50.85111
 21
38.94145
  0
LINE
  8
型材断面
  6
DASHDOT
 10
-70.976112
 20
38.94145
 11
-40.976112
 21
38.94145
  0
LINE
  8
型材断面
  6
DASHDOT
 10
-70.976112
 20
53.94145
 11
-40.976112
 21
53.94145
  0
LINE
  8
型材断面
  6
CONTINUOUS
 10
-50.85111
 20
44.06645
 11
-55.97611
 21
44.06645
  0
LINE
  8
型材断面
  6
CONTINUOUS
 10
-50.85111
 20
44.06645
 11
-50.85111
 21
38.94145
  0
LINE
  8
型材断面
  6
CONTINUOUS
 10
-61.101115
 20
44.06645
 11
-55.976115
 21
44.06645
  0
LINE
  8
型材断面
  6
CONTINUOUS
 10
-61.101115
 20
44.06645
 11
-61.101115
 21
38.94145
  0
LINE
  8
型材断面
  6
CONTINUOUS
 10
-61.101115
 20
33.81645
 11
-55.976115
 21
33.81645
  0
LINE
  8
型材断面
  6
CONTINUOUS
 10
-61.101115
 20
33.81645
 11
-61.101115
 21
38.94145
  0
LINE
  8
型材断面
  6
CONTINUOUS
 10
-78.999985
 20
38.94145
 11
-82.885745
 21
36.698005
  0
LINE
  8
型材断面
  6
CONTINUOUS
 10
-78.999985
 20
38.94145
 11
-82.885745
 21
41.184895
  0
LINE
  8
型材断面
  6
CONTINUOUS
 10
-82.885745
 20
41.184895
 11
-82.885745
 21
36.698005
  0
LINE
  8
型材断面
  6
CONTINUOUS
 10
-32.952235
 20
38.94145
 11
-29.066475
 21
36.698005
  0
LINE
  8
型材断面
  6
CONTINUOUS
 10
-32.952235
 20
38.94145
 11
-29.066475
 21
41.184895
  0
LINE
  8
型材断面
  6
CONTINUOUS
 10
-29.066475
 20
41.184895
 11
-29.066475
 21
36.698005
  0
LINE
  8
型材断面
  6
CONTINUOUS
 10
-55.976112
 20
61.965322
 11
-58.219557
 21
65.851082
  0
LINE
  8
型材断面
  6
CONTINUOUS
 10
-55.976112
 20
61.965322
 11
-53.732668
 21
65.851082
  0
LINE
  8
型材断面
  6
CONTINUOUS
 10
-53.732668
 20
65.851082
 11
-58.219557
 21
65.851082
  0
LINE
  8
型材断面
  6
CONTINUOUS
 10
-55.976112
 20
15.917572
 11
-58.219557
 21
12.031812
  0
LINE
  8
型材断面
  6
CONTINUOUS
 10
-55.976112
 20
15.917572
 11
-53.732668
 21
12.031812
  0
LINE
  8
型材断面
  6
CONTINUOUS
 10
-53.732668
 20
12.031812
 11
-58.219557
 21
12.031812
  0
LINE
  8
型材断面
  6
CONTINUOUS
 10
-14.025428
 20
16.067432
 11
-16.268872
 21
12.181673
  0
LINE
  8
型材断面
  6
CONTINUOUS
 10
-14.025428
 20
16.067432
 11
-11.781982
 21
12.181673
  0
LINE
  8
型材断面
  6
CONTINUOUS
 10
-11.781982
 20
12.181673
 11
-16.268872
 21
12.181673
  0
LINE
  8
型材断面
  6
CONTINUOUS
 10
-23.059307
 20
10.77378
 11
29.597372
 21
10.77378
  0
LINE
  8
型材断面
  6
CONTINUOUS
 10
-23.059307
 20
3.76667
 11
29.597372
 21
3.76667
  0
LINE
  8
型材断面
  6
CONTINUOUS
 10
-61.101115
 20
-62.00716
 11
-61.030403
 21
-62.077873
  0
LINE
  8
型材断面
  6
CONTINUOUS
 10
-61.101115
 20
-62.00716
 11
-55.976115
 21
-62.00716
  0
LINE
  8
型材断面
  6
CONTINUOUS
 10
-61.030403
 20
-62.077873
 11
-55.976115
 21
-62.077873
  0
LINE
  8
型材断面
  6
CONTINUOUS
 10
-61.101115
 20
-62.00716
 11
-55.976112
 21
-56.882162
  0
LINE
  8
型材断面
  6
CONTINUOUS
 10
-50.85111
 20
-62.00716
 11
-50.921822
 21
-62.077873
  0
LINE
  8
型材断面
  6
CONTINUOUS
 10
-50.85111
 20
-62.00716
 11
-55.97611
 21
-62.00716
  0
LINE
  8
型材断面
  6
CONTINUOUS
 10
-50.921822
 20
-62.077873
 11
-55.97611
 21
-62.077873
  0
LINE
  8
型材断面
  6
CONTINUOUS
 10
-50.85111
 20
-62.00716
 11
-55.976112
 21
-56.882162
  0
LINE
  8
型材断面
  6
CONTINUOUS
 10
-74.176332
 20
-75.223802
 11
-61.030403
 21
-62.077873
  0
LINE
  8
型材断面
  6
CONTINUOUS
 10
-73.080382
 20
-74.127852
 11
-55.976112
 21
-74.127852
  0
LINE
  8
型材断面
  6
CONTINUOUS
 10
-55.976112
 20
-75.923802
 11
-74.176335
 21
-75.923802
  0
LINE
  8
型材断面
  6
CONTINUOUS
 10
-55.976112
 20
-75.223802
 11
-74.176335
 21
-75.223802
  0
LINE
  8
型材断面
  6
CONTINUOUS
 10
-55.976112
 20
-78.873802
 11
-74.176332
 21
-78.873802
  0
LINE
  8
型材断面
  6
CONTINUOUS
 10
-74.176332
 20
-75.223802
 11
-74.176332
 21
-78.873802
  0
LINE
  8
型材断面
  6
CONTINUOUS
 10
-55.976112
 20
-79.573802
 11
-73.326335
 21
-79.573802
  0
LINE
  8
型材断面
  6
CONTINUOUS
 10
-73.326335
 20
-78.873802
 11
-73.326335
 21
-79.573802
  0
LINE
  8
型材断面
  6
CONTINUOUS
 10
-57.214745
 20
-62.077873
 11
-68.91117
 21
-73.774298
  0
LINE
  8
型材断面
  6
CONTINUOUS
 10
-57.356167
 20
-62.077873
 11
-69.052592
 21
-73.774298
  0
LINE
  8
型材断面
  6
CONTINUOUS
 10
-72.726828
 20
-73.774298
 11
-68.91117
 21
-73.774298
  0
LINE
  8
型材断面
  6
CONTINUOUS
 10
-37.775893
 20
-75.223802
 11
-50.921822
 21
-62.077873
  0
LINE
  8
型材断面
  6
CONTINUOUS
 10
-38.871843
 20
-74.127852
 11
-55.976112
 21
-74.127852
  0
LINE
  8
型材断面
  6
CONTINUOUS
 10
-55.976112
 20
-75.923802
 11
-37.77589
 21
-75.923802
  0
LINE
  8
型材断面
  6
CONTINUOUS
 10
-55.976112
 20
-75.223802
 11
-37.77589
 21
-75.223802
  0
LINE
  8
型材断面
  6
CONTINUOUS
 10
-55.976112
 20
-78.873802
 11
-37.775893
 21
-78.873802
  0
LINE
  8
型材断面
  6
CONTINUOUS
 10
-37.775893
 20
-75.223802
 11
-37.775893
 21
-78.873802
  0
LINE
  8
型材断面
  6
CONTINUOUS
 10
-55.976112
 20
-79.573802
 11
-38.62589
 21
-79.573802
  0
LINE
  8
型材断面
  6
CONTINUOUS
 10
-38.62589
 20
-78.873802
 11
-38.62589
 21
-79.573802
  0
LINE
  8
型材断面
  6
CONTINUOUS
 10
-54.73748
 20
-62.077873
 11
-43.041055
 21
-73.774298
  0
LINE
  8
型材断面
  6
CONTINUOUS
 10
-54.596058
 20
-62.077873
 11
-42.899633
 21
-73.774298
  0
LINE
  8
型材断面
  6
CONTINUOUS
 10
-39.225397
 20
-73.774298
 11
-43.041055
 21
-73.774298
  0
LINE
  8
型材断面
  6
DASHDOT
 10
-40.976112
 20
-79.573802
 11
-40.976112
 21
-72.023582
  0
LINE
  8
型材断面
  6
DASHDOT
 10
-70.976112
 20
-79.573802
 11
-70.976112
 21
-72.023582
  0
LINE
  8
型材断面
  6
CONTINUOUS
 10
-55.976112
 20
38.94145
 11
-74.176335
 21
20.741228
  0
LINE
  8
型材断面
  6
CONTINUOUS
 10
-74.176335
 20
20.741228
 11
-55.976112
 21
20.741228
  0
LINE
  8
型材断面
  6
CONTINUOUS
 10
-73.080353
 20
21.83721
 11
-55.976112
 21
21.83721
  0
LINE
  8
型材断面
  6
CONTINUOUS
 10
-74.176335
 20
20.741228
 11
-74.176335
 21
38.94145
  0
LINE
  8
型材断面
  6
CONTINUOUS
 10
-73.080353
 20
21.83721
 11
-73.080353
 21
38.94145
  0
LINE
  8
型材断面
  6
CONTINUOUS
 10
-55.976112
 20
38.94145
 11
-37.77589
 21
20.741228
  0
LINE
  8
型材断面
  6
CONTINUOUS
 10
-37.77589
 20
20.741228
 11
-55.976112
 21
20.741228
  0
LINE
  8
型材断面
  6
CONTINUOUS
 10
-38.871872
 20
21.83721
 11
-55.976112
 21
21.83721
  0
LINE
  8
型材断面
  6
CONTINUOUS
 10
-37.77589
 20
20.741228
 11
-37.77589
 21
38.94145
  0
LINE
  8
型材断面
  6
CONTINUOUS
 10
-38.871872
 20
21.83721
 11
-38.871872
 21
38.94145
  0
LINE
  8
型材断面
  6
CONTINUOUS
 10
-55.976112
 20
38.94145
 11
-37.77589
 21
57.141672
  0
LINE
  8
型材断面
  6
CONTINUOUS
 10
-37.77589
 20
57.141672
 11
-55.976112
 21
57.141672
  0
LINE
  8
型材断面
  6
CONTINUOUS
 10
-38.871872
 20
56.04569
 11
-55.976112
 21
56.04569
  0
LINE
  8
型材断面
  6
CONTINUOUS
 10
-37.77589
 20
57.141672
 11
-37.77589
 21
38.94145
  0
LINE
  8
型材断面
  6
CONTINUOUS
 10
-38.871872
 20
56.04569
 11
-38.871872
 21
38.94145
  0
LINE
  8
型材断面
  6
CONTINUOUS
 10
-55.976112
 20
38.94145
 11
-74.176335
 21
57.141672
  0
LINE
  8
型材断面
  6
CONTINUOUS
 10
-74.176335
 20
57.141672
 11
-55.976112
 21
57.141672
  0
LINE
  8
型材断面
  6
CONTINUOUS
 10
-73.080353
 20
56.04569
 11
-55.976112
 21
56.04569
  0
LINE
  8
型材断面
  6
CONTINUOUS
 10
-74.176335
 20
57.141672
 11
-74.176335
 21
38.94145
  0
LINE
  8
型材断面
  6
CONTINUOUS
 10
-73.080353
 20
56.04569
 11
-73.080353
 21
38.94145
  0
LINE
  8
型材断面
  6
CONTINUOUS
 10
-72.72683
 20
22.190733
 11
-69.078865
 21
22.190733
  0
LINE
  8
型材断面
  6
CONTINUOUS
 10
-57.453147
 20
33.81645
 11
-69.078865
 21
22.190733
  0
LINE
  8
型材断面
  6
CONTINUOUS
 10
-72.72683
 20
22.190733
 11
-72.72683
 21
25.838697
  0
LINE
  8
型材断面
  6
CONTINUOUS
 10
-61.101115
 20
37.464413
 11
-72.72683
 21
25.838697
  0
LINE
  8
型材断面
  6
CONTINUOUS
 10
-39.225395
 20
22.190733
 11
-42.87336
 21
22.190733
  0
LINE
  8
型材断面
  6
CONTINUOUS
 10
-54.499078
 20
33.81645
 11
-42.87336
 21
22.190733
  0
LINE
  8
型材断面
  6
CONTINUOUS
 10
-39.225395
 20
22.190733
 11
-39.225395
 21
25.838697
  0
LINE
  8
型材断面
  6
CONTINUOUS
 10
-50.85111
 20
37.464413
 11
-39.225395
 21
25.838697
  0
LINE
  8
型材断面
  6
CONTINUOUS
 10
-39.225395
 20
55.692167
 11
-42.87336
 21
55.692167
  0
LINE
  8
型材断面
  6
CONTINUOUS
 10
-54.499078
 20
44.06645
 11
-42.87336
 21
55.692167
  0
LINE
  8
型材断面
  6
CONTINUOUS
 10
-39.225395
 20
55.692167
 11
-39.225395
 21
52.044203
  0
LINE
  8
型材断面
  6
CONTINUOUS
 10
-50.85111
 20
40.418488
 11
-39.225395
 21
52.044203
  0
LINE
  8
型材断面
  6
CONTINUOUS
 10
-72.72683
 20
55.692167
 11
-69.078865
 21
55.692167
  0
LINE
  8
型材断面
  6
CONTINUOUS
 10
-57.453147
 20
44.06645
 11
-69.078865
 21
55.692167
  0
LINE
  8
型材断面
  6
CONTINUOUS
 10
-72.72683
 20
55.692167
 11
-72.72683
 21
52.044203
  0
LINE
  8
型材断面
  6
CONTINUOUS
 10
-61.101115
 20
40.418488
 11
-72.72683
 21
52.044203
  0
LINE
  8
型材断面
  6
CONTINUOUS
 10
100.734078
 20
-62.059245
 11
124.6657
 21
-62.059245
  0
LINE
  8
ガラス
  6
CONTINUOUS
 10
-54.088407
 20
-67.613862
 11
-57.961042
 21
-71.486498
  0
LINE
  8
ガラス
  6
CONTINUOUS
 10
-54.96873
 20
-69.21222
 11
-56.362685
 21
-70.606175
  0
LINE
  8
ガラス
  6
CONTINUOUS
 10
-55.686765
 20
-68.494185
 11
-57.08072
 21
-69.88814
  0
LINE
  8
ガラス
  6
CONTINUOUS
 10
-54.088407
 20
30.37795
 11
-57.961042
 21
26.505315
  0
LINE
  8
ガラス
  6
CONTINUOUS
 10
-54.96873
 20
28.779593
 11
-56.362685
 21
27.385637
  0
LINE
  8
ガラス
  6
CONTINUOUS
 10
-55.686765
 20
29.497628
 11
-57.08072
 21
28.103672
  0
LINE
  8
ガラス
  6
CONTINUOUS
 10
-42.78927
 20
40.896945
 11
-46.661905
 21
37.02431
  0
LINE
  8
ガラス
  6
CONTINUOUS
 10
-43.669593
 20
39.298588
 11
-45.063548
 21
37.904632
  0
LINE
  8
ガラス
  6
CONTINUOUS
 10
-44.387627
 20
40.016623
 11
-45.781582
 21
38.622667
  0
LINE
  8
ガラス
  6
CONTINUOUS
 10
-64.691108
 20
40.896945
 11
-68.563742
 21
37.02431
  0
LINE
  8
ガラス
  6
CONTINUOUS
 10
-65.57143
 20
39.298588
 11
-66.965385
 21
37.904632
  0
LINE
  8
ガラス
  6
CONTINUOUS
 10
-66.289465
 20
40.016623
 11
-67.68342
 21
38.622667
  0
LINE
  8
ガラス
  6
CONTINUOUS
 10
-54.088407
 20
52.002578
 11
-57.961042
 21
48.129942
  0
LINE
  8
ガラス
  6
CONTINUOUS
 10
-54.96873
 20
50.40422
 11
-56.362685
 21
49.010265
  0
LINE
  8
ガラス
  6
CONTINUOUS
 10
-55.686765
 20
51.122255
 11
-57.08072
 21
49.7283
  0
TEXT
  7
TextStyle03
  8
文字
  6
CONTINUOUS
 10
-77.375
 20
80.325
  1
アンカーピッチ
 40
3.0
 72
     5
 11
-54.125
 21
80.325
  0
TEXT
  7
TextStyle03
  8
文字
  6
CONTINUOUS
 10
-9.75
 20
12.525
  1
は排水穴位置を示す
 40
3.0
 72
     5
 11
20.25
 21
12.525
  0
TEXT
  7
TextStyle03
  8
文字
  6
CONTINUOUS
 10
-15.35
 20
5.175
  1
アンカー数量　４ヶ所
 40
3.0
 72
     5
 11
18.025
 21
5.175
  0
TEXT
  7
TextStyle03
  8
文字
  6
CONTINUOUS
 10
76.225
 20
90.025
  1
ＮＳコード：ＮＳ４ＣＫ
 40
5.0
 72
     5
 11
137.475
 21
90.025
  0
TEXT
  7
TextStyle03
  8
文字
  6
CONTINUOUS
 10
76.05
 20
112.825
  1
シリーズ：ＴＦ４Ｋ
 40
5.0
 72
     5
 11
126.05
 21
112.825
  0
TEXT
  7
TextStyle03
  8
文字
  6
CONTINUOUS
 10
76.05
 20
107.2
  1
　　　　　四角錘（固定）600×600タイプ
 40
5.0
 72
     5
 11
182.3
 21
107.2
  0
TEXT
  7
TextStyle03
  8
文字
  6
CONTINUOUS
 10
76.05
 20
101.575
  1
図面名　：外観姿図
 40
5.0
 72
     5
 11
126.05
 21
101.575
  0
TEXT
  7
TextStyle03
  8
文字
  6
CONTINUOUS
 10
76.05
 20
95.95
  1
　　　　　　
 40
5.0
 72
     5
 11
109.175
 21
95.95
  0
TEXT
  7
TextStyle03
  8
文字
  6
CONTINUOUS
 10
132.35
 20
-77.225
  1
×４枚
 40
3.0
 72
     5
 11
142.1
 21
-77.225
  0
TEXT
  7
TextStyle03
  8
文字
  6
CONTINUOUS
 10
104.375
 20
-60.85
  1
ガラス寸法
 40
3.0
 72
     5
 11
120.875
 21
-60.85
  0
INSERT
  2
*DIM_0002
  8
寸法
  6
CONTINUOUS
 10
0.0
 20
0.0
  0
INSERT
  2
*DIM_0003
  8
寸法
  6
CONTINUOUS
 10
0.0
 20
0.0
  0
INSERT
  2
*DIM_0004
  8
寸法
  6
CONTINUOUS
 10
0.0
 20
0.0
  0
INSERT
  2
*DIM_0005
  8
寸法
  6
CONTINUOUS
 10
0.0
 20
0.0
  0
INSERT
  2
*DIM_0006
  8
寸法
  6
CONTINUOUS
 10
0.0
 20
0.0
  0
INSERT
  2
*DIM_0007
  8
寸法
  6
CONTINUOUS
 10
0.0
 20
0.0
  0
INSERT
  2
*DIM_0008
  8
寸法
  6
CONTINUOUS
 10
0.0
 20
0.0
  0
INSERT
  2
*DIM_0009
  8
寸法
  6
CONTINUOUS
 10
0.0
 20
0.0
  0
INSERT
  2
*DIM_0010
  8
寸法
  6
CONTINUOUS
 10
0.0
 20
0.0
  0
INSERT
  2
*DIM_0011
  8
寸法
  6
CONTINUOUS
 10
0.0
 20
0.0
  0
LINE
  8
曲げ物
  6
CONTINUOUS
 10
149.2125
 20
-78.705
 11
119.167805
 21
-78.705
  0
LINE
  8
曲げ物
  6
CONTINUOUS
 10
119.167805
 20
-78.705
 11
134.190152
 21
-57.460192
  0
LINE
  8
曲げ物
  6
CONTINUOUS
 10
149.2125
 20
-78.705
 11
134.190152
 21
-57.460192
  0
ENDSEC
  0
EOF
