  0
SECTION
  2
HEADER
  9
$EXTMIN
 10
-210.0
 20
-148.5
  9
$EXTMAX
 10
210.0
 20
148.5
  9
$PDMODE
 70
    32
  9
$PDSIZE
 40
1.5
  9
$LTSCALE
 40
10.0
  0
ENDSEC
  0
SECTION
  2
TABLES
  0
TABLE
  2
LTYPE
 70
    15
  0
LTYPE
  2
CONTINUOUS
 70
    64
  3
実線
 72
    65
 73
     0
 40
0.0
  0
LTYPE
  2
DASHED
 70
    64
  3
破線A
 72
    65
 73
     2
 40
0.6
 49
0.4
 49
-0.2
  0
LTYPE
  2
DASHEDX2
 70
    64
  3
破線B
 72
    65
 73
     2
 40
1.3
 49
0.9
 49
-0.4
  0
LTYPE
  2
DASHDOT
 70
    64
  3
１点鎖線A
 72
    65
 73
     4
 40
0.5375
 49
0.375
 49
-0.05
 49
0.0625
 49
-0.05
  0
LTYPE
  2
DASHDOTX2
 70
    64
  3
１点鎖線B
 72
    65
 73
     4
 40
1.075
 49
0.75
 49
-0.1
 49
0.125
 49
-0.1
  0
LTYPE
  2
DIVIDE2
 70
    64
  3
２点鎖線A
 72
    65
 73
     6
 40
0.5125
 49
0.3
 49
-0.0375
 49
0.05
 49
-0.0375
 49
0.05
 49
-0.0375
  0
LTYPE
  2
DIVIDE
 70
    64
  3
２点鎖線B
 72
    65
 73
     6
 40
1.05
 49
0.55
 49
-0.1
 49
0.1
 49
-0.1
 49
0.1
 49
-0.1
  0
LTYPE
  2
DOT
 70
    64
  3
点線A
 72
    65
 73
     2
 40
0.1125
 49
0.0625
 49
-0.05
  0
LTYPE
  2
DOTX2
 70
    64
  3
点線B
 72
    65
 73
     2
 40
0.275
 49
0.15
 49
-0.125
  0
LTYPE
  2
CONTINUOUS
 70
    64
  3
実線
 72
    65
 73
     0
 40
0.0
  0
LTYPE
  2
CONTINUOUS
 70
    64
  3
実線
 72
    65
 73
     0
 40
0.0
  0
LTYPE
  2
CONTINUOUS
 70
    64
  3
実線
 72
    65
 73
     0
 40
0.0
  0
LTYPE
  2
CONTINUOUS
 70
    64
  3
実線
 72
    65
 73
     0
 40
0.0
  0
LTYPE
  2
CONTINUOUS
 70
    64
  3
実線
 72
    65
 73
     0
 40
0.0
  0
LTYPE
  2
CONTINUOUS
 70
    64
  3
実線
 72
    65
 73
     0
 40
0.0
  0
ENDTAB
  0
TABLE
  2
LAYER
 70
    35
  0
LAYER
  2
通り芯
 70
     0
 62
    15
  6
CONTINUOUS
  0
LAYER
  2
補助線
 70
     0
 62
    16
  6
DOT
  0
LAYER
  2
躯体
 70
     0
 62
    31
  6
CONTINUOUS
  0
LAYER
  2
型材
 70
     0
 62
    32
  6
CONTINUOUS
  0
LAYER
  2
型材断面
 70
     0
 62
    47
  6
CONTINUOUS
  0
LAYER
  2
ガラス
 70
     0
 62
    48
  6
CONTINUOUS
  0
LAYER
  2
ゴム等
 70
     0
 62
    63
  6
CONTINUOUS
  0
LAYER
  2
ボルト／ビス
 70
     0
 62
    64
  6
CONTINUOUS
  0
LAYER
  2
文字
 70
     0
 62
    79
  6
CONTINUOUS
  0
LAYER
  2
寸法
 70
     0
 62
    80
  6
CONTINUOUS
  0
LAYER
  2
ﾊｯﾁﾝｸﾞ
 70
     0
 62
    95
  6
CONTINUOUS
  0
LAYER
  2
別途部材
 70
     0
 62
    96
  6
CONTINUOUS
  0
LAYER
  2
曲げ物
 70
     0
 62
   111
  6
CONTINUOUS
  0
LAYER
  2
鉄骨等
 70
     0
 62
   112
  6
CONTINUOUS
  0
LAYER
  2
St
 70
     0
 62
   127
  6
CONTINUOUS
  0
LAYER
  2
その他部品等
 70
     0
 62
   128
  6
CONTINUOUS
  0
LAYER
  2
ｶﾞｽｹｯﾄ
 70
     0
 62
   143
  6
CONTINUOUS
  0
LAYER
  2
ｽｹｯﾁ
 70
     0
 62
    14
  6
CONTINUOUS
  0
LAYER
  2
0
 70
     0
 62
    17
  6
CONTINUOUS
  0
LAYER
  2
1
 70
     0
 62
    30
  6
CONTINUOUS
  0
LAYER
  2
4
 70
     0
 62
    33
  6
CONTINUOUS
  0
LAYER
  2
ﾚｲﾔ3
 70
     0
 62
    46
  6
CONTINUOUS
  0
LAYER
  2
外形線
 70
     0
 62
    49
  6
CONTINUOUS
  0
LAYER
  2
部品
 70
     0
 62
    14
  6
CONTINUOUS
  0
LAYER
  2
サッシ芯
 70
     0
 62
    17
  6
DASHDOTX2
  0
LAYER
  2
寸法線
 70
     0
 62
    62
  6
CONTINUOUS
  0
LAYER
  2
姿図外形線
 70
     0
 62
    65
  6
CONTINUOUS
  0
LAYER
  2
姿補助線
 70
     0
 62
    30
  6
CONTINUOUS
  0
LAYER
  2
透視線
 70
     0
 62
    78
  6
DOT
  0
LAYER
  2
用紙
 70
     0
 62
    81
  6
CONTINUOUS
  0
LAYER
  2
実線図枠
 70
     0
 62
    94
  6
CONTINUOUS
  0
LAYER
  2
補助図枠
 70
     0
 62
    97
  6
CONTINUOUS
  0
LAYER
  2
建具記号
 70
     0
 62
   110
  6
CONTINUOUS
  0
LAYER
  2
補助文字
 70
     0
 62
   113
  6
CONTINUOUS
  0
LAYER
  2
01
 70
     0
 62
     1
  6
CONTINUOUS
  0
ENDTAB
  0
TABLE
  2
STYLE
 70
    10
  0
STYLE
  2
STANDARD
 70
     0
 40
1.0
 41
1.0
 42
1.0
 50
0.0
 71
     0
  3
TXT
  4
BIGFONT
  0
STYLE
  2
TATE
 70
     4
 40
1.0
 41
1.0
 42
1.0
 50
0.0
 71
     0
  3
TXT
  4
BIGFONT
  0
STYLE
  2
TextStyle03
 70
     0
 40
1.0
 41
1.0
 42
1.0
 50
0.0
 71
     0
  3
MONOTXT
  4
BIGFONT
  0
STYLE
  2
TextStyle04
 70
     0
 40
1.0
 41
1.0
 42
1.0
 50
0.0
 71
     0
  3
MONOTXT
  4
BIGFONT
  0
STYLE
  2
TextStyle05
 70
     0
 40
1.0
 41
1.0
 42
1.0
 50
0.0
 71
     0
  3
MONOTXT
  4
BIGFONT
  0
STYLE
  2
TextStyle06
 70
     0
 40
1.0
 41
1.0
 42
1.0
 50
0.0
 71
     0
  3
MONOTXT
  4
BIGFONT
  0
STYLE
  2
TextStyle07
 70
     0
 40
1.0
 41
1.0
 42
1.0
 50
0.0
 71
     0
  3
MONOTXT
  4
BIGFONT
  0
STYLE
  2
TextStyle08
 70
     0
 40
1.0
 41
1.0
 42
1.0
 50
0.0
 71
     0
  3
MONOTXT
  4
BIGFONT
  0
STYLE
  2
TextStyle09
 70
     0
 40
1.0
 41
1.0
 42
1.0
 50
0.0
 71
     0
  3
MONOTXT
  4
BIGFONT
  0
STYLE
  2
TextStyle10
 70
     0
 40
1.0
 41
1.0
 42
1.0
 50
0.0
 71
     0
  3
MONOTXT
  4
BIGFONT
  0
ENDTAB
  0
ENDSEC
  0
SECTION
  2
BLOCKS
  0
BLOCK
  2
*GRP_0001
 70
    65
 10
0.0
 20
0.0
  0
LINE
  8
型材断面
  6
CONTINUOUS
 10
195.0
 20
133.5
 11
195.0
 21
-133.5
  0
LINE
  8
型材断面
  6
CONTINUOUS
 10
195.0
 20
-133.5
 11
-185.0
 21
-133.5
  0
LINE
  8
型材断面
  6
CONTINUOUS
 10
-185.0
 20
-133.5
 11
-185.0
 21
133.5
  0
LINE
  8
型材断面
  6
CONTINUOUS
 10
195.0
 20
133.5
 11
-185.0
 21
133.5
  0
LINE
  8
型材断面
  6
CONTINUOUS
 10
145.0
 20
-133.5
 11
145.0
 21
-118.5
  0
LINE
  8
型材断面
  6
CONTINUOUS
 10
195.0
 20
-118.5
 11
145.0
 21
-118.5
  0
ENDBLK
  0
BLOCK
  2
*DIM_0002
 70
    65
 10
0.0
 20
0.0
  0
LINE
  8
寸法
  6
BYBLOCK
 62
     0
 10
-90.057775
 20
-58.624625
 11
-90.057775
 21
-42.28498
  0
LINE
  8
寸法
  6
BYBLOCK
 62
     0
 10
-79.80777
 20
-58.624625
 11
-79.80777
 21
-42.28498
  0
LINE
  8
寸法
  6
BYBLOCK
 62
     0
 10
-90.057775
 20
-42.28498
 11
-79.80777
 21
-42.28498
  0
POINT
  8
寸法
 62
     0
 10
-90.057775
 20
-42.28498
  0
POINT
  8
寸法
 62
     0
 10
-79.80777
 20
-42.28498
  0
TEXT
  7
TextStyle03
  8
寸法
  6
CONTINUOUS
 62
     0
 10
-87.3875
 20
-41.9
  1
205
 40
3.0
 72
     5
 11
-82.5125
 21
-41.9
  0
ENDBLK
  0
BLOCK
  2
*DIM_0003
 70
    65
 10
0.0
 20
0.0
  0
LINE
  8
寸法
  6
CONTINUOUS
 10
-78.80777
 20
-60.049625
 11
-68.881038
 21
-60.049625
  0
LINE
  8
寸法
  6
CONTINUOUS
 10
-68.881038
 20
-54.924628
 11
-68.881038
 21
-60.049625
  0
POINT
  8
寸法
 10
-68.881038
 20
-54.924628
  0
POINT
  8
寸法
 10
-68.881038
 20
-60.049625
  0
TEXT
  7
TextStyle03
  8
寸法
  6
CONTINUOUS
 10
-65.875
 20
-61.6
  1
102.5
 40
3.0
 50
90.0
 72
     5
 11
-65.875
 21
-53.35
  0
ENDBLK
  0
BLOCK
  2
*DIM_0005
 70
    65
 10
0.0
 20
0.0
  0
LINE
  8
寸法
  6
CONTINUOUS
 10
-26.732553
 20
-111.916267
 11
-16.77266
 21
-111.916267
  0
LINE
  8
寸法
  6
CONTINUOUS
 10
-26.732553
 20
-108.266267
 11
-16.77266
 21
-108.266267
  0
LINE
  8
寸法
  6
CONTINUOUS
 10
-16.77266
 20
-111.916267
 11
-16.77266
 21
-108.266267
  0
POINT
  8
寸法
 10
-16.77266
 20
-111.916267
  0
POINT
  8
寸法
 10
-16.77266
 20
-108.266267
  0
TEXT
  7
TextStyle03
  8
寸法
  6
CONTINUOUS
 10
-17.15
 20
-111.66875
  1
73
 40
3.0
 50
90.0
 72
     5
 11
-17.15
 21
-108.48125
  0
ENDBLK
  0
BLOCK
  2
*DIM_0006
 70
    65
 10
0.0
 20
0.0
  0
LINE
  8
寸法
  6
CONTINUOUS
 10
-31.732553
 20
-103.266267
 11
-31.732553
 21
-25.612158
  0
LINE
  8
寸法
  6
CONTINUOUS
 10
-34.932773
 20
-25.612158
 11
-31.732553
 21
-25.612158
  0
POINT
  8
寸法
 10
-34.932773
 20
-25.612158
  0
POINT
  8
寸法
 10
-31.732553
 20
-25.612158
  0
TEXT
  7
TextStyle03
  8
寸法
  6
CONTINUOUS
 10
-34.94375
 20
-25.225
  1
64
 40
3.0
 72
     5
 11
-31.75625
 21
-25.225
  0
ENDBLK
  0
BLOCK
  2
*DIM_0007
 70
    65
 10
0.0
 20
0.0
  0
LINE
  8
寸法
  6
CONTINUOUS
 10
-138.132993
 20
-103.266267
 11
-138.132993
 21
-25.612158
  0
LINE
  8
寸法
  6
CONTINUOUS
 10
-134.932773
 20
-25.612158
 11
-138.132993
 21
-25.612158
  0
POINT
  8
寸法
 10
-134.932773
 20
-25.612158
  0
POINT
  8
寸法
 10
-138.132993
 20
-25.612158
  0
TEXT
  7
TextStyle03
  8
寸法
  6
CONTINUOUS
 10
-138.14375
 20
-25.225
  1
64
 40
3.0
 72
     5
 11
-134.95625
 21
-25.225
  0
ENDBLK
  0
BLOCK
  2
*DIM_0008
 70
    65
 10
0.0
 20
0.0
  0
LINE
  8
寸法
  6
BYBLOCK
 62
     0
 10
-119.932773
 20
111.632435
 11
-119.932773
 21
122.56319
  0
LINE
  8
寸法
  6
BYBLOCK
 62
     0
 10
-84.932773
 20
111.632435
 11
-84.932773
 21
122.56319
  0
LINE
  8
寸法
  6
BYBLOCK
 62
     0
 10
-119.932773
 20
122.56319
 11
-84.932773
 21
122.56319
  0
POINT
  8
寸法
 62
     0
 10
-119.932773
 20
122.56319
  0
POINT
  8
寸法
 62
     0
 10
-84.932773
 20
122.56319
  0
TEXT
  7
TextStyle03
  8
寸法
  6
CONTINUOUS
 62
     0
 10
-104.8875
 20
122.95
  1
700
 40
3.0
 72
     5
 11
-100.0125
 21
122.95
  0
ENDBLK
  0
BLOCK
  2
*DIM_0009
 70
    65
 10
0.0
 20
0.0
  0
LINE
  8
寸法
  6
BYBLOCK
 62
     0
 10
-49.932773
 20
111.632435
 11
-49.932773
 21
122.56319
  0
LINE
  8
寸法
  6
BYBLOCK
 62
     0
 10
-84.932773
 20
122.56319
 11
-49.932773
 21
122.56319
  0
POINT
  8
寸法
 62
     0
 10
-49.932773
 20
122.56319
  0
TEXT
  7
TextStyle03
  8
寸法
  6
CONTINUOUS
 62
     0
 10
-69.8875
 20
122.95
  1
700
 40
3.0
 72
     5
 11
-65.0125
 21
122.95
  0
ENDBLK
  0
BLOCK
  2
*DIM_0010
 70
    65
 10
0.0
 20
0.0
  0
LINE
  8
寸法
  6
BYBLOCK
 62
     0
 10
-147.21288
 20
84.942093
 11
-158.143635
 21
84.942095
  0
LINE
  8
寸法
  6
BYBLOCK
 62
     0
 10
-147.212882
 20
49.942093
 11
-158.143638
 21
49.942095
  0
LINE
  8
寸法
  6
BYBLOCK
 62
     0
 10
-158.143635
 20
84.942095
 11
-158.143638
 21
49.942095
  0
POINT
  8
寸法
 62
     0
 10
-158.143635
 20
84.942095
  0
POINT
  8
寸法
 62
     0
 10
-158.143638
 20
49.942095
  0
TEXT
  7
TextStyle03
  8
寸法
  6
CONTINUOUS
 62
     0
 10
-158.575
 20
64.9875
  1
700
 40
3.0
 50
90.0
 72
     5
 11
-158.575
 21
69.8625
  0
ENDBLK
  0
BLOCK
  2
*DIM_0011
 70
    65
 10
0.0
 20
0.0
  0
LINE
  8
寸法
  6
BYBLOCK
 62
     0
 10
-147.212882
 20
49.942093
 11
-158.143638
 21
49.942098
  0
LINE
  8
寸法
  6
BYBLOCK
 62
     0
 10
-147.212885
 20
14.942093
 11
-158.14364
 21
14.942098
  0
LINE
  8
寸法
  6
BYBLOCK
 62
     0
 10
-158.143638
 20
49.942098
 11
-158.14364
 21
14.942098
  0
POINT
  8
寸法
 62
     0
 10
-158.14364
 20
14.942098
  0
TEXT
  7
TextStyle03
  8
寸法
  6
CONTINUOUS
 62
     0
 10
-158.575
 20
29.9875
  1
700
 40
3.0
 50
90.0
 72
     5
 11
-158.575
 21
34.8625
  0
ENDBLK
  0
BLOCK
  2
*DIM_0012
 70
    65
 10
0.0
 20
0.0
  0
LINE
  8
寸法
  6
CONTINUOUS
 62
     0
 10
-81.932773
 20
-54.924628
 11
-16.77266
 21
-54.924628
  0
LINE
  8
寸法
  6
CONTINUOUS
 62
     0
 10
-16.77266
 20
-108.266267
 11
-16.77266
 21
-54.924628
  0
POINT
  8
寸法
 62
     0
 10
-16.77266
 20
-108.266267
  0
POINT
  8
寸法
 62
     0
 10
-16.77266
 20
-54.924628
  0
TEXT
  7
TextStyle03
  8
寸法
  6
CONTINUOUS
 62
     0
 10
-17.15
 20
-86.56875
  1
1066.8
 40
3.0
 50
90.0
 72
     5
 11
-17.15
 21
-76.63125
  0
ENDBLK
  0
BLOCK
  2
*DIM_0013
 70
    65
 10
0.0
 20
0.0
  0
LINE
  8
寸法
  6
BYBLOCK
 62
     0
 10
102.442178
 20
-86.348842
 11
102.442178
 21
-96.284747
  0
LINE
  8
寸法
  6
BYBLOCK
 62
     0
 10
151.614525
 20
-86.348842
 11
151.614525
 21
-96.284747
  0
LINE
  8
寸法
  6
BYBLOCK
 62
     0
 10
102.442178
 20
-96.284747
 11
151.614525
 21
-96.284747
  0
POINT
  8
寸法
 62
     0
 10
102.442178
 20
-96.284747
  0
POINT
  8
寸法
 62
     0
 10
151.614525
 20
-96.284747
  0
TEXT
  7
TextStyle03
  8
寸法
  6
CONTINUOUS
 62
     0
 10
122.9
 20
-95.95
  1
983.4
 40
3.0
 72
     5
 11
131.15
 21
-95.95
  0
ENDBLK
  0
BLOCK
  2
*DIM_0014
 70
    65
 10
0.0
 20
0.0
  0
LINE
  8
寸法
  6
BYBLOCK
 62
     0
 10
154.614525
 20
-83.348842
 11
163.045298
 21
-83.348842
  0
LINE
  8
寸法
  6
BYBLOCK
 62
     0
 10
105.442178
 20
-13.808643
 11
163.045298
 21
-13.808643
  0
LINE
  8
寸法
  6
BYBLOCK
 62
     0
 10
163.045298
 20
-83.348842
 11
163.045298
 21
-13.808643
  0
POINT
  8
寸法
 62
     0
 10
163.045298
 20
-83.348842
  0
POINT
  8
寸法
 62
     0
 10
163.045298
 20
-13.808643
  0
TEXT
  7
TextStyle03
  8
寸法
  6
CONTINUOUS
 62
     0
 10
162.675
 20
-53.56875
  1
1390.8
 40
3.0
 50
90.0
 72
     5
 11
162.675
 21
-43.63125
  0
ENDBLK
  0
BLOCK
  2
*DIM_0015
 70
    65
 10
0.0
 20
0.0
  0
LINE
  8
寸法
  6
BYBLOCK
 62
     0
 10
-134.932773
 20
-25.612158
 11
-34.932773
 21
-25.612158
  0
POINT
  8
寸法
 62
     0
 10
-134.932773
 20
-25.612158
  0
POINT
  8
寸法
 62
     0
 10
-34.932773
 20
-25.612158
  0
TEXT
  7
TextStyle03
  8
寸法
  6
CONTINUOUS
 62
     0
 10
-96.66875
 20
-25.25
  1
呼称寸法　2000
 40
3.0
 72
     5
 11
-73.23125
 21
-25.25
  0
ENDBLK
  0
ENDSEC
  0
SECTION
  2
ENTITIES
  0
POLYLINE
  8
通り芯
  6
CONTINUOUS
 66
     1
 70
     1
  0
VERTEX
  8
通り芯
 10
-210.0
 20
-148.5
  0
VERTEX
  8
通り芯
 10
210.0
 20
-148.5
  0
VERTEX
  8
通り芯
 10
210.0
 20
148.5
  0
VERTEX
  8
通り芯
 10
-210.0
 20
148.5
  0
SEQEND
  0
INSERT
  2
*GRP_0001
  8
型材断面
  6
CONTINUOUS
 10
0.0
 20
0.0
  0
LINE
  8
型材断面
  6
CONTINUOUS
 10
-79.80777
 20
44.817093
 11
-84.93277
 21
44.817093
  0
LINE
  8
型材断面
  6
CONTINUOUS
 10
-79.80777
 20
44.817093
 11
-79.80777
 21
49.942093
  0
LINE
  8
型材断面
  6
CONTINUOUS
 10
-79.80777
 20
55.067093
 11
-84.93277
 21
55.067093
  0
LINE
  8
型材断面
  6
CONTINUOUS
 10
-79.80777
 20
55.067093
 11
-79.80777
 21
49.942093
  0
LINE
  8
型材断面
  6
CONTINUOUS
 10
-90.057775
 20
55.067093
 11
-84.932775
 21
55.067093
  0
LINE
  8
型材断面
  6
CONTINUOUS
 10
-90.057775
 20
55.067093
 11
-90.057775
 21
49.942093
  0
LINE
  8
型材断面
  6
CONTINUOUS
 10
-90.057775
 20
44.817093
 11
-84.932775
 21
44.817093
  0
LINE
  8
型材断面
  6
CONTINUOUS
 10
-90.057775
 20
44.817093
 11
-90.057775
 21
49.942093
  0
LINE
  8
型材断面
  6
CONTINUOUS
 10
-33.182055
 20
48.192093
 11
-33.182055
 21
51.692093
  0
LINE
  8
型材断面
  6
CONTINUOUS
 10
-136.68349
 20
51.692093
 11
-136.68349
 21
48.192093
  0
LINE
  8
型材断面
  6
DASHDOT
 10
-134.932773
 20
49.942093
 11
-34.932773
 21
49.942093
  0
LINE
  8
型材断面
  6
CONTINUOUS
 10
-86.682773
 20
101.69281
 11
-83.182773
 21
101.69281
  0
LINE
  8
型材断面
  6
CONTINUOUS
 10
-84.932773
 20
49.942093
 11
-31.73255
 21
103.142315
  0
LINE
  8
型材断面
  6
CONTINUOUS
 10
-31.73255
 20
103.142315
 11
-84.932773
 21
103.142315
  0
LINE
  8
型材断面
  6
CONTINUOUS
 10
-32.828532
 20
102.046333
 11
-84.932773
 21
102.046333
  0
LINE
  8
型材断面
  6
CONTINUOUS
 10
-31.73255
 20
103.142315
 11
-31.73255
 21
49.942093
  0
LINE
  8
型材断面
  6
CONTINUOUS
 10
-32.828532
 20
102.046333
 11
-32.828532
 21
49.942093
  0
LINE
  8
型材断面
  6
CONTINUOUS
 10
-84.932773
 20
49.942093
 11
-138.132995
 21
103.142315
  0
LINE
  8
型材断面
  6
CONTINUOUS
 10
-138.132995
 20
103.142315
 11
-84.932773
 21
103.142315
  0
LINE
  8
型材断面
  6
CONTINUOUS
 10
-137.037013
 20
102.046333
 11
-84.932773
 21
102.046333
  0
LINE
  8
型材断面
  6
CONTINUOUS
 10
-138.132995
 20
103.142315
 11
-138.132995
 21
49.942093
  0
LINE
  8
型材断面
  6
CONTINUOUS
 10
-137.037013
 20
102.046333
 11
-137.037013
 21
49.942093
  0
LINE
  8
型材断面
  6
DASHDOT
 10
-134.932773
 20
99.942093
 11
-34.932773
 21
99.942093
  0
LINE
  8
型材断面
  6
CONTINUOUS
 10
-83.182773
 20
-1.808625
 11
-86.682773
 21
-1.808625
  0
LINE
  8
型材断面
  6
CONTINUOUS
 10
-84.932773
 20
49.942093
 11
-31.73255
 21
-3.25813
  0
LINE
  8
型材断面
  6
CONTINUOUS
 10
-31.73255
 20
-3.25813
 11
-84.932773
 21
-3.25813
  0
LINE
  8
型材断面
  6
CONTINUOUS
 10
-32.828532
 20
-2.162147
 11
-84.932773
 21
-2.162147
  0
LINE
  8
型材断面
  6
CONTINUOUS
 10
-31.73255
 20
-3.25813
 11
-31.73255
 21
49.942093
  0
LINE
  8
型材断面
  6
CONTINUOUS
 10
-32.828532
 20
-2.162147
 11
-32.828532
 21
49.942093
  0
LINE
  8
型材断面
  6
CONTINUOUS
 10
-84.932773
 20
49.942093
 11
-138.132995
 21
-3.25813
  0
LINE
  8
型材断面
  6
CONTINUOUS
 10
-138.132995
 20
-3.25813
 11
-84.932773
 21
-3.25813
  0
LINE
  8
型材断面
  6
CONTINUOUS
 10
-137.037013
 20
-2.162147
 11
-84.932773
 21
-2.162147
  0
LINE
  8
型材断面
  6
CONTINUOUS
 10
-138.132995
 20
-3.25813
 11
-138.132995
 21
49.942093
  0
LINE
  8
型材断面
  6
CONTINUOUS
 10
-137.037013
 20
-2.162147
 11
-137.037013
 21
49.942093
  0
LINE
  8
型材断面
  6
DASHDOT
 10
-134.932773
 20
-0.057907
 11
-34.932773
 21
-0.057907
  0
LINE
  8
型材断面
  6
DASHDOT
 10
-84.932773
 20
-103.57316
 11
-84.932773
 21
99.942093
  0
LINE
  8
型材断面
  6
CONTINUOUS
 10
-29.464555
 20
49.942093
 11
-25.578795
 21
47.698647
  0
LINE
  8
型材断面
  6
CONTINUOUS
 10
-29.464555
 20
49.942093
 11
-25.578795
 21
52.185537
  0
LINE
  8
型材断面
  6
CONTINUOUS
 10
-25.578795
 20
52.185537
 11
-25.578795
 21
47.698647
  0
LINE
  8
型材断面
  6
CONTINUOUS
 10
-84.932773
 20
104.2963
 11
-87.176217
 21
108.18206
  0
LINE
  8
型材断面
  6
CONTINUOUS
 10
-84.932773
 20
104.2963
 11
-82.689328
 21
108.18206
  0
LINE
  8
型材断面
  6
CONTINUOUS
 10
-82.689328
 20
108.18206
 11
-87.176217
 21
108.18206
  0
LINE
  8
型材断面
  6
CONTINUOUS
 10
-140.53205
 20
49.942093
 11
-144.41781
 21
47.698647
  0
LINE
  8
型材断面
  6
CONTINUOUS
 10
-140.53205
 20
49.942093
 11
-144.41781
 21
52.185537
  0
LINE
  8
型材断面
  6
CONTINUOUS
 10
-144.41781
 20
52.185537
 11
-144.41781
 21
47.698647
  0
LINE
  8
型材断面
  6
CONTINUOUS
 10
-84.932773
 20
-6.137733
 11
-87.176217
 21
-10.023492
  0
LINE
  8
型材断面
  6
CONTINUOUS
 10
-84.932773
 20
-6.137733
 11
-82.689328
 21
-10.023492
  0
LINE
  8
型材断面
  6
CONTINUOUS
 10
-82.689328
 20
-10.023492
 11
-87.176217
 21
-10.023492
  0
LINE
  8
型材断面
  6
CONTINUOUS
 10
-90.057775
 20
-60.049625
 11
-89.987062
 21
-60.120338
  0
LINE
  8
型材断面
  6
CONTINUOUS
 10
-90.057775
 20
-60.049625
 11
-84.932775
 21
-60.049625
  0
LINE
  8
型材断面
  6
CONTINUOUS
 10
-89.987062
 20
-60.120338
 11
-84.932775
 21
-60.120338
  0
LINE
  8
型材断面
  6
CONTINUOUS
 10
-90.057775
 20
-60.049625
 11
-84.932773
 21
-54.924628
  0
LINE
  8
型材断面
  6
CONTINUOUS
 10
-79.80777
 20
-60.049625
 11
-79.878482
 21
-60.120338
  0
LINE
  8
型材断面
  6
CONTINUOUS
 10
-79.80777
 20
-60.049625
 11
-84.93277
 21
-60.049625
  0
LINE
  8
型材断面
  6
CONTINUOUS
 10
-79.878482
 20
-60.120338
 11
-84.93277
 21
-60.120338
  0
LINE
  8
型材断面
  6
CONTINUOUS
 10
-79.80777
 20
-60.049625
 11
-84.932773
 21
-54.924628
  0
LINE
  8
型材断面
  6
CONTINUOUS
 10
-83.182773
 20
-106.816763
 11
-86.682773
 21
-106.816763
  0
LINE
  8
型材断面
  6
CONTINUOUS
 10
-83.182773
 20
-106.816763
 11
-83.182773
 21
-60.631705
  0
LINE
  8
型材断面
  6
CONTINUOUS
 10
-86.682773
 20
-106.816763
 11
-86.682773
 21
-60.631705
  0
LINE
  8
型材断面
  6
CONTINUOUS
 10
-31.732553
 20
-108.266267
 11
-79.878482
 21
-60.120338
  0
LINE
  8
型材断面
  6
CONTINUOUS
 10
-32.828503
 20
-107.170317
 11
-84.932773
 21
-107.170317
  0
LINE
  8
型材断面
  6
CONTINUOUS
 10
-84.932773
 20
-108.966267
 11
-31.73255
 21
-108.966267
  0
LINE
  8
型材断面
  6
CONTINUOUS
 10
-84.932773
 20
-108.266267
 11
-31.73255
 21
-108.266267
  0
LINE
  8
型材断面
  6
CONTINUOUS
 10
-84.932773
 20
-111.916267
 11
-31.732553
 21
-111.916267
  0
LINE
  8
型材断面
  6
CONTINUOUS
 10
-31.732553
 20
-108.266267
 11
-31.732553
 21
-111.916267
  0
LINE
  8
型材断面
  6
CONTINUOUS
 10
-84.932773
 20
-112.616267
 11
-32.58255
 21
-112.616267
  0
LINE
  8
型材断面
  6
CONTINUOUS
 10
-32.58255
 20
-111.916267
 11
-32.58255
 21
-112.616267
  0
LINE
  8
型材断面
  6
CONTINUOUS
 10
-83.69414
 20
-60.120338
 11
-36.997715
 21
-106.816763
  0
LINE
  8
型材断面
  6
CONTINUOUS
 10
-83.552718
 20
-60.120338
 11
-36.856293
 21
-106.816763
  0
LINE
  8
型材断面
  6
CONTINUOUS
 10
-33.182057
 20
-106.816763
 11
-36.997715
 21
-106.816763
  0
LINE
  8
型材断面
  6
DASHDOT
 10
-34.932773
 20
-112.616267
 11
-34.932773
 21
-77.566047
  0
LINE
  8
型材断面
  6
CONTINUOUS
 10
-138.132993
 20
-108.266267
 11
-89.987062
 21
-60.120338
  0
LINE
  8
型材断面
  6
CONTINUOUS
 10
-137.037043
 20
-107.170317
 11
-84.932773
 21
-107.170317
  0
LINE
  8
型材断面
  6
CONTINUOUS
 10
-84.932773
 20
-108.966267
 11
-138.132995
 21
-108.966267
  0
LINE
  8
型材断面
  6
CONTINUOUS
 10
-84.932773
 20
-108.266267
 11
-138.132995
 21
-108.266267
  0
LINE
  8
型材断面
  6
CONTINUOUS
 10
-84.932773
 20
-111.916267
 11
-138.132993
 21
-111.916267
  0
LINE
  8
型材断面
  6
CONTINUOUS
 10
-138.132993
 20
-108.266267
 11
-138.132993
 21
-111.916267
  0
LINE
  8
型材断面
  6
CONTINUOUS
 10
-84.932773
 20
-112.616267
 11
-137.282995
 21
-112.616267
  0
LINE
  8
型材断面
  6
CONTINUOUS
 10
-137.282995
 20
-111.916267
 11
-137.282995
 21
-112.616267
  0
LINE
  8
型材断面
  6
CONTINUOUS
 10
-86.171405
 20
-60.120338
 11
-132.86783
 21
-106.816763
  0
LINE
  8
型材断面
  6
CONTINUOUS
 10
-86.312827
 20
-60.120338
 11
-133.009253
 21
-106.816763
  0
LINE
  8
型材断面
  6
CONTINUOUS
 10
-136.683487
 20
-106.816763
 11
-132.86783
 21
-106.816763
  0
LINE
  8
型材断面
  6
DASHDOT
 10
-134.932773
 20
-112.616267
 11
-134.932773
 21
-77.566047
  0
LINE
  8
型材断面
  6
DASHDOT
 10
-34.932773
 20
99.942093
 11
-34.932773
 21
-112.616267
  0
LINE
  8
型材断面
  6
DASHDOT
 10
-134.932773
 20
99.942093
 11
-134.932773
 21
-112.616267
  0
LINE
  8
型材断面
  6
CONTINUOUS
 10
-6.439745
 20
9.873395
 11
-8.68319
 21
5.987635
  0
LINE
  8
型材断面
  6
CONTINUOUS
 10
-6.439745
 20
9.873395
 11
-4.1963
 21
5.987635
  0
LINE
  8
型材断面
  6
CONTINUOUS
 10
-4.1963
 20
5.987635
 11
-8.68319
 21
5.987635
  0
LINE
  8
型材断面
  6
CONTINUOUS
 10
-15.473625
 20
4.579743
 11
37.183055
 21
4.579743
  0
LINE
  8
型材断面
  6
CONTINUOUS
 10
-15.473625
 20
-2.476045
 11
37.183055
 21
-2.476045
  0
LINE
  8
型材断面
  6
CONTINUOUS
 10
-136.68349
 20
-1.808625
 11
-133.035525
 21
-1.808625
  0
LINE
  8
型材断面
  6
CONTINUOUS
 10
-86.409807
 20
44.817093
 11
-133.035525
 21
-1.808625
  0
LINE
  8
型材断面
  6
CONTINUOUS
 10
-136.68349
 20
-1.808625
 11
-136.68349
 21
1.83934
  0
LINE
  8
型材断面
  6
CONTINUOUS
 10
-90.057775
 20
48.465055
 11
-136.68349
 21
1.83934
  0
LINE
  8
型材断面
  6
CONTINUOUS
 10
-86.682773
 20
-1.808625
 11
-86.682773
 21
44.544127
  0
LINE
  8
型材断面
  6
CONTINUOUS
 10
-85.702703
 20
44.817093
 11
-86.682773
 21
43.837023
  0
LINE
  8
型材断面
  6
CONTINUOUS
 10
-90.057775
 20
49.17216
 11
-91.037842
 21
48.192093
  0
LINE
  8
型材断面
  6
CONTINUOUS
 10
-136.68349
 20
48.192093
 11
-90.330738
 21
48.192093
  0
LINE
  8
型材断面
  6
CONTINUOUS
 10
-84.162842
 20
44.817093
 11
-83.182773
 21
43.837023
  0
LINE
  8
型材断面
  6
CONTINUOUS
 10
-79.80777
 20
49.17216
 11
-78.827703
 21
48.192093
  0
LINE
  8
型材断面
  6
CONTINUOUS
 10
-84.162842
 20
55.067093
 11
-83.182773
 21
56.047163
  0
LINE
  8
型材断面
  6
CONTINUOUS
 10
-79.80777
 20
50.712025
 11
-78.827703
 21
51.692093
  0
LINE
  8
型材断面
  6
CONTINUOUS
 10
-85.702703
 20
55.067093
 11
-86.682773
 21
56.047163
  0
LINE
  8
型材断面
  6
CONTINUOUS
 10
-90.057775
 20
50.712025
 11
-91.037842
 21
51.692093
  0
LINE
  8
型材断面
  6
CONTINUOUS
 10
-33.182055
 20
-1.808625
 11
-36.83002
 21
-1.808625
  0
LINE
  8
型材断面
  6
CONTINUOUS
 10
-83.455738
 20
44.817093
 11
-36.83002
 21
-1.808625
  0
LINE
  8
型材断面
  6
CONTINUOUS
 10
-33.182055
 20
-1.808625
 11
-33.182055
 21
1.83934
  0
LINE
  8
型材断面
  6
CONTINUOUS
 10
-79.80777
 20
48.465055
 11
-33.182055
 21
1.83934
  0
LINE
  8
型材断面
  6
CONTINUOUS
 10
-79.80777
 20
51.41913
 11
-33.182055
 21
98.044845
  0
LINE
  8
型材断面
  6
CONTINUOUS
 10
-33.182055
 20
101.69281
 11
-33.182055
 21
98.044845
  0
LINE
  8
型材断面
  6
CONTINUOUS
 10
-33.182055
 20
101.69281
 11
-36.83002
 21
101.69281
  0
LINE
  8
型材断面
  6
CONTINUOUS
 10
-83.455738
 20
55.067093
 11
-36.83002
 21
101.69281
  0
LINE
  8
型材断面
  6
CONTINUOUS
 10
-86.409807
 20
55.067093
 11
-133.035525
 21
101.69281
  0
LINE
  8
型材断面
  6
CONTINUOUS
 10
-136.68349
 20
101.69281
 11
-133.035525
 21
101.69281
  0
LINE
  8
型材断面
  6
CONTINUOUS
 10
-90.057775
 20
51.41913
 11
-136.68349
 21
98.044845
  0
LINE
  8
型材断面
  6
CONTINUOUS
 10
-136.68349
 20
101.69281
 11
-136.68349
 21
98.044845
  0
LINE
  8
型材断面
  6
CONTINUOUS
 10
-83.182773
 20
-1.808625
 11
-83.182773
 21
44.544127
  0
LINE
  8
型材断面
  6
CONTINUOUS
 10
-33.182055
 20
48.192093
 11
-79.534807
 21
48.192093
  0
LINE
  8
型材断面
  6
CONTINUOUS
 10
-33.182055
 20
51.692093
 11
-79.534807
 21
51.692093
  0
LINE
  8
型材断面
  6
CONTINUOUS
 10
-83.182773
 20
101.69281
 11
-83.182773
 21
55.340057
  0
LINE
  8
型材断面
  6
CONTINUOUS
 10
-86.682773
 20
101.69281
 11
-86.682773
 21
55.340057
  0
LINE
  8
型材断面
  6
CONTINUOUS
 10
-136.68349
 20
51.692093
 11
-90.330738
 21
51.692093
  0
LINE
  8
型材断面
  6
CONTINUOUS
 10
-85.702703
 20
-60.120338
 11
-86.682773
 21
-61.100407
  0
LINE
  8
型材断面
  6
CONTINUOUS
 10
-84.162842
 20
-60.120338
 11
-83.182773
 21
-61.100407
  0
LINE
  8
型材断面
  6
CONTINUOUS
 10
68.986103
 20
-18.407695
 11
92.917725
 21
-18.407695
  0
LINE
  8
ガラス
  6
CONTINUOUS
 10
-50.257957
 20
42.133653
 11
-54.130592
 21
38.261017
  0
LINE
  8
ガラス
  6
CONTINUOUS
 10
-51.13828
 20
40.535295
 11
-52.532235
 21
39.14134
  0
LINE
  8
ガラス
  6
CONTINUOUS
 10
-51.856315
 20
41.25333
 11
-53.25027
 21
39.859375
  0
LINE
  8
ガラス
  6
CONTINUOUS
 10
-50.257957
 20
61.68173
 11
-54.130592
 21
57.809095
  0
LINE
  8
ガラス
  6
CONTINUOUS
 10
-51.13828
 20
60.083373
 11
-52.532235
 21
58.689417
  0
LINE
  8
ガラス
  6
CONTINUOUS
 10
-51.856315
 20
60.801407
 11
-53.25027
 21
59.407452
  0
LINE
  8
ガラス
  6
CONTINUOUS
 10
-93.857478
 20
20.64123
 11
-97.730112
 21
16.768595
  0
LINE
  8
ガラス
  6
CONTINUOUS
 10
-94.7378
 20
19.042872
 11
-96.131755
 21
17.648918
  0
LINE
  8
ガラス
  6
CONTINUOUS
 10
-95.455835
 20
19.760908
 11
-96.84979
 21
18.366952
  0
LINE
  8
ガラス
  6
CONTINUOUS
 10
-72.625835
 20
20.64123
 11
-76.49847
 21
16.768595
  0
LINE
  8
ガラス
  6
CONTINUOUS
 10
-73.506157
 20
19.042872
 11
-74.900112
 21
17.648918
  0
LINE
  8
ガラス
  6
CONTINUOUS
 10
-74.224193
 20
19.760908
 11
-75.618148
 21
18.366952
  0
LINE
  8
ガラス
  6
CONTINUOUS
 10
-115.563575
 20
62.12023
 11
-119.43621
 21
58.247595
  0
LINE
  8
ガラス
  6
CONTINUOUS
 10
-116.443898
 20
60.521873
 11
-117.837853
 21
59.127917
  0
LINE
  8
ガラス
  6
CONTINUOUS
 10
-117.161932
 20
61.239907
 11
-118.555887
 21
59.845953
  0
LINE
  8
ガラス
  6
CONTINUOUS
 10
-115.563575
 20
41.150707
 11
-119.43621
 21
37.278073
  0
LINE
  8
ガラス
  6
CONTINUOUS
 10
-116.443898
 20
39.55235
 11
-117.837853
 21
38.158395
  0
LINE
  8
ガラス
  6
CONTINUOUS
 10
-117.161932
 20
40.270385
 11
-118.555887
 21
38.87643
  0
LINE
  8
ガラス
  6
CONTINUOUS
 10
-72.036067
 20
83.26568
 11
-75.908702
 21
79.393045
  0
LINE
  8
ガラス
  6
CONTINUOUS
 10
-72.91639
 20
81.667323
 11
-74.310345
 21
80.273367
  0
LINE
  8
ガラス
  6
CONTINUOUS
 10
-73.634425
 20
82.385357
 11
-75.02838
 21
80.991403
  0
LINE
  8
ガラス
  6
CONTINUOUS
 10
-93.00559
 20
83.26568
 11
-96.878225
 21
79.393045
  0
LINE
  8
ガラス
  6
CONTINUOUS
 10
-93.885912
 20
81.667323
 11
-95.279867
 21
80.273367
  0
LINE
  8
ガラス
  6
CONTINUOUS
 10
-94.603947
 20
82.385357
 11
-95.997902
 21
80.991403
  0
LINE
  8
ガラス
  6
CONTINUOUS
 10
-94.185127
 20
-87.82583
 11
-98.057762
 21
-91.698465
  0
LINE
  8
ガラス
  6
CONTINUOUS
 10
-95.06545
 20
-89.424187
 11
-96.459405
 21
-90.818142
  0
LINE
  8
ガラス
  6
CONTINUOUS
 10
-95.783485
 20
-88.706153
 11
-97.17744
 21
-90.100108
  0
LINE
  8
ガラス
  6
CONTINUOUS
 10
-72.756898
 20
-87.82583
 11
-76.629533
 21
-91.698465
  0
LINE
  8
ガラス
  6
CONTINUOUS
 10
-73.63722
 20
-89.424187
 11
-75.031175
 21
-90.818142
  0
LINE
  8
ガラス
  6
CONTINUOUS
 10
-74.355255
 20
-88.706153
 11
-75.74921
 21
-90.100108
  0
TEXT
  7
TextStyle03
  8
文字
  6
CONTINUOUS
 10
66.95
 20
93.675
  1
ＮＳコード：ＮＳ４ＣＫ
 40
5.0
 72
     5
 11
128.2
 21
93.675
  0
TEXT
  7
TextStyle03
  8
文字
  6
CONTINUOUS
 10
66.775
 20
116.15
  1
シリーズ：ＴＦ４Ｋ
 40
5.0
 72
     5
 11
116.775
 21
116.15
  0
TEXT
  7
TextStyle03
  8
文字
  6
CONTINUOUS
 10
66.775
 20
110.525
  1
　　　　　四角錘（固定）2000×2000タイプ
 40
5.0
 72
     5
 11
178.65
 21
110.525
  0
TEXT
  7
TextStyle03
  8
文字
  6
CONTINUOUS
 10
66.775
 20
104.9
  1
図面名　：外観姿図
 40
5.0
 72
     5
 11
116.775
 21
104.9
  0
TEXT
  7
TextStyle03
  8
文字
  6
CONTINUOUS
 10
66.775
 20
99.275
  1
　　　　　　
 40
5.0
 72
     5
 11
99.9
 21
99.275
  0
TEXT
  7
TextStyle03
  8
文字
  6
CONTINUOUS
 10
-147.175
 20
118.15
  1
アンカーピッチ
 40
3.0
 72
     5
 11
-123.925
 21
118.15
  0
TEXT
  7
TextStyle03
  8
文字
  6
CONTINUOUS
 10
-154.975
 20
-9.8
  1
アンカーピッチ
 40
3.0
 50
90.0
 72
     5
 11
-154.975
 21
13.45
  0
TEXT
  7
TextStyle03
  8
文字
  6
CONTINUOUS
 10
-2.125
 20
6.35
  1
は排水穴位置を示す
 40
3.0
 72
     5
 11
27.875
 21
6.35
  0
TEXT
  7
TextStyle03
  8
文字
  6
CONTINUOUS
 10
-7.725
 20
-1.05
  1
アンカー数量　１２ヶ所
 40
3.0
 72
     5
 11
29.025
 21
-1.05
  0
TEXT
  7
TextStyle03
  8
文字
  6
CONTINUOUS
 10
126.225
 20
-78.5
  1
本図×４枚
 40
3.0
 72
     5
 11
142.725
 21
-78.5
  0
TEXT
  7
TextStyle03
  8
文字
  6
CONTINUOUS
 10
126.225
 20
-81.875
  1
逆図×４枚
 40
3.0
 72
     5
 11
142.725
 21
-81.875
  0
TEXT
  7
TextStyle03
  8
文字
  6
CONTINUOUS
 10
72.65
 20
-17.225
  1
ガラス寸法
 40
3.0
 72
     5
 11
89.15
 21
-17.225
  0
INSERT
  2
*DIM_0002
  8
寸法
  6
CONTINUOUS
 10
0.0
 20
0.0
  0
INSERT
  2
*DIM_0003
  8
寸法
  6
CONTINUOUS
 10
0.0
 20
0.0
  0
INSERT
  2
*DIM_0005
  8
寸法
  6
CONTINUOUS
 10
0.0
 20
0.0
  0
INSERT
  2
*DIM_0006
  8
寸法
  6
CONTINUOUS
 10
0.0
 20
0.0
  0
INSERT
  2
*DIM_0007
  8
寸法
  6
CONTINUOUS
 10
0.0
 20
0.0
  0
INSERT
  2
*DIM_0008
  8
寸法
  6
CONTINUOUS
 10
0.0
 20
0.0
  0
INSERT
  2
*DIM_0009
  8
寸法
  6
CONTINUOUS
 10
0.0
 20
0.0
  0
INSERT
  2
*DIM_0010
  8
寸法
  6
CONTINUOUS
 10
0.0
 20
0.0
  0
INSERT
  2
*DIM_0011
  8
寸法
  6
CONTINUOUS
 10
0.0
 20
0.0
  0
INSERT
  2
*DIM_0012
  8
寸法
  6
CONTINUOUS
 10
0.0
 20
0.0
  0
INSERT
  2
*DIM_0013
  8
寸法
  6
CONTINUOUS
 10
0.0
 20
0.0
  0
INSERT
  2
*DIM_0014
  8
寸法
  6
CONTINUOUS
 10
0.0
 20
0.0
  0
INSERT
  2
*DIM_0015
  8
寸法
  6
CONTINUOUS
 10
0.0
 20
0.0
  0
LINE
  8
曲げ物
  6
CONTINUOUS
 10
151.614525
 20
-83.348842
 11
102.442178
 21
-83.348842
  0
LINE
  8
曲げ物
  6
CONTINUOUS
 10
102.442178
 20
-83.348842
 11
102.442178
 21
-13.808643
  0
LINE
  8
曲げ物
  6
CONTINUOUS
 10
151.614525
 20
-83.348842
 11
102.442178
 21
-13.808643
  0
ENDSEC
  0
EOF
