  0
SECTION
  2
HEADER
  9
$EXTMIN
 10
-210.0
 20
-148.5
  9
$EXTMAX
 10
210.0
 20
148.5
  9
$PDMODE
 70
    32
  9
$PDSIZE
 40
1.5
  9
$LTSCALE
 40
10.0
  0
ENDSEC
  0
SECTION
  2
TABLES
  0
TABLE
  2
LTYPE
 70
    15
  0
LTYPE
  2
CONTINUOUS
 70
    64
  3
実線
 72
    65
 73
     0
 40
0.0
  0
LTYPE
  2
DASHED
 70
    64
  3
破線A
 72
    65
 73
     2
 40
0.6
 49
0.4
 49
-0.2
  0
LTYPE
  2
DASHEDX2
 70
    64
  3
破線B
 72
    65
 73
     2
 40
1.3
 49
0.9
 49
-0.4
  0
LTYPE
  2
DASHDOT
 70
    64
  3
１点鎖線A
 72
    65
 73
     4
 40
0.5375
 49
0.375
 49
-0.05
 49
0.0625
 49
-0.05
  0
LTYPE
  2
DASHDOTX2
 70
    64
  3
１点鎖線B
 72
    65
 73
     4
 40
1.075
 49
0.75
 49
-0.1
 49
0.125
 49
-0.1
  0
LTYPE
  2
DIVIDE2
 70
    64
  3
２点鎖線A
 72
    65
 73
     6
 40
0.5125
 49
0.3
 49
-0.0375
 49
0.05
 49
-0.0375
 49
0.05
 49
-0.0375
  0
LTYPE
  2
DIVIDE
 70
    64
  3
２点鎖線B
 72
    65
 73
     6
 40
1.05
 49
0.55
 49
-0.1
 49
0.1
 49
-0.1
 49
0.1
 49
-0.1
  0
LTYPE
  2
DOT
 70
    64
  3
点線A
 72
    65
 73
     2
 40
0.1125
 49
0.0625
 49
-0.05
  0
LTYPE
  2
DOTX2
 70
    64
  3
点線B
 72
    65
 73
     2
 40
0.275
 49
0.15
 49
-0.125
  0
LTYPE
  2
CONTINUOUS
 70
    64
  3
実線
 72
    65
 73
     0
 40
0.0
  0
LTYPE
  2
CONTINUOUS
 70
    64
  3
実線
 72
    65
 73
     0
 40
0.0
  0
LTYPE
  2
CONTINUOUS
 70
    64
  3
実線
 72
    65
 73
     0
 40
0.0
  0
LTYPE
  2
CONTINUOUS
 70
    64
  3
実線
 72
    65
 73
     0
 40
0.0
  0
LTYPE
  2
CONTINUOUS
 70
    64
  3
実線
 72
    65
 73
     0
 40
0.0
  0
LTYPE
  2
CONTINUOUS
 70
    64
  3
実線
 72
    65
 73
     0
 40
0.0
  0
ENDTAB
  0
TABLE
  2
LAYER
 70
    35
  0
LAYER
  2
通り芯
 70
     0
 62
    15
  6
CONTINUOUS
  0
LAYER
  2
補助線
 70
     0
 62
    16
  6
DOT
  0
LAYER
  2
躯体
 70
     0
 62
    31
  6
CONTINUOUS
  0
LAYER
  2
型材
 70
     0
 62
    32
  6
CONTINUOUS
  0
LAYER
  2
型材断面
 70
     0
 62
    47
  6
CONTINUOUS
  0
LAYER
  2
ガラス
 70
     0
 62
    48
  6
CONTINUOUS
  0
LAYER
  2
ゴム等
 70
     0
 62
    63
  6
CONTINUOUS
  0
LAYER
  2
ボルト／ビス
 70
     0
 62
    64
  6
CONTINUOUS
  0
LAYER
  2
文字
 70
     0
 62
    79
  6
CONTINUOUS
  0
LAYER
  2
寸法
 70
     0
 62
    80
  6
CONTINUOUS
  0
LAYER
  2
ﾊｯﾁﾝｸﾞ
 70
     0
 62
    95
  6
CONTINUOUS
  0
LAYER
  2
別途部材
 70
     0
 62
    96
  6
CONTINUOUS
  0
LAYER
  2
曲げ物
 70
     0
 62
   111
  6
CONTINUOUS
  0
LAYER
  2
鉄骨等
 70
     0
 62
   112
  6
CONTINUOUS
  0
LAYER
  2
St
 70
     0
 62
   127
  6
CONTINUOUS
  0
LAYER
  2
その他部品等
 70
     0
 62
   128
  6
CONTINUOUS
  0
LAYER
  2
ｶﾞｽｹｯﾄ
 70
     0
 62
   143
  6
CONTINUOUS
  0
LAYER
  2
ｽｹｯﾁ
 70
     0
 62
    14
  6
CONTINUOUS
  0
LAYER
  2
0
 70
     0
 62
    17
  6
CONTINUOUS
  0
LAYER
  2
1
 70
     0
 62
    30
  6
CONTINUOUS
  0
LAYER
  2
4
 70
     0
 62
    33
  6
CONTINUOUS
  0
LAYER
  2
ﾚｲﾔ3
 70
     0
 62
    46
  6
CONTINUOUS
  0
LAYER
  2
外形線
 70
     0
 62
    49
  6
CONTINUOUS
  0
LAYER
  2
部品
 70
     0
 62
    14
  6
CONTINUOUS
  0
LAYER
  2
サッシ芯
 70
     0
 62
    17
  6
DASHDOTX2
  0
LAYER
  2
寸法線
 70
     0
 62
    62
  6
CONTINUOUS
  0
LAYER
  2
姿図外形線
 70
     0
 62
    65
  6
CONTINUOUS
  0
LAYER
  2
姿補助線
 70
     0
 62
    30
  6
CONTINUOUS
  0
LAYER
  2
透視線
 70
     0
 62
    78
  6
DOT
  0
LAYER
  2
用紙
 70
     0
 62
    81
  6
CONTINUOUS
  0
LAYER
  2
実線図枠
 70
     0
 62
    94
  6
CONTINUOUS
  0
LAYER
  2
補助図枠
 70
     0
 62
    97
  6
CONTINUOUS
  0
LAYER
  2
建具記号
 70
     0
 62
   110
  6
CONTINUOUS
  0
LAYER
  2
補助文字
 70
     0
 62
   113
  6
CONTINUOUS
  0
LAYER
  2
01
 70
     0
 62
     1
  6
CONTINUOUS
  0
ENDTAB
  0
TABLE
  2
STYLE
 70
    10
  0
STYLE
  2
STANDARD
 70
     0
 40
1.0
 41
1.0
 42
1.0
 50
0.0
 71
     0
  3
TXT
  4
BIGFONT
  0
STYLE
  2
TATE
 70
     4
 40
1.0
 41
1.0
 42
1.0
 50
0.0
 71
     0
  3
TXT
  4
BIGFONT
  0
STYLE
  2
TextStyle03
 70
     0
 40
1.0
 41
1.0
 42
1.0
 50
0.0
 71
     0
  3
MONOTXT
  4
BIGFONT
  0
STYLE
  2
TextStyle04
 70
     0
 40
1.0
 41
1.0
 42
1.0
 50
0.0
 71
     0
  3
MONOTXT
  4
BIGFONT
  0
STYLE
  2
TextStyle05
 70
     0
 40
1.0
 41
1.0
 42
1.0
 50
0.0
 71
     0
  3
MONOTXT
  4
BIGFONT
  0
STYLE
  2
TextStyle06
 70
     0
 40
1.0
 41
1.0
 42
1.0
 50
0.0
 71
     0
  3
MONOTXT
  4
BIGFONT
  0
STYLE
  2
TextStyle07
 70
     0
 40
1.0
 41
1.0
 42
1.0
 50
0.0
 71
     0
  3
MONOTXT
  4
BIGFONT
  0
STYLE
  2
TextStyle08
 70
     0
 40
1.0
 41
1.0
 42
1.0
 50
0.0
 71
     0
  3
MONOTXT
  4
BIGFONT
  0
STYLE
  2
TextStyle09
 70
     0
 40
1.0
 41
1.0
 42
1.0
 50
0.0
 71
     0
  3
MONOTXT
  4
BIGFONT
  0
STYLE
  2
TextStyle10
 70
     0
 40
1.0
 41
1.0
 42
1.0
 50
0.0
 71
     0
  3
MONOTXT
  4
BIGFONT
  0
ENDTAB
  0
ENDSEC
  0
SECTION
  2
BLOCKS
  0
BLOCK
  2
*GRP_0001
 70
    65
 10
0.0
 20
0.0
  0
LINE
  8
型材断面
  6
CONTINUOUS
 10
195.0
 20
133.5
 11
195.0
 21
-133.5
  0
LINE
  8
型材断面
  6
CONTINUOUS
 10
195.0
 20
-133.5
 11
-185.0
 21
-133.5
  0
LINE
  8
型材断面
  6
CONTINUOUS
 10
-185.0
 20
-133.5
 11
-185.0
 21
133.5
  0
LINE
  8
型材断面
  6
CONTINUOUS
 10
195.0
 20
133.5
 11
-185.0
 21
133.5
  0
LINE
  8
型材断面
  6
CONTINUOUS
 10
145.0
 20
-133.5
 11
145.0
 21
-118.5
  0
LINE
  8
型材断面
  6
CONTINUOUS
 10
195.0
 20
-118.5
 11
145.0
 21
-118.5
  0
ENDBLK
  0
BLOCK
  2
*DIM_0002
 70
    65
 10
0.0
 20
0.0
  0
LINE
  8
寸法
  6
BYBLOCK
 62
     0
 10
-75.395675
 20
-53.13842
 11
-75.395675
 21
-36.798775
  0
LINE
  8
寸法
  6
BYBLOCK
 62
     0
 10
-65.14567
 20
-53.13842
 11
-65.14567
 21
-36.798775
  0
LINE
  8
寸法
  6
BYBLOCK
 62
     0
 10
-75.395675
 20
-36.798775
 11
-65.14567
 21
-36.798775
  0
POINT
  8
寸法
 62
     0
 10
-75.395675
 20
-36.798775
  0
POINT
  8
寸法
 62
     0
 10
-65.14567
 20
-36.798775
  0
TEXT
  7
TextStyle03
  8
寸法
  6
CONTINUOUS
 62
     0
 10
-72.7375
 20
-36.425
  1
205
 40
3.0
 72
     5
 11
-67.8625
 21
-36.425
  0
ENDBLK
  0
BLOCK
  2
*DIM_0003
 70
    65
 10
0.0
 20
0.0
  0
LINE
  8
寸法
  6
CONTINUOUS
 10
-64.14567
 20
-54.56342
 11
-54.218937
 21
-54.56342
  0
LINE
  8
寸法
  6
CONTINUOUS
 10
-54.218937
 20
-49.438422
 11
-54.218937
 21
-54.56342
  0
POINT
  8
寸法
 10
-54.218937
 20
-49.438422
  0
POINT
  8
寸法
 10
-54.218937
 20
-54.56342
  0
TEXT
  7
TextStyle03
  8
寸法
  6
CONTINUOUS
 10
-51.225
 20
-56.125
  1
102.5
 40
3.0
 50
90.0
 72
     5
 11
-51.225
 21
-47.875
  0
ENDBLK
  0
BLOCK
  2
*DIM_0004
 70
    65
 10
0.0
 20
0.0
  0
LINE
  8
寸法
  6
CONTINUOUS
 10
-22.070453
 20
-96.430062
 11
-12.11056
 21
-96.430062
  0
LINE
  8
寸法
  6
CONTINUOUS
 10
-22.070453
 20
-92.780062
 11
-12.11056
 21
-92.780062
  0
LINE
  8
寸法
  6
CONTINUOUS
 10
-12.11056
 20
-96.430062
 11
-12.11056
 21
-92.780062
  0
POINT
  8
寸法
 10
-12.11056
 20
-96.430062
  0
POINT
  8
寸法
 10
-12.11056
 20
-92.780062
  0
TEXT
  7
TextStyle03
  8
寸法
  6
CONTINUOUS
 10
-12.5
 20
-96.21875
  1
73
 40
3.0
 50
90.0
 72
     5
 11
-12.5
 21
-93.03125
  0
ENDBLK
  0
BLOCK
  2
*DIM_0005
 70
    65
 10
0.0
 20
0.0
  0
LINE
  8
寸法
  6
CONTINUOUS
 10
-27.070453
 20
-87.780062
 11
-27.070453
 21
-20.125953
  0
LINE
  8
寸法
  6
CONTINUOUS
 10
-30.270673
 20
-20.125953
 11
-27.070453
 21
-20.125953
  0
POINT
  8
寸法
 10
-30.270673
 20
-20.125953
  0
POINT
  8
寸法
 10
-27.070453
 20
-20.125953
  0
TEXT
  7
TextStyle03
  8
寸法
  6
CONTINUOUS
 10
-30.26875
 20
-19.775
  1
64
 40
3.0
 72
     5
 11
-27.08125
 21
-19.775
  0
ENDBLK
  0
BLOCK
  2
*DIM_0006
 70
    65
 10
0.0
 20
0.0
  0
LINE
  8
寸法
  6
CONTINUOUS
 10
-113.470892
 20
-87.780062
 11
-113.470892
 21
-20.125953
  0
LINE
  8
寸法
  6
CONTINUOUS
 10
-110.270673
 20
-20.125953
 11
-113.470892
 21
-20.125953
  0
POINT
  8
寸法
 10
-110.270673
 20
-20.125953
  0
POINT
  8
寸法
 10
-113.470892
 20
-20.125953
  0
TEXT
  7
TextStyle03
  8
寸法
  6
CONTINUOUS
 10
-113.46875
 20
-19.775
  1
64
 40
3.0
 72
     5
 11
-110.28125
 21
-19.775
  0
ENDBLK
  0
BLOCK
  2
*DIM_0007
 70
    65
 10
0.0
 20
0.0
  0
LINE
  8
寸法
  6
CONTINUOUS
 10
-110.270673
 20
-20.125953
 11
-30.270673
 21
-20.125953
  0
POINT
  8
寸法
 10
-110.270673
 20
-20.125953
  0
POINT
  8
寸法
 10
-30.270673
 20
-20.125953
  0
TEXT
  7
TextStyle03
  8
寸法
  6
CONTINUOUS
 10
-81.99375
 20
-19.775
  1
呼称寸法　1600
 40
3.0
 72
     5
 11
-58.55625
 21
-19.775
  0
ENDBLK
  0
BLOCK
  2
*DIM_0008
 70
    65
 10
0.0
 20
0.0
  0
LINE
  8
寸法
  6
BYBLOCK
 62
     0
 10
-100.270673
 20
99.039045
 11
-100.270673
 21
106.814555
  0
LINE
  8
寸法
  6
BYBLOCK
 62
     0
 10
-70.270673
 20
99.039045
 11
-70.270673
 21
106.814555
  0
LINE
  8
寸法
  6
BYBLOCK
 62
     0
 10
-100.270673
 20
106.814555
 11
-70.270673
 21
106.814555
  0
POINT
  8
寸法
 62
     0
 10
-100.270673
 20
106.814555
  0
POINT
  8
寸法
 62
     0
 10
-70.270673
 20
106.814555
  0
TEXT
  7
TextStyle03
  8
寸法
  6
CONTINUOUS
 62
     0
 10
-87.7125
 20
107.2
  1
600
 40
3.0
 72
     5
 11
-82.8375
 21
107.2
  0
ENDBLK
  0
BLOCK
  2
*DIM_0009
 70
    65
 10
0.0
 20
0.0
  0
LINE
  8
寸法
  6
BYBLOCK
 62
     0
 10
-40.270673
 20
99.039045
 11
-40.270673
 21
106.814555
  0
LINE
  8
寸法
  6
BYBLOCK
 62
     0
 10
-70.270673
 20
106.814555
 11
-40.270673
 21
106.814555
  0
POINT
  8
寸法
 62
     0
 10
-40.270673
 20
106.814555
  0
TEXT
  7
TextStyle03
  8
寸法
  6
CONTINUOUS
 62
     0
 10
-57.7125
 20
107.2
  1
600
 40
3.0
 72
     5
 11
-52.8375
 21
107.2
  0
ENDBLK
  0
BLOCK
  2
*DIM_0010
 70
    65
 10
0.0
 20
0.0
  0
LINE
  8
寸法
  6
BYBLOCK
 62
     0
 10
-120.121478
 20
63.88519
 11
-130.944777
 21
63.88519
  0
LINE
  8
寸法
  6
BYBLOCK
 62
     0
 10
-120.121478
 20
28.88519
 11
-130.944777
 21
28.88519
  0
LINE
  8
寸法
  6
BYBLOCK
 62
     0
 10
-130.944777
 20
63.88519
 11
-130.944777
 21
28.88519
  0
POINT
  8
寸法
 62
     0
 10
-130.944777
 20
63.88519
  0
POINT
  8
寸法
 62
     0
 10
-130.944777
 20
28.88519
  0
TEXT
  7
TextStyle03
  8
寸法
  6
CONTINUOUS
 62
     0
 10
-131.275
 20
43.9375
  1
700
 40
3.0
 50
90.0
 72
     5
 11
-131.275
 21
48.8125
  0
ENDBLK
  0
BLOCK
  2
*DIM_0011
 70
    65
 10
0.0
 20
0.0
  0
LINE
  8
寸法
  6
BYBLOCK
 62
     0
 10
-67.270673
 20
-49.438422
 11
-12.11056
 21
-49.438422
  0
LINE
  8
寸法
  6
BYBLOCK
 62
     0
 10
-12.11056
 20
-92.780062
 11
-12.11056
 21
-49.438422
  0
POINT
  8
寸法
 62
     0
 10
-12.11056
 20
-92.780062
  0
POINT
  8
寸法
 62
     0
 10
-12.11056
 20
-49.438422
  0
TEXT
  7
TextStyle03
  8
寸法
  6
CONTINUOUS
 62
     0
 10
-12.5
 20
-75.25
  1
866.8
 40
3.0
 50
90.0
 72
     5
 11
-12.5
 21
-67.0
  0
ENDBLK
  0
BLOCK
  2
*DIM_0012
 70
    65
 10
0.0
 20
0.0
  0
LINE
  8
寸法
  6
BYBLOCK
 62
     0
 10
77.913045
 20
-91.443843
 11
77.913045
 21
-101.379748
  0
LINE
  8
寸法
  6
BYBLOCK
 62
     0
 10
157.95774
 20
-91.443843
 11
157.95774
 21
-101.379748
  0
LINE
  8
寸法
  6
BYBLOCK
 62
     0
 10
77.913045
 20
-101.379748
 11
157.95774
 21
-101.379748
  0
POINT
  8
寸法
 62
     0
 10
77.913045
 20
-101.379748
  0
POINT
  8
寸法
 62
     0
 10
157.95774
 20
-101.379748
  0
TEXT
  7
TextStyle03
  8
寸法
  6
CONTINUOUS
 62
     0
 10
112.93125
 20
-101.05
  1
1600.9
 40
3.0
 72
     5
 11
122.86875
 21
-101.05
  0
ENDBLK
  0
BLOCK
  2
*DIM_0013
 70
    65
 10
0.0
 20
0.0
  0
LINE
  8
寸法
  6
BYBLOCK
 62
     0
 10
160.95774
 20
-88.443843
 11
169.388513
 21
-88.443843
  0
LINE
  8
寸法
  6
BYBLOCK
 62
     0
 10
120.935392
 20
-31.843695
 11
169.388513
 21
-31.843695
  0
LINE
  8
寸法
  6
BYBLOCK
 62
     0
 10
169.388513
 20
-88.443843
 11
169.388513
 21
-31.843695
  0
POINT
  8
寸法
 62
     0
 10
169.388513
 20
-88.443843
  0
POINT
  8
寸法
 62
     0
 10
169.388513
 20
-31.843695
  0
TEXT
  7
TextStyle03
  8
寸法
  6
CONTINUOUS
 62
     0
 10
168.975
 20
-63.45625
  1
1132
 40
3.0
 50
90.0
 72
     5
 11
168.975
 21
-56.89375
  0
ENDBLK
  0
ENDSEC
  0
SECTION
  2
ENTITIES
  0
POLYLINE
  8
通り芯
  6
CONTINUOUS
 66
     1
 70
     1
  0
VERTEX
  8
通り芯
 10
-210.0
 20
-148.5
  0
VERTEX
  8
通り芯
 10
210.0
 20
-148.5
  0
VERTEX
  8
通り芯
 10
210.0
 20
148.5
  0
VERTEX
  8
通り芯
 10
-210.0
 20
148.5
  0
SEQEND
  0
INSERT
  2
*GRP_0001
  8
型材断面
  6
CONTINUOUS
 10
0.0
 20
0.0
  0
LINE
  8
型材断面
  6
CONTINUOUS
 10
-65.14567
 20
41.26019
 11
-70.27067
 21
41.26019
  0
LINE
  8
型材断面
  6
CONTINUOUS
 10
-65.14567
 20
41.26019
 11
-65.14567
 21
46.38519
  0
LINE
  8
型材断面
  6
CONTINUOUS
 10
-65.14567
 20
51.51019
 11
-70.27067
 21
51.51019
  0
LINE
  8
型材断面
  6
CONTINUOUS
 10
-65.14567
 20
51.51019
 11
-65.14567
 21
46.38519
  0
LINE
  8
型材断面
  6
CONTINUOUS
 10
-75.395675
 20
51.51019
 11
-70.270675
 21
51.51019
  0
LINE
  8
型材断面
  6
CONTINUOUS
 10
-75.395675
 20
51.51019
 11
-75.395675
 21
46.38519
  0
LINE
  8
型材断面
  6
CONTINUOUS
 10
-75.395675
 20
41.26019
 11
-70.270675
 21
41.26019
  0
LINE
  8
型材断面
  6
CONTINUOUS
 10
-75.395675
 20
41.26019
 11
-75.395675
 21
46.38519
  0
LINE
  8
型材断面
  6
CONTINUOUS
 10
-75.395675
 20
-54.56342
 11
-75.324963
 21
-54.634133
  0
LINE
  8
型材断面
  6
CONTINUOUS
 10
-75.395675
 20
-54.56342
 11
-70.270675
 21
-54.56342
  0
LINE
  8
型材断面
  6
CONTINUOUS
 10
-75.324963
 20
-54.634133
 11
-70.270675
 21
-54.634133
  0
LINE
  8
型材断面
  6
CONTINUOUS
 10
-75.395675
 20
-54.56342
 11
-70.270673
 21
-49.438422
  0
LINE
  8
型材断面
  6
CONTINUOUS
 10
-65.14567
 20
-54.56342
 11
-65.216382
 21
-54.634133
  0
LINE
  8
型材断面
  6
CONTINUOUS
 10
-65.14567
 20
-54.56342
 11
-70.27067
 21
-54.56342
  0
LINE
  8
型材断面
  6
CONTINUOUS
 10
-65.216382
 20
-54.634133
 11
-70.27067
 21
-54.634133
  0
LINE
  8
型材断面
  6
CONTINUOUS
 10
-65.14567
 20
-54.56342
 11
-70.270673
 21
-49.438422
  0
LINE
  8
型材断面
  6
DASHDOT
 10
-110.270673
 20
46.38519
 11
-30.270673
 21
46.38519
  0
LINE
  8
型材断面
  6
CONTINUOUS
 10
-70.270673
 20
46.38519
 11
-27.07045
 21
3.184967
  0
LINE
  8
型材断面
  6
CONTINUOUS
 10
-27.07045
 20
3.184967
 11
-70.270673
 21
3.184967
  0
LINE
  8
型材断面
  6
CONTINUOUS
 10
-28.166432
 20
4.28095
 11
-70.270673
 21
4.28095
  0
LINE
  8
型材断面
  6
CONTINUOUS
 10
-27.07045
 20
3.184967
 11
-27.07045
 21
46.38519
  0
LINE
  8
型材断面
  6
CONTINUOUS
 10
-28.166432
 20
4.28095
 11
-28.166432
 21
46.38519
  0
LINE
  8
型材断面
  6
CONTINUOUS
 10
-70.270673
 20
46.38519
 11
-113.470895
 21
3.184967
  0
LINE
  8
型材断面
  6
CONTINUOUS
 10
-113.470895
 20
3.184967
 11
-70.270673
 21
3.184967
  0
LINE
  8
型材断面
  6
CONTINUOUS
 10
-112.374913
 20
4.28095
 11
-70.270673
 21
4.28095
  0
LINE
  8
型材断面
  6
CONTINUOUS
 10
-113.470895
 20
3.184967
 11
-113.470895
 21
46.38519
  0
LINE
  8
型材断面
  6
CONTINUOUS
 10
-112.374913
 20
4.28095
 11
-112.374913
 21
46.38519
  0
LINE
  8
型材断面
  6
DASHDOT
 10
-110.270673
 20
6.38519
 11
-30.270673
 21
6.38519
  0
LINE
  8
型材断面
  6
CONTINUOUS
 10
-70.270673
 20
46.38519
 11
-27.07045
 21
89.585412
  0
LINE
  8
型材断面
  6
CONTINUOUS
 10
-27.07045
 20
89.585412
 11
-70.270673
 21
89.585412
  0
LINE
  8
型材断面
  6
CONTINUOUS
 10
-28.166432
 20
88.48943
 11
-70.270673
 21
88.48943
  0
LINE
  8
型材断面
  6
CONTINUOUS
 10
-27.07045
 20
89.585412
 11
-27.07045
 21
46.38519
  0
LINE
  8
型材断面
  6
CONTINUOUS
 10
-28.166432
 20
88.48943
 11
-28.166432
 21
46.38519
  0
LINE
  8
型材断面
  6
CONTINUOUS
 10
-70.270673
 20
46.38519
 11
-113.470895
 21
89.585412
  0
LINE
  8
型材断面
  6
CONTINUOUS
 10
-113.470895
 20
89.585412
 11
-70.270673
 21
89.585412
  0
LINE
  8
型材断面
  6
CONTINUOUS
 10
-112.374913
 20
88.48943
 11
-70.270673
 21
88.48943
  0
LINE
  8
型材断面
  6
CONTINUOUS
 10
-113.470895
 20
89.585412
 11
-113.470895
 21
46.38519
  0
LINE
  8
型材断面
  6
CONTINUOUS
 10
-112.374913
 20
88.48943
 11
-112.374913
 21
46.38519
  0
LINE
  8
型材断面
  6
DASHDOT
 10
-110.270673
 20
86.38519
 11
-30.270673
 21
86.38519
  0
LINE
  8
型材断面
  6
CONTINUOUS
 10
-27.070453
 20
-92.780062
 11
-65.216382
 21
-54.634133
  0
LINE
  8
型材断面
  6
CONTINUOUS
 10
-28.166403
 20
-91.684112
 11
-70.270673
 21
-91.684112
  0
LINE
  8
型材断面
  6
CONTINUOUS
 10
-70.270673
 20
-93.480062
 11
-27.07045
 21
-93.480062
  0
LINE
  8
型材断面
  6
CONTINUOUS
 10
-70.270673
 20
-92.780062
 11
-27.07045
 21
-92.780062
  0
LINE
  8
型材断面
  6
CONTINUOUS
 10
-70.270673
 20
-96.430062
 11
-27.070453
 21
-96.430062
  0
LINE
  8
型材断面
  6
CONTINUOUS
 10
-27.070453
 20
-92.780062
 11
-27.070453
 21
-96.430062
  0
LINE
  8
型材断面
  6
CONTINUOUS
 10
-70.270673
 20
-97.130062
 11
-27.92045
 21
-97.130062
  0
LINE
  8
型材断面
  6
CONTINUOUS
 10
-27.92045
 20
-96.430062
 11
-27.92045
 21
-97.130062
  0
LINE
  8
型材断面
  6
CONTINUOUS
 10
-69.03204
 20
-54.634133
 11
-32.335615
 21
-91.330558
  0
LINE
  8
型材断面
  6
CONTINUOUS
 10
-68.890618
 20
-54.634133
 11
-32.194193
 21
-91.330558
  0
LINE
  8
型材断面
  6
CONTINUOUS
 10
-28.519957
 20
-91.330558
 11
-32.335615
 21
-91.330558
  0
LINE
  8
型材断面
  6
DASHDOT
 10
-30.270673
 20
-97.130062
 11
-30.270673
 21
-72.079842
  0
LINE
  8
型材断面
  6
CONTINUOUS
 10
-113.470892
 20
-92.780062
 11
-75.324963
 21
-54.634133
  0
LINE
  8
型材断面
  6
CONTINUOUS
 10
-112.374943
 20
-91.684112
 11
-70.270673
 21
-91.684112
  0
LINE
  8
型材断面
  6
CONTINUOUS
 10
-70.270673
 20
-93.480062
 11
-113.470895
 21
-93.480062
  0
LINE
  8
型材断面
  6
CONTINUOUS
 10
-70.270673
 20
-92.780062
 11
-113.470895
 21
-92.780062
  0
LINE
  8
型材断面
  6
CONTINUOUS
 10
-70.270673
 20
-96.430062
 11
-113.470892
 21
-96.430062
  0
LINE
  8
型材断面
  6
CONTINUOUS
 10
-113.470892
 20
-92.780062
 11
-113.470892
 21
-96.430062
  0
LINE
  8
型材断面
  6
CONTINUOUS
 10
-70.270673
 20
-97.130062
 11
-112.620895
 21
-97.130062
  0
LINE
  8
型材断面
  6
CONTINUOUS
 10
-112.620895
 20
-96.430062
 11
-112.620895
 21
-97.130062
  0
LINE
  8
型材断面
  6
CONTINUOUS
 10
-71.509305
 20
-54.634133
 11
-108.20573
 21
-91.330558
  0
LINE
  8
型材断面
  6
CONTINUOUS
 10
-71.650727
 20
-54.634133
 11
-108.347152
 21
-91.330558
  0
LINE
  8
型材断面
  6
CONTINUOUS
 10
-112.021388
 20
-91.330558
 11
-108.20573
 21
-91.330558
  0
LINE
  8
型材断面
  6
DASHDOT
 10
-110.270673
 20
-97.130062
 11
-110.270673
 21
-72.079842
  0
LINE
  8
型材断面
  6
DASHDOT
 10
-70.270673
 20
-97.130062
 11
-70.270673
 21
86.38519
  0
LINE
  8
型材断面
  6
DASHDOT
 10
-30.270673
 20
-97.130062
 11
-30.270673
 21
86.38519
  0
LINE
  8
型材断面
  6
DASHDOT
 10
-110.270673
 20
-97.130062
 11
-110.270673
 21
86.38519
  0
LINE
  8
型材断面
  6
CONTINUOUS
 10
-26.11305
 20
46.385193
 11
-22.22729
 21
44.141748
  0
LINE
  8
型材断面
  6
CONTINUOUS
 10
-26.11305
 20
46.385193
 11
-22.22729
 21
48.628637
  0
LINE
  8
型材断面
  6
CONTINUOUS
 10
-22.22729
 20
48.628637
 11
-22.22729
 21
44.141748
  0
LINE
  8
型材断面
  6
CONTINUOUS
 10
-70.270673
 20
90.892305
 11
-72.514117
 21
94.778065
  0
LINE
  8
型材断面
  6
CONTINUOUS
 10
-70.270673
 20
90.892305
 11
-68.027228
 21
94.778065
  0
LINE
  8
型材断面
  6
CONTINUOUS
 10
-68.027228
 20
94.778065
 11
-72.514117
 21
94.778065
  0
LINE
  8
型材断面
  6
CONTINUOUS
 10
-114.821472
 20
46.385193
 11
-118.707233
 21
44.141748
  0
LINE
  8
型材断面
  6
CONTINUOUS
 10
-114.821472
 20
46.385193
 11
-118.707233
 21
48.628637
  0
LINE
  8
型材断面
  6
CONTINUOUS
 10
-118.707233
 20
48.628637
 11
-118.707233
 21
44.141748
  0
LINE
  8
型材断面
  6
CONTINUOUS
 10
-70.270673
 20
1.310153
 11
-72.514117
 21
-2.575608
  0
LINE
  8
型材断面
  6
CONTINUOUS
 10
-70.270673
 20
1.310153
 11
-68.027228
 21
-2.575608
  0
LINE
  8
型材断面
  6
CONTINUOUS
 10
-68.027228
 20
-2.575608
 11
-72.514117
 21
-2.575608
  0
LINE
  8
型材断面
  6
CONTINUOUS
 10
-3.84785
 20
16.16261
 11
-6.091295
 21
12.27685
  0
LINE
  8
型材断面
  6
CONTINUOUS
 10
-3.84785
 20
16.16261
 11
-1.604405
 21
12.27685
  0
LINE
  8
型材断面
  6
CONTINUOUS
 10
-1.604405
 20
12.27685
 11
-6.091295
 21
12.27685
  0
LINE
  8
型材断面
  6
CONTINUOUS
 10
-12.88173
 20
10.868958
 11
39.77495
 21
10.868958
  0
LINE
  8
型材断面
  6
CONTINUOUS
 10
-12.88173
 20
2.6917
 11
39.77495
 21
2.6917
  0
LINE
  8
型材断面
  6
CONTINUOUS
 10
-112.02139
 20
4.634473
 11
-108.373425
 21
4.634473
  0
LINE
  8
型材断面
  6
CONTINUOUS
 10
-71.747707
 20
41.26019
 11
-108.373425
 21
4.634473
  0
LINE
  8
型材断面
  6
CONTINUOUS
 10
-112.02139
 20
4.634473
 11
-112.02139
 21
8.282438
  0
LINE
  8
型材断面
  6
CONTINUOUS
 10
-75.395675
 20
44.908152
 11
-112.02139
 21
8.282438
  0
LINE
  8
型材断面
  6
CONTINUOUS
 10
-28.519955
 20
4.634473
 11
-32.16792
 21
4.634473
  0
LINE
  8
型材断面
  6
CONTINUOUS
 10
-68.793638
 20
41.26019
 11
-32.16792
 21
4.634473
  0
LINE
  8
型材断面
  6
CONTINUOUS
 10
-28.519955
 20
4.634473
 11
-28.519955
 21
8.282438
  0
LINE
  8
型材断面
  6
CONTINUOUS
 10
-65.14567
 20
44.908152
 11
-28.519955
 21
8.282438
  0
LINE
  8
型材断面
  6
CONTINUOUS
 10
-28.519955
 20
88.135908
 11
-32.16792
 21
88.135908
  0
LINE
  8
型材断面
  6
CONTINUOUS
 10
-68.793638
 20
51.51019
 11
-32.16792
 21
88.135908
  0
LINE
  8
型材断面
  6
CONTINUOUS
 10
-28.519955
 20
88.135908
 11
-28.519955
 21
84.487942
  0
LINE
  8
型材断面
  6
CONTINUOUS
 10
-65.14567
 20
47.862227
 11
-28.519955
 21
84.487942
  0
LINE
  8
型材断面
  6
CONTINUOUS
 10
-112.02139
 20
88.135908
 11
-108.373425
 21
88.135908
  0
LINE
  8
型材断面
  6
CONTINUOUS
 10
-71.747707
 20
51.51019
 11
-108.373425
 21
88.135908
  0
LINE
  8
型材断面
  6
CONTINUOUS
 10
-112.02139
 20
88.135908
 11
-112.02139
 21
84.487942
  0
LINE
  8
型材断面
  6
CONTINUOUS
 10
-75.395675
 20
47.862227
 11
-112.02139
 21
84.487942
  0
LINE
  8
型材断面
  6
CONTINUOUS
 10
84.479318
 20
-36.442748
 11
108.41094
 21
-36.442748
  0
LINE
  8
ガラス
  6
CONTINUOUS
 10
-68.382967
 20
-74.943925
 11
-72.255602
 21
-78.81656
  0
LINE
  8
ガラス
  6
CONTINUOUS
 10
-69.26329
 20
-76.542282
 11
-70.657245
 21
-77.936237
  0
LINE
  8
ガラス
  6
CONTINUOUS
 10
-69.981325
 20
-75.824247
 11
-71.37528
 21
-77.218203
  0
LINE
  8
ガラス
  6
CONTINUOUS
 10
-41.75216
 20
48.340685
 11
-45.624795
 21
44.46805
  0
LINE
  8
ガラス
  6
CONTINUOUS
 10
-42.632482
 20
46.742327
 11
-44.026437
 21
45.348373
  0
LINE
  8
ガラス
  6
CONTINUOUS
 10
-43.350518
 20
47.460362
 11
-44.744473
 21
46.066408
  0
LINE
  8
ガラス
  6
CONTINUOUS
 10
-68.382967
 20
21.576765
 11
-72.255602
 21
17.70413
  0
LINE
  8
ガラス
  6
CONTINUOUS
 10
-69.26329
 20
19.978407
 11
-70.657245
 21
18.584453
  0
LINE
  8
ガラス
  6
CONTINUOUS
 10
-69.981325
 20
20.696443
 11
-71.37528
 21
19.302487
  0
LINE
  8
ガラス
  6
CONTINUOUS
 10
-68.382967
 20
73.718863
 11
-72.255602
 21
69.846227
  0
LINE
  8
ガラス
  6
CONTINUOUS
 10
-69.26329
 20
72.120505
 11
-70.657245
 21
70.72655
  0
LINE
  8
ガラス
  6
CONTINUOUS
 10
-69.981325
 20
72.83854
 11
-71.37528
 21
71.444585
  0
LINE
  8
ガラス
  6
CONTINUOUS
 10
-94.079627
 20
48.340685
 11
-97.952262
 21
44.46805
  0
LINE
  8
ガラス
  6
CONTINUOUS
 10
-94.95995
 20
46.742327
 11
-96.353905
 21
45.348373
  0
LINE
  8
ガラス
  6
CONTINUOUS
 10
-95.677985
 20
47.460362
 11
-97.07194
 21
46.066408
  0
TEXT
  7
TextStyle03
  8
文字
  6
CONTINUOUS
 10
75.7
 20
100.55
  1
ＮＳコード：ＮＳ４ＣＫ
 40
5.0
 72
     5
 11
136.95
 21
100.55
  0
TEXT
  7
TextStyle03
  8
文字
  6
CONTINUOUS
 10
76.05
 20
121.7
  1
シリーズ：ＴＦ４Ｋ
 40
5.0
 72
     5
 11
126.05
 21
121.7
  0
TEXT
  7
TextStyle03
  8
文字
  6
CONTINUOUS
 10
76.05
 20
116.075
  1
　　　　　四角錘（固定）1600×1600タイプ
 40
5.0
 72
     5
 11
187.925
 21
116.075
  0
TEXT
  7
TextStyle03
  8
文字
  6
CONTINUOUS
 10
76.05
 20
110.45
  1
図面名　：外観姿図
 40
5.0
 72
     5
 11
126.05
 21
110.45
  0
TEXT
  7
TextStyle03
  8
文字
  6
CONTINUOUS
 10
76.05
 20
104.825
  1
　　　　　　
 40
5.0
 72
     5
 11
109.175
 21
104.825
  0
TEXT
  7
TextStyle03
  8
文字
  6
CONTINUOUS
 10
-130.5
 20
102.9
  1
アンカーピッチ
 40
3.0
 72
     5
 11
-107.25
 21
102.9
  0
TEXT
  7
TextStyle03
  8
文字
  6
CONTINUOUS
 10
-127.775
 20
3.3
  1
アンカーピッチ
 40
3.0
 50
90.0
 72
     5
 11
-127.775
 21
26.55
  0
TEXT
  7
TextStyle03
  8
文字
  6
CONTINUOUS
 10
0.475
 20
12.6
  1
は排水穴位置を示す
 40
3.0
 72
     5
 11
30.475
 21
12.6
  0
TEXT
  7
TextStyle03
  8
文字
  6
CONTINUOUS
 10
-5.125
 20
4.075
  1
アンカー数量　１０ヶ所
 40
3.0
 72
     5
 11
31.625
 21
4.075
  0
TEXT
  7
TextStyle03
  8
文字
  6
CONTINUOUS
 10
141.075
 20
-86.975
  1
×４枚
 40
3.0
 72
     5
 11
150.825
 21
-86.975
  0
TEXT
  7
TextStyle03
  8
文字
  6
CONTINUOUS
 10
88.125
 20
-35.25
  1
ガラス寸法
 40
3.0
 72
     5
 11
104.625
 21
-35.25
  0
INSERT
  2
*DIM_0002
  8
寸法
  6
CONTINUOUS
 10
0.0
 20
0.0
  0
INSERT
  2
*DIM_0003
  8
寸法
  6
CONTINUOUS
 10
0.0
 20
0.0
  0
INSERT
  2
*DIM_0004
  8
寸法
  6
CONTINUOUS
 10
0.0
 20
0.0
  0
INSERT
  2
*DIM_0005
  8
寸法
  6
CONTINUOUS
 10
0.0
 20
0.0
  0
INSERT
  2
*DIM_0006
  8
寸法
  6
CONTINUOUS
 10
0.0
 20
0.0
  0
INSERT
  2
*DIM_0007
  8
寸法
  6
CONTINUOUS
 10
0.0
 20
0.0
  0
INSERT
  2
*DIM_0008
  8
寸法
  6
CONTINUOUS
 10
0.0
 20
0.0
  0
INSERT
  2
*DIM_0009
  8
寸法
  6
CONTINUOUS
 10
0.0
 20
0.0
  0
INSERT
  2
*DIM_0010
  8
寸法
  6
CONTINUOUS
 10
0.0
 20
0.0
  0
INSERT
  2
*DIM_0011
  8
寸法
  6
CONTINUOUS
 10
0.0
 20
0.0
  0
INSERT
  2
*DIM_0012
  8
寸法
  6
CONTINUOUS
 10
0.0
 20
0.0
  0
INSERT
  2
*DIM_0013
  8
寸法
  6
CONTINUOUS
 10
0.0
 20
0.0
  0
LINE
  8
曲げ物
  6
CONTINUOUS
 10
157.95774
 20
-88.443843
 11
77.913045
 21
-88.443843
  0
LINE
  8
曲げ物
  6
CONTINUOUS
 10
77.913045
 20
-88.443843
 11
117.935392
 21
-31.843695
  0
LINE
  8
曲げ物
  6
CONTINUOUS
 10
157.95774
 20
-88.443843
 11
117.935392
 21
-31.843695
  0
ENDSEC
  0
EOF
