  0
SECTION
  2
HEADER
  9
$EXTMIN
 10
-210.0
 20
-148.5
  9
$EXTMAX
 10
210.0
 20
148.5
  9
$PDMODE
 70
    32
  9
$PDSIZE
 40
1.5
  9
$LTSCALE
 40
10.0
  0
ENDSEC
  0
SECTION
  2
TABLES
  0
TABLE
  2
LTYPE
 70
    15
  0
LTYPE
  2
CONTINUOUS
 70
    64
  3
実線
 72
    65
 73
     0
 40
0.0
  0
LTYPE
  2
DASHED
 70
    64
  3
破線A
 72
    65
 73
     2
 40
0.6
 49
0.4
 49
-0.2
  0
LTYPE
  2
DASHEDX2
 70
    64
  3
破線B
 72
    65
 73
     2
 40
1.3
 49
0.9
 49
-0.4
  0
LTYPE
  2
DASHDOT
 70
    64
  3
１点鎖線A
 72
    65
 73
     4
 40
0.5375
 49
0.375
 49
-0.05
 49
0.0625
 49
-0.05
  0
LTYPE
  2
DASHDOTX2
 70
    64
  3
１点鎖線B
 72
    65
 73
     4
 40
1.075
 49
0.75
 49
-0.1
 49
0.125
 49
-0.1
  0
LTYPE
  2
DIVIDE2
 70
    64
  3
２点鎖線A
 72
    65
 73
     6
 40
0.5125
 49
0.3
 49
-0.0375
 49
0.05
 49
-0.0375
 49
0.05
 49
-0.0375
  0
LTYPE
  2
DIVIDE
 70
    64
  3
２点鎖線B
 72
    65
 73
     6
 40
1.05
 49
0.55
 49
-0.1
 49
0.1
 49
-0.1
 49
0.1
 49
-0.1
  0
LTYPE
  2
DOT
 70
    64
  3
点線A
 72
    65
 73
     2
 40
0.1125
 49
0.0625
 49
-0.05
  0
LTYPE
  2
DOTX2
 70
    64
  3
点線B
 72
    65
 73
     2
 40
0.275
 49
0.15
 49
-0.125
  0
LTYPE
  2
CONTINUOUS
 70
    64
  3
実線
 72
    65
 73
     0
 40
0.0
  0
LTYPE
  2
CONTINUOUS
 70
    64
  3
実線
 72
    65
 73
     0
 40
0.0
  0
LTYPE
  2
CONTINUOUS
 70
    64
  3
実線
 72
    65
 73
     0
 40
0.0
  0
LTYPE
  2
CONTINUOUS
 70
    64
  3
実線
 72
    65
 73
     0
 40
0.0
  0
LTYPE
  2
CONTINUOUS
 70
    64
  3
実線
 72
    65
 73
     0
 40
0.0
  0
LTYPE
  2
CONTINUOUS
 70
    64
  3
実線
 72
    65
 73
     0
 40
0.0
  0
ENDTAB
  0
TABLE
  2
LAYER
 70
    35
  0
LAYER
  2
通り芯
 70
     0
 62
    15
  6
CONTINUOUS
  0
LAYER
  2
補助線
 70
     0
 62
    16
  6
DOT
  0
LAYER
  2
躯体
 70
     0
 62
    31
  6
CONTINUOUS
  0
LAYER
  2
型材
 70
     0
 62
    32
  6
CONTINUOUS
  0
LAYER
  2
型材断面
 70
     0
 62
    47
  6
CONTINUOUS
  0
LAYER
  2
ガラス
 70
     0
 62
    48
  6
CONTINUOUS
  0
LAYER
  2
ゴム等
 70
     0
 62
    63
  6
CONTINUOUS
  0
LAYER
  2
ボルト／ビス
 70
     0
 62
    64
  6
CONTINUOUS
  0
LAYER
  2
文字
 70
     0
 62
    79
  6
CONTINUOUS
  0
LAYER
  2
寸法
 70
     0
 62
    80
  6
CONTINUOUS
  0
LAYER
  2
ﾊｯﾁﾝｸﾞ
 70
     0
 62
    95
  6
CONTINUOUS
  0
LAYER
  2
別途部材
 70
     0
 62
    96
  6
CONTINUOUS
  0
LAYER
  2
曲げ物
 70
     0
 62
   111
  6
CONTINUOUS
  0
LAYER
  2
鉄骨等
 70
     0
 62
   112
  6
CONTINUOUS
  0
LAYER
  2
St
 70
     0
 62
   127
  6
CONTINUOUS
  0
LAYER
  2
その他部品等
 70
     0
 62
   128
  6
CONTINUOUS
  0
LAYER
  2
ｶﾞｽｹｯﾄ
 70
     0
 62
   143
  6
CONTINUOUS
  0
LAYER
  2
ｽｹｯﾁ
 70
     0
 62
    14
  6
CONTINUOUS
  0
LAYER
  2
0
 70
     0
 62
    17
  6
CONTINUOUS
  0
LAYER
  2
1
 70
     0
 62
    30
  6
CONTINUOUS
  0
LAYER
  2
4
 70
     0
 62
    33
  6
CONTINUOUS
  0
LAYER
  2
ﾚｲﾔ3
 70
     0
 62
    46
  6
CONTINUOUS
  0
LAYER
  2
外形線
 70
     0
 62
    49
  6
CONTINUOUS
  0
LAYER
  2
部品
 70
     0
 62
    14
  6
CONTINUOUS
  0
LAYER
  2
サッシ芯
 70
     0
 62
    17
  6
DASHDOTX2
  0
LAYER
  2
寸法線
 70
     0
 62
    62
  6
CONTINUOUS
  0
LAYER
  2
姿図外形線
 70
     0
 62
    65
  6
CONTINUOUS
  0
LAYER
  2
姿補助線
 70
     0
 62
    30
  6
CONTINUOUS
  0
LAYER
  2
透視線
 70
     0
 62
    78
  6
DOT
  0
LAYER
  2
用紙
 70
     0
 62
    81
  6
CONTINUOUS
  0
LAYER
  2
実線図枠
 70
     0
 62
    94
  6
CONTINUOUS
  0
LAYER
  2
補助図枠
 70
     0
 62
    97
  6
CONTINUOUS
  0
LAYER
  2
建具記号
 70
     0
 62
   110
  6
CONTINUOUS
  0
LAYER
  2
補助文字
 70
     0
 62
   113
  6
CONTINUOUS
  0
LAYER
  2
01
 70
     0
 62
     1
  6
CONTINUOUS
  0
ENDTAB
  0
TABLE
  2
STYLE
 70
    10
  0
STYLE
  2
STANDARD
 70
     0
 40
1.0
 41
1.0
 42
1.0
 50
0.0
 71
     0
  3
TXT
  4
BIGFONT
  0
STYLE
  2
TATE
 70
     4
 40
1.0
 41
1.0
 42
1.0
 50
0.0
 71
     0
  3
TXT
  4
BIGFONT
  0
STYLE
  2
TextStyle03
 70
     0
 40
1.0
 41
1.0
 42
1.0
 50
0.0
 71
     0
  3
MONOTXT
  4
BIGFONT
  0
STYLE
  2
TextStyle04
 70
     0
 40
1.0
 41
1.0
 42
1.0
 50
0.0
 71
     0
  3
MONOTXT
  4
BIGFONT
  0
STYLE
  2
TextStyle05
 70
     0
 40
1.0
 41
1.0
 42
1.0
 50
0.0
 71
     0
  3
MONOTXT
  4
BIGFONT
  0
STYLE
  2
TextStyle06
 70
     0
 40
1.0
 41
1.0
 42
1.0
 50
0.0
 71
     0
  3
MONOTXT
  4
BIGFONT
  0
STYLE
  2
TextStyle07
 70
     0
 40
1.0
 41
1.0
 42
1.0
 50
0.0
 71
     0
  3
MONOTXT
  4
BIGFONT
  0
STYLE
  2
TextStyle08
 70
     0
 40
1.0
 41
1.0
 42
1.0
 50
0.0
 71
     0
  3
MONOTXT
  4
BIGFONT
  0
STYLE
  2
TextStyle09
 70
     0
 40
1.0
 41
1.0
 42
1.0
 50
0.0
 71
     0
  3
MONOTXT
  4
BIGFONT
  0
STYLE
  2
TextStyle10
 70
     0
 40
1.0
 41
1.0
 42
1.0
 50
0.0
 71
     0
  3
MONOTXT
  4
BIGFONT
  0
ENDTAB
  0
ENDSEC
  0
SECTION
  2
BLOCKS
  0
BLOCK
  2
*GRP_0001
 70
    65
 10
0.0
 20
0.0
  0
LINE
  8
型材断面
  6
CONTINUOUS
 10
195.0
 20
133.5
 11
195.0
 21
-133.5
  0
LINE
  8
型材断面
  6
CONTINUOUS
 10
195.0
 20
-133.5
 11
-185.0
 21
-133.5
  0
LINE
  8
型材断面
  6
CONTINUOUS
 10
-185.0
 20
-133.5
 11
-185.0
 21
133.5
  0
LINE
  8
型材断面
  6
CONTINUOUS
 10
195.0
 20
133.5
 11
-185.0
 21
133.5
  0
LINE
  8
型材断面
  6
CONTINUOUS
 10
145.0
 20
-133.5
 11
145.0
 21
-118.5
  0
LINE
  8
型材断面
  6
CONTINUOUS
 10
195.0
 20
-118.5
 11
145.0
 21
-118.5
  0
ENDBLK
  0
BLOCK
  2
*DIM_0002
 70
    65
 10
0.0
 20
0.0
  0
LINE
  8
寸法
  6
BYBLOCK
 62
     0
 10
-86.09444
 20
-60.58216
 11
-86.09444
 21
-44.242515
  0
LINE
  8
寸法
  6
BYBLOCK
 62
     0
 10
-75.844435
 20
-60.58216
 11
-75.844435
 21
-44.242515
  0
LINE
  8
寸法
  6
BYBLOCK
 62
     0
 10
-86.09444
 20
-44.242515
 11
-75.844435
 21
-44.242515
  0
POINT
  8
寸法
 62
     0
 10
-86.09444
 20
-44.242515
  0
POINT
  8
寸法
 62
     0
 10
-75.844435
 20
-44.242515
  0
TEXT
  7
TextStyle03
  8
寸法
  6
CONTINUOUS
 62
     0
 10
-83.4375
 20
-43.875
  1
205
 40
3.0
 72
     5
 11
-78.5625
 21
-43.875
  0
ENDBLK
  0
BLOCK
  2
*DIM_0003
 70
    65
 10
0.0
 20
0.0
  0
LINE
  8
寸法
  6
CONTINUOUS
 10
-74.844435
 20
-62.00716
 11
-64.917702
 21
-62.00716
  0
LINE
  8
寸法
  6
CONTINUOUS
 10
-64.917702
 20
-56.882162
 11
-64.917702
 21
-62.00716
  0
POINT
  8
寸法
 10
-64.917702
 20
-56.882162
  0
POINT
  8
寸法
 10
-64.917702
 20
-62.00716
  0
TEXT
  7
TextStyle03
  8
寸法
  6
CONTINUOUS
 10
-61.925
 20
-63.575
  1
102.5
 40
3.0
 50
90.0
 72
     5
 11
-61.925
 21
-55.325
  0
ENDBLK
  0
BLOCK
  2
*DIM_0004
 70
    65
 10
0.0
 20
0.0
  0
LINE
  8
寸法
  6
CONTINUOUS
 10
-40.269218
 20
-96.373802
 11
-30.309325
 21
-96.373802
  0
LINE
  8
寸法
  6
CONTINUOUS
 10
-40.269218
 20
-92.723802
 11
-30.309325
 21
-92.723802
  0
LINE
  8
寸法
  6
CONTINUOUS
 10
-30.309325
 20
-96.373802
 11
-30.309325
 21
-92.723802
  0
POINT
  8
寸法
 10
-30.309325
 20
-96.373802
  0
POINT
  8
寸法
 10
-30.309325
 20
-92.723802
  0
TEXT
  7
TextStyle03
  8
寸法
  6
CONTINUOUS
 10
-30.7
 20
-96.14375
  1
73
 40
3.0
 50
90.0
 72
     5
 11
-30.7
 21
-92.95625
  0
ENDBLK
  0
BLOCK
  2
*DIM_0005
 70
    65
 10
0.0
 20
0.0
  0
LINE
  8
寸法
  6
CONTINUOUS
 10
-45.269218
 20
-87.723802
 11
-45.269218
 21
-27.569693
  0
LINE
  8
寸法
  6
CONTINUOUS
 10
-48.469438
 20
-27.569693
 11
-45.269218
 21
-27.569693
  0
POINT
  8
寸法
 10
-48.469438
 20
-27.569693
  0
POINT
  8
寸法
 10
-45.269218
 20
-27.569693
  0
TEXT
  7
TextStyle03
  8
寸法
  6
CONTINUOUS
 10
-48.46875
 20
-27.2
  1
64
 40
3.0
 72
     5
 11
-45.28125
 21
-27.2
  0
ENDBLK
  0
BLOCK
  2
*DIM_0006
 70
    65
 10
0.0
 20
0.0
  0
LINE
  8
寸法
  6
CONTINUOUS
 10
-116.669658
 20
-87.723802
 11
-116.669658
 21
-27.569693
  0
LINE
  8
寸法
  6
CONTINUOUS
 10
-113.469438
 20
-27.569693
 11
-116.669658
 21
-27.569693
  0
POINT
  8
寸法
 10
-113.469438
 20
-27.569693
  0
POINT
  8
寸法
 10
-116.669658
 20
-27.569693
  0
TEXT
  7
TextStyle03
  8
寸法
  6
CONTINUOUS
 10
-116.66875
 20
-27.2
  1
64
 40
3.0
 72
     5
 11
-113.48125
 21
-27.2
  0
ENDBLK
  0
BLOCK
  2
*DIM_0007
 70
    65
 10
0.0
 20
0.0
  0
LINE
  8
寸法
  6
CONTINUOUS
 10
-113.469438
 20
-27.569693
 11
-48.469438
 21
-27.569693
  0
POINT
  8
寸法
 10
-113.469438
 20
-27.569693
  0
POINT
  8
寸法
 10
-48.469438
 20
-27.569693
  0
TEXT
  7
TextStyle03
  8
寸法
  6
CONTINUOUS
 10
-92.69375
 20
-27.2
  1
呼称寸法　1300
 40
3.0
 72
     5
 11
-69.25625
 21
-27.2
  0
ENDBLK
  0
BLOCK
  2
*DIM_0008
 70
    65
 10
0.0
 20
0.0
  0
LINE
  8
寸法
  6
BYBLOCK
 62
     0
 10
-98.469437
 20
83.497475
 11
-98.469437
 21
93.853012
  0
LINE
  8
寸法
  6
BYBLOCK
 62
     0
 10
-63.469438
 20
83.497475
 11
-63.469438
 21
93.853012
  0
LINE
  8
寸法
  6
BYBLOCK
 62
     0
 10
-98.469437
 20
93.853012
 11
-63.469438
 21
93.853012
  0
POINT
  8
寸法
 62
     0
 10
-98.469437
 20
93.853012
  0
POINT
  8
寸法
 62
     0
 10
-63.469438
 20
93.853012
  0
TEXT
  7
TextStyle03
  8
寸法
  6
CONTINUOUS
 62
     0
 10
-83.4125
 20
94.225
  1
700
 40
3.0
 72
     5
 11
-78.5375
 21
94.225
  0
ENDBLK
  0
BLOCK
  2
*DIM_0009
 70
    65
 10
0.0
 20
0.0
  0
LINE
  8
寸法
  6
BYBLOCK
 62
     0
 10
-127.070268
 20
56.441453
 11
-137.425805
 21
56.441453
  0
LINE
  8
寸法
  6
BYBLOCK
 62
     0
 10
-127.07027
 20
21.441453
 11
-137.425807
 21
21.441453
  0
LINE
  8
寸法
  6
BYBLOCK
 62
     0
 10
-137.425805
 20
56.441453
 11
-137.425807
 21
21.441453
  0
POINT
  8
寸法
 62
     0
 10
-137.425805
 20
56.441453
  0
POINT
  8
寸法
 62
     0
 10
-137.425807
 20
21.441453
  0
TEXT
  7
TextStyle03
  8
寸法
  6
CONTINUOUS
 62
     0
 10
-137.825
 20
36.4875
  1
700
 40
3.0
 50
90.0
 72
     5
 11
-137.825
 21
41.3625
  0
ENDBLK
  0
BLOCK
  2
*DIM_0010
 70
    65
 10
0.0
 20
0.0
  0
LINE
  8
寸法
  6
BYBLOCK
 62
     0
 10
-77.969437
 20
-56.882162
 11
-30.309325
 21
-56.882162
  0
LINE
  8
寸法
  6
BYBLOCK
 62
     0
 10
-30.309325
 20
-92.723802
 11
-30.309325
 21
-56.882162
  0
POINT
  8
寸法
 62
     0
 10
-30.309325
 20
-92.723802
  0
POINT
  8
寸法
 62
     0
 10
-30.309325
 20
-56.882162
  0
TEXT
  7
TextStyle03
  8
寸法
  6
CONTINUOUS
 62
     0
 10
-30.7
 20
-78.95
  1
716.8
 40
3.0
 50
90.0
 72
     5
 11
-30.7
 21
-70.7
  0
ENDBLK
  0
BLOCK
  2
*DIM_0011
 70
    65
 10
0.0
 20
0.0
  0
LINE
  8
寸法
  6
BYBLOCK
 62
     0
 10
86.888923
 20
-87.313933
 11
86.888923
 21
-97.249838
  0
LINE
  8
寸法
  6
BYBLOCK
 62
     0
 10
151.933618
 20
-87.313933
 11
151.933618
 21
-97.249838
  0
LINE
  8
寸法
  6
BYBLOCK
 62
     0
 10
86.888923
 20
-97.249838
 11
151.933618
 21
-97.249838
  0
POINT
  8
寸法
 62
     0
 10
86.888923
 20
-97.249838
  0
POINT
  8
寸法
 62
     0
 10
151.933618
 20
-97.249838
  0
TEXT
  7
TextStyle03
  8
寸法
  6
CONTINUOUS
 62
     0
 10
114.43125
 20
-96.9
  1
1300.9
 40
3.0
 72
     5
 11
124.36875
 21
-96.9
  0
ENDBLK
  0
BLOCK
  2
*DIM_0012
 70
    65
 10
0.0
 20
0.0
  0
LINE
  8
寸法
  6
BYBLOCK
 62
     0
 10
154.933618
 20
-84.313933
 11
163.36439
 21
-84.313933
  0
LINE
  8
寸法
  6
BYBLOCK
 62
     0
 10
122.41127
 20
-38.320388
 11
163.36439
 21
-38.320388
  0
LINE
  8
寸法
  6
BYBLOCK
 62
     0
 10
163.36439
 20
-84.313933
 11
163.36439
 21
-38.320388
  0
POINT
  8
寸法
 62
     0
 10
163.36439
 20
-84.313933
  0
POINT
  8
寸法
 62
     0
 10
163.36439
 20
-38.320388
  0
TEXT
  7
TextStyle03
  8
寸法
  6
CONTINUOUS
 62
     0
 10
162.975
 20
-65.45
  1
919.9
 40
3.0
 50
90.0
 72
     5
 11
162.975
 21
-57.2
  0
ENDBLK
  0
ENDSEC
  0
SECTION
  2
ENTITIES
  0
POLYLINE
  8
通り芯
  6
CONTINUOUS
 66
     1
 70
     1
  0
VERTEX
  8
通り芯
 10
-210.0
 20
-148.5
  0
VERTEX
  8
通り芯
 10
210.0
 20
-148.5
  0
VERTEX
  8
通り芯
 10
210.0
 20
148.5
  0
VERTEX
  8
通り芯
 10
-210.0
 20
148.5
  0
SEQEND
  0
INSERT
  2
*GRP_0001
  8
型材断面
  6
CONTINUOUS
 10
0.0
 20
0.0
  0
LINE
  8
型材断面
  6
CONTINUOUS
 10
-75.844435
 20
33.81645
 11
-80.969435
 21
33.81645
  0
LINE
  8
型材断面
  6
CONTINUOUS
 10
-75.844435
 20
33.81645
 11
-75.844435
 21
38.94145
  0
LINE
  8
型材断面
  6
CONTINUOUS
 10
-75.844435
 20
44.06645
 11
-80.969435
 21
44.06645
  0
LINE
  8
型材断面
  6
CONTINUOUS
 10
-75.844435
 20
44.06645
 11
-75.844435
 21
38.94145
  0
LINE
  8
型材断面
  6
CONTINUOUS
 10
-86.09444
 20
44.06645
 11
-80.96944
 21
44.06645
  0
LINE
  8
型材断面
  6
CONTINUOUS
 10
-86.09444
 20
44.06645
 11
-86.09444
 21
38.94145
  0
LINE
  8
型材断面
  6
CONTINUOUS
 10
-86.09444
 20
33.81645
 11
-80.96944
 21
33.81645
  0
LINE
  8
型材断面
  6
CONTINUOUS
 10
-86.09444
 20
33.81645
 11
-86.09444
 21
38.94145
  0
LINE
  8
型材断面
  6
CONTINUOUS
 10
-86.09444
 20
-62.00716
 11
-86.023728
 21
-62.077873
  0
LINE
  8
型材断面
  6
CONTINUOUS
 10
-86.09444
 20
-62.00716
 11
-80.96944
 21
-62.00716
  0
LINE
  8
型材断面
  6
CONTINUOUS
 10
-86.023728
 20
-62.077873
 11
-80.96944
 21
-62.077873
  0
LINE
  8
型材断面
  6
CONTINUOUS
 10
-86.09444
 20
-62.00716
 11
-80.969437
 21
-56.882162
  0
LINE
  8
型材断面
  6
CONTINUOUS
 10
-75.844435
 20
-62.00716
 11
-75.915147
 21
-62.077873
  0
LINE
  8
型材断面
  6
CONTINUOUS
 10
-75.844435
 20
-62.00716
 11
-80.969435
 21
-62.00716
  0
LINE
  8
型材断面
  6
CONTINUOUS
 10
-75.915147
 20
-62.077873
 11
-80.969435
 21
-62.077873
  0
LINE
  8
型材断面
  6
CONTINUOUS
 10
-75.844435
 20
-62.00716
 11
-80.969437
 21
-56.882162
  0
LINE
  8
型材断面
  6
DASHDOT
 10
-113.469438
 20
38.94145
 11
-48.469438
 21
38.94145
  0
LINE
  8
型材断面
  6
CONTINUOUS
 10
-80.969437
 20
38.94145
 11
-45.269215
 21
3.241228
  0
LINE
  8
型材断面
  6
CONTINUOUS
 10
-45.269215
 20
3.241228
 11
-80.969437
 21
3.241228
  0
LINE
  8
型材断面
  6
CONTINUOUS
 10
-46.365197
 20
4.33721
 11
-80.969437
 21
4.33721
  0
LINE
  8
型材断面
  6
CONTINUOUS
 10
-45.269215
 20
3.241228
 11
-45.269215
 21
38.94145
  0
LINE
  8
型材断面
  6
CONTINUOUS
 10
-46.365197
 20
4.33721
 11
-46.365197
 21
38.94145
  0
LINE
  8
型材断面
  6
CONTINUOUS
 10
-80.969437
 20
38.94145
 11
-116.66966
 21
3.241228
  0
LINE
  8
型材断面
  6
CONTINUOUS
 10
-116.66966
 20
3.241228
 11
-80.969437
 21
3.241228
  0
LINE
  8
型材断面
  6
CONTINUOUS
 10
-115.573678
 20
4.33721
 11
-80.969437
 21
4.33721
  0
LINE
  8
型材断面
  6
CONTINUOUS
 10
-116.66966
 20
3.241228
 11
-116.66966
 21
38.94145
  0
LINE
  8
型材断面
  6
CONTINUOUS
 10
-115.573678
 20
4.33721
 11
-115.573678
 21
38.94145
  0
LINE
  8
型材断面
  6
DASHDOT
 10
-113.469438
 20
6.44145
 11
-48.469438
 21
6.44145
  0
LINE
  8
型材断面
  6
CONTINUOUS
 10
-80.969437
 20
38.94145
 11
-45.269215
 21
74.641672
  0
LINE
  8
型材断面
  6
CONTINUOUS
 10
-45.269215
 20
74.641672
 11
-80.969437
 21
74.641672
  0
LINE
  8
型材断面
  6
CONTINUOUS
 10
-46.365197
 20
73.54569
 11
-80.969437
 21
73.54569
  0
LINE
  8
型材断面
  6
CONTINUOUS
 10
-45.269215
 20
74.641672
 11
-45.269215
 21
38.94145
  0
LINE
  8
型材断面
  6
CONTINUOUS
 10
-46.365197
 20
73.54569
 11
-46.365197
 21
38.94145
  0
LINE
  8
型材断面
  6
CONTINUOUS
 10
-80.969437
 20
38.94145
 11
-116.66966
 21
74.641672
  0
LINE
  8
型材断面
  6
CONTINUOUS
 10
-116.66966
 20
74.641672
 11
-80.969437
 21
74.641672
  0
LINE
  8
型材断面
  6
CONTINUOUS
 10
-115.573678
 20
73.54569
 11
-80.969437
 21
73.54569
  0
LINE
  8
型材断面
  6
CONTINUOUS
 10
-116.66966
 20
74.641672
 11
-116.66966
 21
38.94145
  0
LINE
  8
型材断面
  6
CONTINUOUS
 10
-115.573678
 20
73.54569
 11
-115.573678
 21
38.94145
  0
LINE
  8
型材断面
  6
DASHDOT
 10
-113.469438
 20
71.44145
 11
-48.469438
 21
71.44145
  0
LINE
  8
型材断面
  6
CONTINUOUS
 10
-45.269218
 20
-92.723802
 11
-75.915147
 21
-62.077873
  0
LINE
  8
型材断面
  6
CONTINUOUS
 10
-46.365168
 20
-91.627852
 11
-80.969437
 21
-91.627852
  0
LINE
  8
型材断面
  6
CONTINUOUS
 10
-80.969437
 20
-93.423802
 11
-45.269215
 21
-93.423802
  0
LINE
  8
型材断面
  6
CONTINUOUS
 10
-80.969437
 20
-92.723802
 11
-45.269215
 21
-92.723802
  0
LINE
  8
型材断面
  6
CONTINUOUS
 10
-80.969437
 20
-96.373802
 11
-45.269218
 21
-96.373802
  0
LINE
  8
型材断面
  6
CONTINUOUS
 10
-45.269218
 20
-92.723802
 11
-45.269218
 21
-96.373802
  0
LINE
  8
型材断面
  6
CONTINUOUS
 10
-80.969437
 20
-97.073802
 11
-46.119215
 21
-97.073802
  0
LINE
  8
型材断面
  6
CONTINUOUS
 10
-46.119215
 20
-96.373802
 11
-46.119215
 21
-97.073802
  0
LINE
  8
型材断面
  6
CONTINUOUS
 10
-79.730805
 20
-62.077873
 11
-50.53438
 21
-91.274298
  0
LINE
  8
型材断面
  6
CONTINUOUS
 10
-79.589383
 20
-62.077873
 11
-50.392958
 21
-91.274298
  0
LINE
  8
型材断面
  6
CONTINUOUS
 10
-46.718722
 20
-91.274298
 11
-50.53438
 21
-91.274298
  0
LINE
  8
型材断面
  6
DASHDOT
 10
-48.469438
 20
-97.073802
 11
-48.469438
 21
-79.523582
  0
LINE
  8
型材断面
  6
CONTINUOUS
 10
-116.669658
 20
-92.723802
 11
-86.023728
 21
-62.077873
  0
LINE
  8
型材断面
  6
CONTINUOUS
 10
-115.573708
 20
-91.627852
 11
-80.969437
 21
-91.627852
  0
LINE
  8
型材断面
  6
CONTINUOUS
 10
-80.969437
 20
-93.423802
 11
-116.66966
 21
-93.423802
  0
LINE
  8
型材断面
  6
CONTINUOUS
 10
-80.969437
 20
-92.723802
 11
-116.66966
 21
-92.723802
  0
LINE
  8
型材断面
  6
CONTINUOUS
 10
-80.969437
 20
-96.373802
 11
-116.669658
 21
-96.373802
  0
LINE
  8
型材断面
  6
CONTINUOUS
 10
-116.669658
 20
-92.723802
 11
-116.669658
 21
-96.373802
  0
LINE
  8
型材断面
  6
CONTINUOUS
 10
-80.969437
 20
-97.073802
 11
-115.81966
 21
-97.073802
  0
LINE
  8
型材断面
  6
CONTINUOUS
 10
-115.81966
 20
-96.373802
 11
-115.81966
 21
-97.073802
  0
LINE
  8
型材断面
  6
CONTINUOUS
 10
-82.20807
 20
-62.077873
 11
-111.404495
 21
-91.274298
  0
LINE
  8
型材断面
  6
CONTINUOUS
 10
-82.349492
 20
-62.077873
 11
-111.545918
 21
-91.274298
  0
LINE
  8
型材断面
  6
CONTINUOUS
 10
-115.220153
 20
-91.274298
 11
-111.404495
 21
-91.274298
  0
LINE
  8
型材断面
  6
DASHDOT
 10
-113.469438
 20
-97.073802
 11
-113.469438
 21
-79.523582
  0
LINE
  8
型材断面
  6
DASHDOT
 10
-80.969437
 20
-97.073802
 11
-80.969437
 21
71.44145
  0
LINE
  8
型材断面
  6
DASHDOT
 10
-48.469438
 20
-97.073802
 11
-48.469438
 21
71.44145
  0
LINE
  8
型材断面
  6
DASHDOT
 10
-113.469438
 20
-97.073802
 11
-113.469438
 21
71.44145
  0
LINE
  8
型材断面
  6
CONTINUOUS
 10
-43.52546
 20
38.94145
 11
-39.6397
 21
36.698005
  0
LINE
  8
型材断面
  6
CONTINUOUS
 10
-43.52546
 20
38.94145
 11
-39.6397
 21
41.184895
  0
LINE
  8
型材断面
  6
CONTINUOUS
 10
-39.6397
 20
41.184895
 11
-39.6397
 21
36.698005
  0
LINE
  8
型材断面
  6
CONTINUOUS
 10
-80.969437
 20
76.188838
 11
-83.212882
 21
80.074597
  0
LINE
  8
型材断面
  6
CONTINUOUS
 10
-80.969437
 20
76.188838
 11
-78.725993
 21
80.074597
  0
LINE
  8
型材断面
  6
CONTINUOUS
 10
-78.725993
 20
80.074597
 11
-83.212882
 21
80.074597
  0
LINE
  8
型材断面
  6
CONTINUOUS
 10
-118.085765
 20
38.94145
 11
-121.971525
 21
36.698005
  0
LINE
  8
型材断面
  6
CONTINUOUS
 10
-118.085765
 20
38.94145
 11
-121.971525
 21
41.184895
  0
LINE
  8
型材断面
  6
CONTINUOUS
 10
-121.971525
 20
41.184895
 11
-121.971525
 21
36.698005
  0
LINE
  8
型材断面
  6
CONTINUOUS
 10
-80.969437
 20
1.366415
 11
-83.212882
 21
-2.519345
  0
LINE
  8
型材断面
  6
CONTINUOUS
 10
-80.969437
 20
1.366415
 11
-78.725993
 21
-2.519345
  0
LINE
  8
型材断面
  6
CONTINUOUS
 10
-78.725993
 20
-2.519345
 11
-83.212882
 21
-2.519345
  0
LINE
  8
型材断面
  6
CONTINUOUS
 10
-19.350828
 20
14.929997
 11
-21.594272
 21
11.044238
  0
LINE
  8
型材断面
  6
CONTINUOUS
 10
-19.350828
 20
14.929997
 11
-17.107383
 21
11.044238
  0
LINE
  8
型材断面
  6
CONTINUOUS
 10
-17.107383
 20
11.044238
 11
-21.594272
 21
11.044238
  0
LINE
  8
型材断面
  6
CONTINUOUS
 10
-28.384707
 20
9.636345
 11
24.271973
 21
9.636345
  0
LINE
  8
型材断面
  6
CONTINUOUS
 10
-28.384707
 20
2.963565
 11
24.271973
 21
2.963565
  0
LINE
  8
型材断面
  6
CONTINUOUS
 10
-46.71872
 20
4.690733
 11
-46.71872
 21
8.338697
  0
LINE
  8
型材断面
  6
CONTINUOUS
 10
-46.71872
 20
4.690733
 11
-50.366685
 21
4.690733
  0
LINE
  8
型材断面
  6
CONTINUOUS
 10
-46.71872
 20
8.338697
 11
-75.844435
 21
37.464413
  0
LINE
  8
型材断面
  6
CONTINUOUS
 10
-50.366685
 20
4.690733
 11
-79.492403
 21
33.81645
  0
LINE
  8
型材断面
  6
CONTINUOUS
 10
-46.71872
 20
73.192167
 11
-46.71872
 21
69.544203
  0
LINE
  8
型材断面
  6
CONTINUOUS
 10
-46.71872
 20
73.192167
 11
-50.366685
 21
73.192167
  0
LINE
  8
型材断面
  6
CONTINUOUS
 10
-46.71872
 20
69.544203
 11
-75.844435
 21
40.418488
  0
LINE
  8
型材断面
  6
CONTINUOUS
 10
-50.366685
 20
73.192167
 11
-79.492403
 21
44.06645
  0
LINE
  8
型材断面
  6
CONTINUOUS
 10
-115.220155
 20
73.192167
 11
-115.220155
 21
69.544203
  0
LINE
  8
型材断面
  6
CONTINUOUS
 10
-115.220155
 20
73.192167
 11
-111.57219
 21
73.192167
  0
LINE
  8
型材断面
  6
CONTINUOUS
 10
-115.220155
 20
69.544203
 11
-86.09444
 21
40.418488
  0
LINE
  8
型材断面
  6
CONTINUOUS
 10
-111.57219
 20
73.192167
 11
-82.446472
 21
44.06645
  0
LINE
  8
型材断面
  6
CONTINUOUS
 10
-115.220155
 20
4.690733
 11
-115.220155
 21
8.338697
  0
LINE
  8
型材断面
  6
CONTINUOUS
 10
-115.220155
 20
4.690733
 11
-111.57219
 21
4.690733
  0
LINE
  8
型材断面
  6
CONTINUOUS
 10
-115.220155
 20
8.338697
 11
-86.09444
 21
37.464413
  0
LINE
  8
型材断面
  6
CONTINUOUS
 10
-111.57219
 20
4.690733
 11
-82.446472
 21
33.81645
  0
LINE
  8
型材断面
  6
CONTINUOUS
 10
85.955195
 20
-42.91944
 11
109.886817
 21
-42.91944
  0
LINE
  8
ガラス
  6
CONTINUOUS
 10
-79.081733
 20
-75.113862
 11
-82.954367
 21
-78.986498
  0
LINE
  8
ガラス
  6
CONTINUOUS
 10
-79.962055
 20
-76.71222
 11
-81.35601
 21
-78.106175
  0
LINE
  8
ガラス
  6
CONTINUOUS
 10
-80.68009
 20
-75.994185
 11
-82.074045
 21
-77.38814
  0
LINE
  8
ガラス
  6
CONTINUOUS
 10
-79.081733
 20
19.834115
 11
-82.954367
 21
15.96148
  0
LINE
  8
ガラス
  6
CONTINUOUS
 10
-79.962055
 20
18.235757
 11
-81.35601
 21
16.841803
  0
LINE
  8
ガラス
  6
CONTINUOUS
 10
-80.68009
 20
18.953793
 11
-82.074045
 21
17.559837
  0
LINE
  8
ガラス
  6
CONTINUOUS
 10
-57.234598
 20
40.896945
 11
-61.107233
 21
37.02431
  0
LINE
  8
ガラス
  6
CONTINUOUS
 10
-58.11492
 20
39.298588
 11
-59.508875
 21
37.904632
  0
LINE
  8
ガラス
  6
CONTINUOUS
 10
-58.832955
 20
40.016623
 11
-60.22691
 21
38.622667
  0
LINE
  8
ガラス
  6
CONTINUOUS
 10
-79.081733
 20
61.68804
 11
-82.954367
 21
57.815405
  0
LINE
  8
ガラス
  6
CONTINUOUS
 10
-79.962055
 20
60.089682
 11
-81.35601
 21
58.695728
  0
LINE
  8
ガラス
  6
CONTINUOUS
 10
-80.68009
 20
60.807718
 11
-82.074045
 21
59.413762
  0
LINE
  8
ガラス
  6
CONTINUOUS
 10
-99.273892
 20
40.896945
 11
-103.146527
 21
37.02431
  0
LINE
  8
ガラス
  6
CONTINUOUS
 10
-100.154215
 20
39.298588
 11
-101.54817
 21
37.904632
  0
LINE
  8
ガラス
  6
CONTINUOUS
 10
-100.87225
 20
40.016623
 11
-102.266205
 21
38.622667
  0
TEXT
  7
TextStyle03
  8
文字
  6
CONTINUOUS
 10
69.85
 20
94.9
  1
ＮＳコード：ＮＳ４ＣＫ
 40
5.0
 72
     5
 11
131.1
 21
94.9
  0
TEXT
  7
TextStyle03
  8
文字
  6
CONTINUOUS
 10
69.6
 20
118.45
  1
シリーズ：ＴＦ４Ｋ
 40
5.0
 72
     5
 11
119.6
 21
118.45
  0
TEXT
  7
TextStyle03
  8
文字
  6
CONTINUOUS
 10
69.6
 20
112.825
  1
　　　　　四角錘（固定）1300×1300タイプ
 40
5.0
 72
     5
 11
181.475
 21
112.825
  0
TEXT
  7
TextStyle03
  8
文字
  6
CONTINUOUS
 10
69.6
 20
107.2
  1
図面名　：外観姿図
 40
5.0
 72
     5
 11
119.6
 21
107.2
  0
TEXT
  7
TextStyle03
  8
文字
  6
CONTINUOUS
 10
69.6
 20
101.575
  1
　　　　　　
 40
5.0
 72
     5
 11
102.725
 21
101.575
  0
TEXT
  7
TextStyle03
  8
文字
  6
CONTINUOUS
 10
-127.95
 20
87.55
  1
アンカーピッチ
 40
3.0
 72
     5
 11
-104.7
 21
87.55
  0
TEXT
  7
TextStyle03
  8
文字
  6
CONTINUOUS
 10
-130.425
 20
-4.45
  1
アンカーピッチ
 40
3.0
 50
90.0
 72
     5
 11
-130.425
 21
18.8
  0
TEXT
  7
TextStyle03
  8
文字
  6
CONTINUOUS
 10
-15.05
 20
11.375
  1
は排水穴位置を示す
 40
3.0
 72
     5
 11
14.95
 21
11.375
  0
TEXT
  7
TextStyle03
  8
文字
  6
CONTINUOUS
 10
-20.65
 20
4.35
  1
アンカー数量　８ヶ所
 40
3.0
 72
     5
 11
12.725
 21
4.35
  0
TEXT
  7
TextStyle03
  8
文字
  6
CONTINUOUS
 10
89.6
 20
-41.725
  1
ガラス寸法
 40
3.0
 72
     5
 11
106.1
 21
-41.725
  0
TEXT
  7
TextStyle03
  8
文字
  6
CONTINUOUS
 10
135.075
 20
-82.825
  1
×４枚
 40
3.0
 72
     5
 11
144.825
 21
-82.825
  0
INSERT
  2
*DIM_0002
  8
寸法
  6
CONTINUOUS
 10
0.0
 20
0.0
  0
INSERT
  2
*DIM_0003
  8
寸法
  6
CONTINUOUS
 10
0.0
 20
0.0
  0
INSERT
  2
*DIM_0004
  8
寸法
  6
CONTINUOUS
 10
0.0
 20
0.0
  0
INSERT
  2
*DIM_0005
  8
寸法
  6
CONTINUOUS
 10
0.0
 20
0.0
  0
INSERT
  2
*DIM_0006
  8
寸法
  6
CONTINUOUS
 10
0.0
 20
0.0
  0
INSERT
  2
*DIM_0007
  8
寸法
  6
CONTINUOUS
 10
0.0
 20
0.0
  0
INSERT
  2
*DIM_0008
  8
寸法
  6
CONTINUOUS
 10
0.0
 20
0.0
  0
INSERT
  2
*DIM_0009
  8
寸法
  6
CONTINUOUS
 10
0.0
 20
0.0
  0
INSERT
  2
*DIM_0010
  8
寸法
  6
CONTINUOUS
 10
0.0
 20
0.0
  0
INSERT
  2
*DIM_0011
  8
寸法
  6
CONTINUOUS
 10
0.0
 20
0.0
  0
INSERT
  2
*DIM_0012
  8
寸法
  6
CONTINUOUS
 10
0.0
 20
0.0
  0
LINE
  8
曲げ物
  6
CONTINUOUS
 10
86.888923
 20
-84.313933
 11
119.41127
 21
-38.320388
  0
LINE
  8
曲げ物
  6
CONTINUOUS
 10
119.41127
 20
-38.320388
 11
151.933618
 21
-84.313933
  0
LINE
  8
曲げ物
  6
CONTINUOUS
 10
86.888923
 20
-84.313933
 11
151.933618
 21
-84.313933
  0
ENDSEC
  0
EOF
