  0
SECTION
  2
HEADER
  9
$EXTMIN
 10
-210.0
 20
-148.5
  9
$EXTMAX
 10
210.0
 20
148.5
  9
$PDMODE
 70
    32
  9
$PDSIZE
 40
1.5
  9
$LTSCALE
 40
10.0
  0
ENDSEC
  0
SECTION
  2
TABLES
  0
TABLE
  2
LTYPE
 70
    15
  0
LTYPE
  2
CONTINUOUS
 70
    64
  3
実線
 72
    65
 73
     0
 40
0.0
  0
LTYPE
  2
DASHED
 70
    64
  3
破線A
 72
    65
 73
     2
 40
0.6
 49
0.4
 49
-0.2
  0
LTYPE
  2
DASHEDX2
 70
    64
  3
破線B
 72
    65
 73
     2
 40
1.3
 49
0.9
 49
-0.4
  0
LTYPE
  2
DASHDOT
 70
    64
  3
１点鎖線A
 72
    65
 73
     4
 40
0.5375
 49
0.375
 49
-0.05
 49
0.0625
 49
-0.05
  0
LTYPE
  2
DASHDOTX2
 70
    64
  3
１点鎖線B
 72
    65
 73
     4
 40
1.075
 49
0.75
 49
-0.1
 49
0.125
 49
-0.1
  0
LTYPE
  2
DIVIDE2
 70
    64
  3
２点鎖線A
 72
    65
 73
     6
 40
0.5125
 49
0.3
 49
-0.0375
 49
0.05
 49
-0.0375
 49
0.05
 49
-0.0375
  0
LTYPE
  2
DIVIDE
 70
    64
  3
２点鎖線B
 72
    65
 73
     6
 40
1.05
 49
0.55
 49
-0.1
 49
0.1
 49
-0.1
 49
0.1
 49
-0.1
  0
LTYPE
  2
DOT
 70
    64
  3
点線A
 72
    65
 73
     2
 40
0.1125
 49
0.0625
 49
-0.05
  0
LTYPE
  2
DOTX2
 70
    64
  3
点線B
 72
    65
 73
     2
 40
0.275
 49
0.15
 49
-0.125
  0
LTYPE
  2
CONTINUOUS
 70
    64
  3
実線
 72
    65
 73
     0
 40
0.0
  0
LTYPE
  2
CONTINUOUS
 70
    64
  3
実線
 72
    65
 73
     0
 40
0.0
  0
LTYPE
  2
CONTINUOUS
 70
    64
  3
実線
 72
    65
 73
     0
 40
0.0
  0
LTYPE
  2
CONTINUOUS
 70
    64
  3
実線
 72
    65
 73
     0
 40
0.0
  0
LTYPE
  2
CONTINUOUS
 70
    64
  3
実線
 72
    65
 73
     0
 40
0.0
  0
LTYPE
  2
CONTINUOUS
 70
    64
  3
実線
 72
    65
 73
     0
 40
0.0
  0
ENDTAB
  0
TABLE
  2
LAYER
 70
    35
  0
LAYER
  2
通り芯
 70
     0
 62
    15
  6
CONTINUOUS
  0
LAYER
  2
補助線
 70
     0
 62
    16
  6
DOT
  0
LAYER
  2
躯体
 70
     0
 62
    31
  6
CONTINUOUS
  0
LAYER
  2
型材
 70
     0
 62
    32
  6
CONTINUOUS
  0
LAYER
  2
型材断面
 70
     0
 62
    47
  6
CONTINUOUS
  0
LAYER
  2
ガラス
 70
     0
 62
    48
  6
CONTINUOUS
  0
LAYER
  2
ゴム等
 70
     0
 62
    63
  6
CONTINUOUS
  0
LAYER
  2
ボルト／ビス
 70
     0
 62
    64
  6
CONTINUOUS
  0
LAYER
  2
文字
 70
     0
 62
    79
  6
CONTINUOUS
  0
LAYER
  2
寸法
 70
     0
 62
    80
  6
CONTINUOUS
  0
LAYER
  2
ﾊｯﾁﾝｸﾞ
 70
     0
 62
    95
  6
CONTINUOUS
  0
LAYER
  2
別途部材
 70
     0
 62
    96
  6
CONTINUOUS
  0
LAYER
  2
曲げ物
 70
     0
 62
   111
  6
CONTINUOUS
  0
LAYER
  2
鉄骨等
 70
     0
 62
   112
  6
CONTINUOUS
  0
LAYER
  2
St
 70
     0
 62
   127
  6
CONTINUOUS
  0
LAYER
  2
その他部品等
 70
     0
 62
   128
  6
CONTINUOUS
  0
LAYER
  2
ｶﾞｽｹｯﾄ
 70
     0
 62
   143
  6
CONTINUOUS
  0
LAYER
  2
ｽｹｯﾁ
 70
     0
 62
    14
  6
CONTINUOUS
  0
LAYER
  2
0
 70
     0
 62
    17
  6
CONTINUOUS
  0
LAYER
  2
1
 70
     0
 62
    30
  6
CONTINUOUS
  0
LAYER
  2
4
 70
     0
 62
    33
  6
CONTINUOUS
  0
LAYER
  2
ﾚｲﾔ3
 70
     0
 62
    46
  6
CONTINUOUS
  0
LAYER
  2
外形線
 70
     0
 62
    49
  6
CONTINUOUS
  0
LAYER
  2
部品
 70
     0
 62
    14
  6
CONTINUOUS
  0
LAYER
  2
サッシ芯
 70
     0
 62
    17
  6
DASHDOTX2
  0
LAYER
  2
寸法線
 70
     0
 62
    62
  6
CONTINUOUS
  0
LAYER
  2
姿図外形線
 70
     0
 62
    65
  6
CONTINUOUS
  0
LAYER
  2
姿補助線
 70
     0
 62
    30
  6
CONTINUOUS
  0
LAYER
  2
透視線
 70
     0
 62
    78
  6
DOT
  0
LAYER
  2
用紙
 70
     0
 62
    81
  6
CONTINUOUS
  0
LAYER
  2
実線図枠
 70
     0
 62
    94
  6
CONTINUOUS
  0
LAYER
  2
補助図枠
 70
     0
 62
    97
  6
CONTINUOUS
  0
LAYER
  2
建具記号
 70
     0
 62
   110
  6
CONTINUOUS
  0
LAYER
  2
補助文字
 70
     0
 62
   113
  6
CONTINUOUS
  0
LAYER
  2
LAYER010
 70
     0
 62
    11
  6
CONTINUOUS
  0
ENDTAB
  0
TABLE
  2
STYLE
 70
    10
  0
STYLE
  2
STANDARD
 70
     0
 40
1.0
 41
1.0
 42
1.0
 50
0.0
 71
     0
  3
TXT
  4
BIGFONT
  0
STYLE
  2
TATE
 70
     4
 40
1.0
 41
1.0
 42
1.0
 50
0.0
 71
     0
  3
TXT
  4
BIGFONT
  0
STYLE
  2
TextStyle03
 70
     0
 40
1.0
 41
1.0
 42
1.0
 50
0.0
 71
     0
  3
MONOTXT
  4
BIGFONT
  0
STYLE
  2
TextStyle04
 70
     0
 40
1.0
 41
1.0
 42
1.0
 50
0.0
 71
     0
  3
MONOTXT
  4
BIGFONT
  0
STYLE
  2
TextStyle05
 70
     0
 40
1.0
 41
1.0
 42
1.0
 50
0.0
 71
     0
  3
MONOTXT
  4
BIGFONT
  0
STYLE
  2
TextStyle06
 70
     0
 40
1.0
 41
1.0
 42
1.0
 50
0.0
 71
     0
  3
MONOTXT
  4
BIGFONT
  0
STYLE
  2
TextStyle07
 70
     0
 40
1.0
 41
1.0
 42
1.0
 50
0.0
 71
     0
  3
MONOTXT
  4
BIGFONT
  0
STYLE
  2
TextStyle08
 70
     0
 40
1.0
 41
1.0
 42
1.0
 50
0.0
 71
     0
  3
MONOTXT
  4
BIGFONT
  0
STYLE
  2
TextStyle09
 70
     0
 40
1.0
 41
1.0
 42
1.0
 50
0.0
 71
     0
  3
MONOTXT
  4
BIGFONT
  0
STYLE
  2
TextStyle10
 70
     0
 40
1.0
 41
1.0
 42
1.0
 50
0.0
 71
     0
  3
MONOTXT
  4
BIGFONT
  0
ENDTAB
  0
ENDSEC
  0
SECTION
  2
BLOCKS
  0
BLOCK
  2
*GRP_0001
 70
    65
 10
0.0
 20
0.0
  0
LINE
  8
型材断面
  6
CONTINUOUS
 10
195.0
 20
133.5
 11
195.0
 21
-133.5
  0
LINE
  8
型材断面
  6
CONTINUOUS
 10
195.0
 20
-133.5
 11
-185.0
 21
-133.5
  0
LINE
  8
型材断面
  6
CONTINUOUS
 10
-185.0
 20
-133.5
 11
-185.0
 21
133.5
  0
LINE
  8
型材断面
  6
CONTINUOUS
 10
195.0
 20
133.5
 11
-185.0
 21
133.5
  0
LINE
  8
型材断面
  6
CONTINUOUS
 10
145.0
 20
-133.5
 11
145.0
 21
-118.5
  0
LINE
  8
型材断面
  6
CONTINUOUS
 10
195.0
 20
-118.5
 11
145.0
 21
-118.5
  0
ENDBLK
  0
BLOCK
  2
*DIM_0002
 70
    65
 10
0.0
 20
0.0
  0
LINE
  8
寸法
  6
BYBLOCK
 62
     0
 10
-75.342895
 20
-13.511205
 11
-75.342895
 21
-13.121378
  0
LINE
  8
寸法
  6
BYBLOCK
 62
     0
 10
57.990438
 20
-13.121378
 11
-75.342895
 21
-13.121378
  0
POINT
  8
寸法
 62
     0
 10
57.990438
 20
-13.121378
  0
POINT
  8
寸法
 62
     0
 10
-75.342895
 20
-13.121378
  0
TEXT
  7
TextStyle03
  8
寸法
  6
CONTINUOUS
 62
     0
 10
-20.41875
 20
-12.75
  1
呼称寸法　4000
 40
3.0
 72
     5
 11
3.01875
 21
-12.75
  0
ENDBLK
  0
BLOCK
  2
*DIM_0003
 70
    65
 10
0.0
 20
0.0
  0
LINE
  8
寸法
  6
BYBLOCK
 62
     0
 10
-58.676228
 20
19.183902
 11
-58.676228
 21
14.132895
  0
LINE
  8
寸法
  6
BYBLOCK
 62
     0
 10
41.323768
 20
19.183902
 11
41.323768
 21
14.132895
  0
LINE
  8
寸法
  6
BYBLOCK
 62
     0
 10
-58.676228
 20
14.132895
 11
41.323768
 21
14.132895
  0
POINT
  8
寸法
 62
     0
 10
-58.676228
 20
14.132895
  0
POINT
  8
寸法
 62
     0
 10
41.323768
 20
14.132895
  0
TEXT
  7
TextStyle03
  8
寸法
  6
CONTINUOUS
 62
     0
 10
-11.98125
 20
14.5
  1
3000
 40
3.0
 72
     5
 11
-5.41875
 21
14.5
  0
ENDBLK
  0
BLOCK
  2
*DIM_0004
 70
    65
 10
0.0
 20
0.0
  0
LINE
  8
寸法
  6
BYBLOCK
 62
     0
 10
60.990482
 20
-69.576397
 11
60.990482
 21
-13.121378
  0
LINE
  8
寸法
  6
BYBLOCK
 62
     0
 10
57.990438
 20
-13.121378
 11
60.990482
 21
-13.121378
  0
POINT
  8
寸法
 62
     0
 10
57.990438
 20
-13.121378
  0
POINT
  8
寸法
 62
     0
 10
60.990482
 20
-13.121378
  0
TEXT
  7
TextStyle03
  8
寸法
  6
CONTINUOUS
 62
     0
 10
57.88125
 20
-12.75
  1
90
 40
3.0
 72
     5
 11
61.06875
 21
-12.75
  0
ENDBLK
  0
BLOCK
  2
*DIM_0005
 70
    65
 10
0.0
 20
0.0
  0
LINE
  8
寸法
  6
BYBLOCK
 62
     0
 10
-78.342943
 20
-69.576397
 11
-78.342943
 21
-13.121378
  0
LINE
  8
寸法
  6
BYBLOCK
 62
     0
 10
-75.342897
 20
-13.121378
 11
-78.342943
 21
-13.121378
  0
POINT
  8
寸法
 62
     0
 10
-75.342897
 20
-13.121378
  0
POINT
  8
寸法
 62
     0
 10
-78.342943
 20
-13.121378
  0
TEXT
  7
TextStyle03
  8
寸法
  6
CONTINUOUS
 62
     0
 10
-78.44375
 20
-12.75
  1
90
 40
3.0
 72
     5
 11
-75.25625
 21
-12.75
  0
ENDBLK
  0
BLOCK
  2
*DIM_0006
 70
    65
 10
0.0
 20
0.0
  0
LINE
  8
寸法
  6
BYBLOCK
 62
     0
 10
154.076993
 20
-53.785395
 11
162.135282
 21
-53.785395
  0
LINE
  8
寸法
  6
BYBLOCK
 62
     0
 10
154.076993
 20
-83.118728
 11
162.135282
 21
-83.118728
  0
LINE
  8
寸法
  6
BYBLOCK
 62
     0
 10
162.135282
 20
-53.785395
 11
162.135282
 21
-83.118728
  0
POINT
  8
寸法
 62
     0
 10
162.135282
 20
-53.785395
  0
POINT
  8
寸法
 62
     0
 10
162.135282
 20
-83.118728
  0
TEXT
  7
TextStyle03
  8
寸法
  6
CONTINUOUS
 62
     0
 10
161.775
 20
-70.9125
  1
880
 40
3.0
 50
90.0
 72
     5
 11
161.775
 21
-66.0375
  0
ENDBLK
  0
BLOCK
  2
*DIM_0007
 70
    65
 10
0.0
 20
0.0
  0
LINE
  8
寸法
  6
BYBLOCK
 62
     0
 10
-78.342895
 20
47.814033
 11
-91.635732
 21
47.814033
  0
LINE
  8
寸法
  6
BYBLOCK
 62
     0
 10
-78.342895
 20
27.814033
 11
-91.635732
 21
27.814033
  0
LINE
  8
寸法
  6
BYBLOCK
 62
     0
 10
-91.635732
 20
47.814033
 11
-91.635732
 21
27.814033
  0
POINT
  8
寸法
 62
     0
 10
-91.635732
 20
47.814033
  0
POINT
  8
寸法
 62
     0
 10
-91.635732
 20
27.814033
  0
TEXT
  7
TextStyle03
  8
寸法
  6
CONTINUOUS
 62
     0
 10
-92.025
 20
35.3625
  1
600
 40
3.0
 50
90.0
 72
     5
 11
-92.025
 21
40.2375
  0
ENDBLK
  0
BLOCK
  2
*DIM_0008
 70
    65
 10
0.0
 20
0.0
  0
LINE
  8
寸法
  6
BYBLOCK
 62
     0
 10
-67.009562
 20
55.814033
 11
-67.009562
 21
84.922105
  0
LINE
  8
寸法
  6
BYBLOCK
 62
     0
 10
-43.67623
 20
55.814033
 11
-43.67623
 21
84.922105
  0
LINE
  8
寸法
  6
BYBLOCK
 62
     0
 10
-67.009562
 20
84.922105
 11
-43.67623
 21
84.922105
  0
POINT
  8
寸法
 62
     0
 10
-67.009562
 20
84.922105
  0
POINT
  8
寸法
 62
     0
 10
-43.67623
 20
84.922105
  0
TEXT
  7
TextStyle03
  8
寸法
  6
CONTINUOUS
 62
     0
 10
-57.8125
 20
85.3
  1
700
 40
3.0
 72
     5
 11
-52.9375
 21
85.3
  0
ENDBLK
  0
BLOCK
  2
*DIM_0009
 70
    65
 10
0.0
 20
0.0
  0
LINE
  8
寸法
  6
BYBLOCK
 62
     0
 10
-20.342897
 20
55.814033
 11
-20.342897
 21
84.922105
  0
LINE
  8
寸法
  6
BYBLOCK
 62
     0
 10
-43.67623
 20
84.922105
 11
-20.342897
 21
84.922105
  0
POINT
  8
寸法
 62
     0
 10
-20.342897
 20
84.922105
  0
TEXT
  7
TextStyle03
  8
寸法
  6
CONTINUOUS
 62
     0
 10
-34.4875
 20
85.3
  1
700
 40
3.0
 72
     5
 11
-29.6125
 21
85.3
  0
ENDBLK
  0
BLOCK
  2
*DIM_0010
 70
    65
 10
0.0
 20
0.0
  0
LINE
  8
寸法
  6
BYBLOCK
 62
     0
 10
2.990438
 20
55.814033
 11
2.990438
 21
84.922105
  0
LINE
  8
寸法
  6
BYBLOCK
 62
     0
 10
-20.342897
 20
84.922105
 11
2.990438
 21
84.922105
  0
POINT
  8
寸法
 62
     0
 10
2.990438
 20
84.922105
  0
TEXT
  7
TextStyle03
  8
寸法
  6
CONTINUOUS
 62
     0
 10
-11.1625
 20
85.3
  1
700
 40
3.0
 72
     5
 11
-6.2875
 21
85.3
  0
ENDBLK
  0
BLOCK
  2
*DIM_0011
 70
    65
 10
0.0
 20
0.0
  0
LINE
  8
寸法
  6
BYBLOCK
 62
     0
 10
26.32377
 20
55.814033
 11
26.32377
 21
84.922105
  0
LINE
  8
寸法
  6
BYBLOCK
 62
     0
 10
2.990438
 20
84.922105
 11
26.32377
 21
84.922105
  0
POINT
  8
寸法
 62
     0
 10
26.32377
 20
84.922105
  0
TEXT
  7
TextStyle03
  8
寸法
  6
CONTINUOUS
 62
     0
 10
12.1875
 20
85.3
  1
700
 40
3.0
 72
     5
 11
17.0625
 21
85.3
  0
ENDBLK
  0
BLOCK
  2
*DIM_0012
 70
    65
 10
0.0
 20
0.0
  0
LINE
  8
寸法
  6
BYBLOCK
 62
     0
 10
49.657102
 20
55.814033
 11
49.657102
 21
84.922105
  0
LINE
  8
寸法
  6
BYBLOCK
 62
     0
 10
26.32377
 20
84.922105
 11
49.657102
 21
84.922105
  0
POINT
  8
寸法
 62
     0
 10
49.657102
 20
84.922105
  0
TEXT
  7
TextStyle03
  8
寸法
  6
CONTINUOUS
 62
     0
 10
35.5125
 20
85.3
  1
700
 40
3.0
 72
     5
 11
40.3875
 21
85.3
  0
ENDBLK
  0
BLOCK
  2
*DIM_0013
 70
    65
 10
0.0
 20
0.0
  0
LINE
  8
寸法
  6
CONTINUOUS
 10
115.683952
 20
66.45319
 11
119.00062
 21
66.45319
  0
POINT
  8
寸法
 10
115.683952
 20
66.45319
  0
POINT
  8
寸法
 10
119.00062
 20
66.45319
  0
TEXT
  7
TextStyle03
  8
寸法
  6
CONTINUOUS
 10
113.94375
 20
66.65
  1
99.5
 40
3.0
 72
     5
 11
120.50625
 21
66.65
  0
ENDBLK
  0
BLOCK
  2
*DIM_0014
 70
    65
 10
0.0
 20
0.0
  0
LINE
  8
寸法
  6
CONTINUOUS
 10
71.629647
 20
-67.543295
 11
71.629647
 21
-70.859962
  0
POINT
  8
寸法
 10
71.629647
 20
-67.543295
  0
POINT
  8
寸法
 10
71.629647
 20
-70.859962
  0
TEXT
  7
TextStyle03
  8
寸法
  6
CONTINUOUS
 10
74.775
 20
-72.38125
  1
99.5
 40
3.0
 50
90.0
 72
     5
 11
74.775
 21
-65.81875
  0
ENDBLK
  0
BLOCK
  2
*DIM_0015
 70
    65
 10
0.0
 20
0.0
  0
LINE
  8
寸法
  6
CONTINUOUS
 10
153.076993
 20
-45.27669
 11
120.78366
 21
-45.27669
  0
POINT
  8
寸法
 10
153.076993
 20
-45.27669
  0
POINT
  8
寸法
 10
120.78366
 20
-45.27669
  0
TEXT
  7
TextStyle03
  8
寸法
  6
CONTINUOUS
 10
132.8
 20
-44.925
  1
968.8
 40
3.0
 72
     5
 11
141.05
 21
-44.925
  0
ENDBLK
  0
ENDSEC
  0
SECTION
  2
ENTITIES
  0
POLYLINE
  8
通り芯
  6
CONTINUOUS
 66
     1
 70
     1
  0
VERTEX
  8
通り芯
 10
-210.0
 20
-148.5
  0
VERTEX
  8
通り芯
 10
210.0
 20
-148.5
  0
VERTEX
  8
通り芯
 10
210.0
 20
148.5
  0
VERTEX
  8
通り芯
 10
-210.0
 20
148.5
  0
SEQEND
  0
INSERT
  2
*GRP_0001
  8
型材断面
  6
CONTINUOUS
 10
0.0
 20
0.0
  0
LINE
  8
型材断面
  6
DASHDOT
 10
57.990438
 20
-77.836442
 11
57.990438
 21
52.814033
  0
LINE
  8
型材断面
  6
DASHDOT
 10
-8.67623
 20
-77.836442
 11
-8.67623
 21
52.814033
  0
LINE
  8
型材断面
  6
DASHDOT
 10
-75.342895
 20
-77.836442
 11
-75.342895
 21
52.814033
  0
LINE
  8
型材断面
  6
DASHDOT
 10
-8.67623
 20
22.814033
 11
-8.67623
 21
52.814033
  0
LINE
  8
型材断面
  6
CONTINUOUS
 10
-58.676228
 20
55.444162
 11
-60.171857
 21
58.03467
  0
LINE
  8
型材断面
  6
CONTINUOUS
 10
-58.676228
 20
55.444162
 11
-57.180598
 21
58.03467
  0
LINE
  8
型材断面
  6
CONTINUOUS
 10
-57.180598
 20
58.03467
 11
-60.171857
 21
58.03467
  0
LINE
  8
型材断面
  6
CONTINUOUS
 10
-77.973025
 20
37.814033
 11
-80.563533
 21
39.309663
  0
LINE
  8
型材断面
  6
CONTINUOUS
 10
-77.973025
 20
37.814033
 11
-80.563533
 21
36.318403
  0
LINE
  8
型材断面
  6
CONTINUOUS
 10
-80.563533
 20
36.318403
 11
-80.563533
 21
39.309663
  0
LINE
  8
型材断面
  6
CONTINUOUS
 10
-58.676228
 20
20.183902
 11
-60.171857
 21
17.593395
  0
LINE
  8
型材断面
  6
CONTINUOUS
 10
-58.676228
 20
20.183902
 11
-57.180598
 21
17.593395
  0
LINE
  8
型材断面
  6
CONTINUOUS
 10
-57.180598
 20
17.593395
 11
-60.171857
 21
17.593395
  0
LINE
  8
型材断面
  6
CONTINUOUS
 10
41.323768
 20
55.444162
 11
42.819398
 21
58.03467
  0
LINE
  8
型材断面
  6
CONTINUOUS
 10
41.323768
 20
55.444162
 11
39.828138
 21
58.03467
  0
LINE
  8
型材断面
  6
CONTINUOUS
 10
39.828138
 20
58.03467
 11
42.819398
 21
58.03467
  0
LINE
  8
型材断面
  6
CONTINUOUS
 10
41.323768
 20
20.183902
 11
42.819398
 21
17.593395
  0
LINE
  8
型材断面
  6
CONTINUOUS
 10
41.323768
 20
20.183902
 11
39.828138
 21
17.593395
  0
LINE
  8
型材断面
  6
CONTINUOUS
 10
39.828138
 20
17.593395
 11
42.819398
 21
17.593395
  0
LINE
  8
型材断面
  6
CONTINUOUS
 10
-129.221418
 20
97.32138
 11
-130.717047
 21
94.730873
  0
LINE
  8
型材断面
  6
CONTINUOUS
 10
-129.221418
 20
97.32138
 11
-127.725788
 21
94.730873
  0
LINE
  8
型材断面
  6
CONTINUOUS
 10
-127.725788
 20
94.730873
 11
-130.717047
 21
94.730873
  0
LINE
  8
型材断面
  6
CONTINUOUS
 10
-135.244005
 20
93.792277
 11
-89.002228
 21
93.792277
  0
LINE
  8
型材断面
  6
CONTINUOUS
 10
-135.244005
 20
87.492275
 11
-89.002228
 21
87.492275
  0
LINE
  8
型材断面
  6
CONTINUOUS
 10
-78.342943
 20
19.81399
 11
-8.67623
 21
19.81399
  0
LINE
  8
型材断面
  6
CONTINUOUS
 10
-78.342943
 20
55.814075
 11
-8.67623
 21
55.814075
  0
LINE
  8
型材断面
  6
CONTINUOUS
 10
60.990482
 20
55.814075
 11
-8.67623
 21
55.814075
  0
LINE
  8
型材断面
  6
CONTINUOUS
 10
60.990482
 20
19.81399
 11
-8.67623
 21
19.81399
  0
CIRCLE
  8
型材断面
  6
CONTINUOUS
 62
    47
 10
118.500622
 20
55.813975
 40
0.011113
  0
LINE
  8
型材断面
  6
CONTINUOUS
 62
    47
 10
119.00062
 20
55.313983
 11
119.00062
 21
55.813975
  0
LINE
  8
型材断面
  6
CONTINUOUS
 62
    47
 10
119.00062
 20
55.813975
 11
118.500622
 21
55.813975
  0
LINE
  8
型材断面
  6
CONTINUOUS
 62
    47
 10
118.500622
 20
55.813975
 11
118.003442
 21
52.880643
  0
LINE
  8
型材断面
  6
CONTINUOUS
 62
    47
 10
119.00062
 20
55.313983
 11
119.50062
 21
55.313983
  0
LINE
  8
型材断面
  6
CONTINUOUS
 62
    47
 10
118.003442
 20
52.880643
 11
117.35062
 21
52.880643
  0
CIRCLE
  8
型材断面
  6
CONTINUOUS
 62
    47
 10
118.500622
 20
19.81399
 40
0.011113
  0
LINE
  8
型材断面
  6
CONTINUOUS
 62
    47
 10
119.00062
 20
20.313983
 11
119.00062
 21
19.81399
  0
LINE
  8
型材断面
  6
CONTINUOUS
 62
    47
 10
119.00062
 20
19.81399
 11
118.500622
 21
19.81399
  0
LINE
  8
型材断面
  6
CONTINUOUS
 62
    47
 10
118.500622
 20
19.81399
 11
118.003442
 21
22.747322
  0
LINE
  8
型材断面
  6
CONTINUOUS
 62
    47
 10
119.00062
 20
20.313983
 11
119.50062
 21
20.313983
  0
LINE
  8
型材断面
  6
CONTINUOUS
 62
    47
 10
118.003442
 20
22.747322
 11
117.35062
 21
22.747322
  0
LINE
  8
型材断面
  6
CONTINUOUS
 62
    47
 10
115.85062
 20
54.460445
 11
115.85062
 21
37.813983
  0
LINE
  8
型材断面
  6
CONTINUOUS
 62
    47
 10
115.683952
 20
54.303923
 11
115.683952
 21
37.813983
  0
LINE
  8
型材断面
  6
CONTINUOUS
 62
    47
 10
117.35062
 20
54.303923
 11
117.35062
 21
37.813983
  0
LINE
  8
型材断面
  6
CONTINUOUS
 10
118.003442
 20
52.880695
 11
118.003442
 21
37.813983
  0
LINE
  8
型材断面
  6
CONTINUOUS
 10
118.500625
 20
55.814027
 11
118.500625
 21
37.813983
  0
LINE
  8
型材断面
  6
CONTINUOUS
 62
    47
 10
119.00062
 20
55.814027
 11
119.00062
 21
37.813983
  0
LINE
  8
型材断面
  6
CONTINUOUS
 10
119.50062
 20
55.314038
 11
119.50062
 21
37.813983
  0
LINE
  8
型材断面
  6
CONTINUOUS
 10
119.50062
 20
20.313927
 11
119.50062
 21
37.813983
  0
LINE
  8
型材断面
  6
CONTINUOUS
 10
118.500625
 20
19.813938
 11
118.500625
 21
37.813983
  0
LINE
  8
型材断面
  6
CONTINUOUS
 62
    47
 10
119.00062
 20
19.813938
 11
119.00062
 21
37.813983
  0
LINE
  8
型材断面
  6
CONTINUOUS
 10
118.003442
 20
22.74727
 11
118.003442
 21
37.813983
  0
LINE
  8
型材断面
  6
CONTINUOUS
 62
    47
 10
117.35062
 20
21.324042
 11
117.35062
 21
37.813983
  0
LINE
  8
型材断面
  6
CONTINUOUS
 62
    47
 10
115.85062
 20
21.16752
 11
115.85062
 21
37.813983
  0
LINE
  8
型材断面
  6
CONTINUOUS
 62
    47
 10
115.683952
 20
21.324042
 11
115.683952
 21
37.813983
  0
LINE
  8
型材断面
  6
DASHDOT
 10
-75.342895
 20
37.814033
 11
126.47663
 21
37.814033
  0
CIRCLE
  8
型材断面
  6
CONTINUOUS
 62
    47
 10
-78.342887
 20
-70.359965
 40
0.011113
  0
LINE
  8
型材断面
  6
CONTINUOUS
 62
    47
 10
-77.842895
 20
-70.859962
 11
-78.342887
 21
-70.859962
  0
LINE
  8
型材断面
  6
CONTINUOUS
 62
    47
 10
-78.342887
 20
-70.859962
 11
-78.342887
 21
-70.359965
  0
LINE
  8
型材断面
  6
CONTINUOUS
 62
    47
 10
-78.342887
 20
-70.359965
 11
-75.409555
 21
-69.862785
  0
LINE
  8
型材断面
  6
CONTINUOUS
 62
    47
 10
-77.842895
 20
-70.859962
 11
-77.842895
 21
-71.359962
  0
LINE
  8
型材断面
  6
CONTINUOUS
 62
    47
 10
-75.409555
 20
-69.862785
 11
-75.409555
 21
-69.209962
  0
CIRCLE
  8
型材断面
  6
CONTINUOUS
 62
    47
 10
60.99043
 20
-70.359965
 40
0.011113
  0
LINE
  8
型材断面
  6
CONTINUOUS
 62
    47
 10
60.490438
 20
-70.859962
 11
60.99043
 21
-70.859962
  0
LINE
  8
型材断面
  6
CONTINUOUS
 62
    47
 10
60.99043
 20
-70.859962
 11
60.99043
 21
-70.359965
  0
LINE
  8
型材断面
  6
CONTINUOUS
 62
    47
 10
60.99043
 20
-70.359965
 11
58.057098
 21
-69.862785
  0
LINE
  8
型材断面
  6
CONTINUOUS
 62
    47
 10
60.490438
 20
-70.859962
 11
60.490438
 21
-71.359962
  0
LINE
  8
型材断面
  6
CONTINUOUS
 62
    47
 10
58.057098
 20
-69.862785
 11
58.057098
 21
-69.209962
  0
LINE
  8
型材断面
  6
CONTINUOUS
 62
    47
 10
-76.832835
 20
-69.209962
 11
-8.676228
 21
-69.209962
  0
LINE
  8
型材断面
  6
CONTINUOUS
 62
    47
 10
-76.832835
 20
-67.543295
 11
-8.676228
 21
-67.543295
  0
LINE
  8
型材断面
  6
CONTINUOUS
 62
    47
 10
-76.989358
 20
-67.709962
 11
-8.676228
 21
-67.709962
  0
LINE
  8
型材断面
  6
CONTINUOUS
 10
-75.409608
 20
-69.862785
 11
-8.676228
 21
-69.862785
  0
LINE
  8
型材断面
  6
CONTINUOUS
 62
    47
 10
-78.34294
 20
-70.859962
 11
-8.676228
 21
-70.859962
  0
LINE
  8
型材断面
  6
CONTINUOUS
 10
-78.34294
 20
-70.359968
 11
-8.676228
 21
-70.359968
  0
LINE
  8
型材断面
  6
CONTINUOUS
 10
-77.84295
 20
-71.359962
 11
-8.676228
 21
-71.359962
  0
LINE
  8
型材断面
  6
CONTINUOUS
 10
60.490493
 20
-71.359962
 11
-8.676228
 21
-71.359962
  0
LINE
  8
型材断面
  6
CONTINUOUS
 62
    47
 10
60.990482
 20
-70.859962
 11
-8.676228
 21
-70.859962
  0
LINE
  8
型材断面
  6
CONTINUOUS
 62
    47
 10
59.6369
 20
-67.709962
 11
-8.676228
 21
-67.709962
  0
LINE
  8
型材断面
  6
CONTINUOUS
 62
    47
 10
59.480378
 20
-67.543295
 11
-8.676228
 21
-67.543295
  0
LINE
  8
型材断面
  6
CONTINUOUS
 62
    47
 10
59.480378
 20
-69.209962
 11
-8.676228
 21
-69.209962
  0
LINE
  8
型材断面
  6
CONTINUOUS
 10
58.057152
 20
-69.862785
 11
-8.676228
 21
-69.862785
  0
LINE
  8
型材断面
  6
CONTINUOUS
 10
60.990482
 20
-70.359968
 11
-8.676228
 21
-70.359968
  0
LINE
  8
型材断面
  6
DASHDOT
 10
126.47663
 20
52.813983
 11
-75.342895
 21
52.813983
  0
LINE
  8
型材断面
  6
DASHDOT
 10
126.47663
 20
22.813983
 11
-75.342895
 21
22.813983
  0
LINE
  8
型材断面
  6
DASHDOT
 10
-42.13456
 20
22.814033
 11
-42.13456
 21
52.814033
  0
LINE
  8
型材断面
  6
DASHDOT
 10
24.7821
 20
22.814033
 11
24.7821
 21
52.814033
  0
LINE
  8
型材断面
  6
CONTINUOUS
 10
8.469602
 20
51.960545
 11
40.969602
 21
51.960545
  0
LINE
  8
型材断面
  6
CONTINUOUS
 10
8.469602
 20
23.66752
 11
40.969602
 21
23.66752
  0
LINE
  8
型材断面
  6
CONTINUOUS
 10
-24.988728
 20
23.66752
 11
7.636268
 21
23.66752
  0
LINE
  8
型材断面
  6
CONTINUOUS
 10
-24.988728
 20
51.960545
 11
7.636268
 21
51.960545
  0
LINE
  8
型材断面
  6
CONTINUOUS
 10
-58.322062
 20
51.960545
 11
-25.822062
 21
51.960545
  0
LINE
  8
型材断面
  6
CONTINUOUS
 10
-58.322062
 20
23.66752
 11
-25.822062
 21
23.66752
  0
LINE
  8
型材断面
  6
CONTINUOUS
 10
60.620565
 20
37.814033
 11
63.211073
 21
39.309663
  0
LINE
  8
型材断面
  6
CONTINUOUS
 10
60.620565
 20
37.814033
 11
63.211073
 21
36.318403
  0
LINE
  8
型材断面
  6
CONTINUOUS
 10
63.211073
 20
36.318403
 11
63.211073
 21
39.309663
  0
LINE
  8
型材断面
  6
CONTINUOUS
 10
26.0321
 20
24.500852
 11
23.5321
 21
24.500852
  0
LINE
  8
型材断面
  6
CONTINUOUS
 10
26.0321
 20
51.127212
 11
23.5321
 21
51.127212
  0
LINE
  8
型材断面
  6
CONTINUOUS
 10
26.0321
 20
24.500852
 11
26.0321
 21
51.127212
  0
LINE
  8
型材断面
  6
CONTINUOUS
 10
23.5321
 20
24.500852
 11
23.5321
 21
51.127212
  0
LINE
  8
型材断面
  6
CONTINUOUS
 10
-7.42623
 20
24.500852
 11
-9.92623
 21
24.500852
  0
LINE
  8
型材断面
  6
CONTINUOUS
 10
-7.42623
 20
51.127212
 11
-9.92623
 21
51.127212
  0
LINE
  8
型材断面
  6
CONTINUOUS
 10
-7.42623
 20
24.500852
 11
-7.42623
 21
51.127212
  0
LINE
  8
型材断面
  6
CONTINUOUS
 10
-9.92623
 20
24.500852
 11
-9.92623
 21
51.127212
  0
LINE
  8
型材断面
  6
CONTINUOUS
 10
-40.88456
 20
24.500852
 11
-43.38456
 21
24.500852
  0
LINE
  8
型材断面
  6
CONTINUOUS
 10
-40.88456
 20
51.127212
 11
-43.38456
 21
51.127212
  0
LINE
  8
型材断面
  6
CONTINUOUS
 10
-40.88456
 20
24.500852
 11
-40.88456
 21
51.127212
  0
LINE
  8
型材断面
  6
CONTINUOUS
 10
-43.38456
 20
24.500852
 11
-43.38456
 21
51.127212
  0
LINE
  8
型材断面
  6
CONTINUOUS
 10
60.990485
 20
55.814075
 11
60.990485
 21
37.81403
  0
LINE
  8
型材断面
  6
CONTINUOUS
 10
60.990485
 20
19.81399
 11
60.990485
 21
37.814035
  0
LINE
  8
型材断面
  6
CONTINUOUS
 10
59.4012
 20
21.16752
 11
59.6369
 21
21.40322
  0
LINE
  8
型材断面
  6
CONTINUOUS
 10
60.990485
 20
19.81399
 11
59.519077
 21
21.285397
  0
LINE
  8
型材断面
  6
CONTINUOUS
 10
56.9012
 20
23.66752
 11
57.1369
 21
23.90322
  0
LINE
  8
型材断面
  6
CONTINUOUS
 10
57.1369
 20
23.90322
 11
59.636897
 21
21.403223
  0
LINE
  8
型材断面
  6
CONTINUOUS
 10
56.9012
 20
23.66752
 11
59.401097
 21
21.167622
  0
LINE
  8
型材断面
  6
CONTINUOUS
 10
57.136897
 20
37.397365
 11
57.136897
 21
23.903218
  0
LINE
  8
型材断面
  6
CONTINUOUS
 10
59.4012
 20
54.460545
 11
59.6369
 21
54.224845
  0
LINE
  8
型材断面
  6
CONTINUOUS
 10
60.990485
 20
55.814075
 11
59.519077
 21
54.342668
  0
LINE
  8
型材断面
  6
CONTINUOUS
 10
56.9012
 20
51.960545
 11
57.1369
 21
51.724845
  0
LINE
  8
型材断面
  6
CONTINUOUS
 10
57.1369
 20
51.724845
 11
59.636897
 21
54.224842
  0
LINE
  8
型材断面
  6
CONTINUOUS
 10
56.9012
 20
51.960545
 11
59.401097
 21
54.460442
  0
LINE
  8
型材断面
  6
CONTINUOUS
 10
57.136897
 20
38.2307
 11
57.136897
 21
51.724848
  0
LINE
  8
型材断面
  6
CONTINUOUS
 10
59.636897
 20
21.403223
 11
59.636897
 21
54.224842
  0
LINE
  8
型材断面
  6
CONTINUOUS
 10
-78.342945
 20
55.814075
 11
-78.342945
 21
37.81403
  0
LINE
  8
型材断面
  6
CONTINUOUS
 10
-78.342945
 20
19.81399
 11
-78.342945
 21
37.814035
  0
LINE
  8
型材断面
  6
CONTINUOUS
 10
-76.75366
 20
21.16752
 11
-76.98936
 21
21.40322
  0
LINE
  8
型材断面
  6
CONTINUOUS
 10
-78.342945
 20
19.81399
 11
-76.871537
 21
21.285397
  0
LINE
  8
型材断面
  6
CONTINUOUS
 10
-74.25366
 20
23.66752
 11
-74.48936
 21
23.90322
  0
LINE
  8
型材断面
  6
CONTINUOUS
 10
-74.48936
 20
23.90322
 11
-76.989358
 21
21.403223
  0
LINE
  8
型材断面
  6
CONTINUOUS
 10
-74.25366
 20
23.66752
 11
-76.753557
 21
21.167622
  0
LINE
  8
型材断面
  6
CONTINUOUS
 10
-74.489358
 20
37.397365
 11
-74.489358
 21
23.903218
  0
LINE
  8
型材断面
  6
CONTINUOUS
 10
-76.75366
 20
54.460545
 11
-76.98936
 21
54.224845
  0
LINE
  8
型材断面
  6
CONTINUOUS
 10
-78.342945
 20
55.814075
 11
-76.871537
 21
54.342668
  0
LINE
  8
型材断面
  6
CONTINUOUS
 10
-74.25366
 20
51.960545
 11
-74.48936
 21
51.724845
  0
LINE
  8
型材断面
  6
CONTINUOUS
 10
-74.48936
 20
51.724845
 11
-76.989358
 21
54.224842
  0
LINE
  8
型材断面
  6
CONTINUOUS
 10
-74.25366
 20
51.960545
 11
-76.753557
 21
54.460442
  0
LINE
  8
型材断面
  6
CONTINUOUS
 10
-74.489358
 20
38.2307
 11
-74.489358
 21
51.724848
  0
LINE
  8
型材断面
  6
CONTINUOUS
 10
-76.989358
 20
21.403223
 11
-76.989358
 21
54.224842
  0
LINE
  8
型材断面
  6
CONTINUOUS
 10
41.802938
 20
23.66752
 11
56.9012
 21
23.66752
  0
LINE
  8
型材断面
  6
CONTINUOUS
 10
41.802938
 20
51.960545
 11
56.9012
 21
51.960545
  0
LINE
  8
型材断面
  6
CONTINUOUS
 10
-59.155397
 20
23.66752
 11
-74.25366
 21
23.66752
  0
LINE
  8
型材断面
  6
CONTINUOUS
 10
59.4012
 20
21.16752
 11
-76.75366
 21
21.16752
  0
LINE
  8
型材断面
  6
CONTINUOUS
 10
59.4012
 20
54.460545
 11
-76.75366
 21
54.460545
  0
LINE
  8
型材断面
  6
CONTINUOUS
 10
-59.155397
 20
51.960545
 11
-74.25366
 21
51.960545
  0
TEXT
  7
TextStyle03
  8
文字
  6
CONTINUOUS
 10
-126.45
 20
94.925
  1
は排水穴位置を示す
 40
3.0
 72
     5
 11
-96.45
 21
94.925
  0
TEXT
  7
TextStyle03
  8
文字
  6
CONTINUOUS
 10
61.275
 20
104.525
  1
ＮＳコード：ＮＳＦＫＺ
 40
5.0
 72
     5
 11
122.525
 21
104.525
  0
TEXT
  7
TextStyle03
  8
文字
  6
CONTINUOUS
 10
134.525
 20
-76.7
  1
網入り6.8t
 40
3.0
 72
     5
 11
151.2125
 21
-76.7
  0
TEXT
  7
TextStyle03
  8
文字
  6
CONTINUOUS
 10
141.2
 20
-81.375
  1
×４枚
 40
3.0
 72
     5
 11
150.95
 21
-81.375
  0
TEXT
  7
TextStyle03
  8
文字
  6
CONTINUOUS
 10
-96.35
 20
16.275
  1
アンカーピッチ
 40
3.0
 50
90.0
 72
     5
 11
-96.35
 21
39.525
  0
TEXT
  7
TextStyle03
  8
文字
  6
CONTINUOUS
 10
-67.275
 20
90.85
  1
アンカーピッチ
 40
3.0
 72
     5
 11
-44.025
 21
90.85
  0
TEXT
  7
TextStyle03
  8
文字
  6
CONTINUOUS
 10
-130.175
 20
88.4
  1
アンカー数量　１６ヶ所
 40
3.0
 72
     5
 11
-93.425
 21
88.4
  0
LINE
  8
文字
  6
CONTINUOUS
 10
115.683952
 20
66.45319
 11
115.683952
 21
57.100035
  0
LINE
  8
文字
  6
CONTINUOUS
 10
119.00062
 20
66.45319
 11
119.00062
 21
57.165387
  0
LINE
  8
文字
  6
CONTINUOUS
 10
71.629647
 20
-67.543295
 11
62.27649
 21
-67.543295
  0
LINE
  8
文字
  6
CONTINUOUS
 10
71.629647
 20
-70.859962
 11
62.341842
 21
-70.859962
  0
LINE
  8
文字
  6
CONTINUOUS
 10
120.78366
 20
-45.27669
 11
120.78366
 21
-52.428532
  0
LINE
  8
文字
  6
CONTINUOUS
 10
153.076993
 20
-45.27669
 11
153.076993
 21
-52.428532
  0
TEXT
  7
TextStyle03
  8
文字
  6
CONTINUOUS
 10
61.125
 20
125.25
  1
シリーズ：ＴＦ２ＦＫＬ
 40
5.0
 72
     5
 11
122.375
 21
125.25
  0
TEXT
  7
TextStyle03
  8
文字
  6
CONTINUOUS
 10
61.125
 20
119.625
  1
　　　　　（固定）900×4000タイプ
 40
5.0
 72
     5
 11
153.3125
 21
119.625
  0
TEXT
  7
TextStyle03
  8
文字
  6
CONTINUOUS
 10
61.125
 20
114.0
  1
図面名　：外観姿図
 40
5.0
 72
     5
 11
111.125
 21
114.0
  0
TEXT
  7
TextStyle03
  8
文字
  6
CONTINUOUS
 10
61.125
 20
108.375
  1
　　　　　　
 40
5.0
 72
     5
 11
94.25
 21
108.375
  0
LINE
  8
文字
  6
CONTINUOUS
 10
41.802938
 20
23.66752
 11
41.802938
 21
21.16752
  0
LINE
  8
文字
  6
CONTINUOUS
 10
40.969602
 20
23.66752
 11
40.969602
 21
21.16752
  0
LINE
  8
文字
  6
CONTINUOUS
 10
8.469602
 20
23.66752
 11
8.469602
 21
21.16752
  0
LINE
  8
文字
  6
CONTINUOUS
 10
7.636268
 20
23.66752
 11
7.636268
 21
21.16752
  0
LINE
  8
文字
  6
CONTINUOUS
 10
-59.155397
 20
23.66752
 11
-59.155397
 21
21.16752
  0
LINE
  8
文字
  6
CONTINUOUS
 10
-58.322062
 20
23.66752
 11
-58.322062
 21
21.16752
  0
LINE
  8
文字
  6
CONTINUOUS
 10
-25.822062
 20
23.66752
 11
-25.822062
 21
21.16752
  0
LINE
  8
文字
  6
CONTINUOUS
 10
-24.988728
 20
23.66752
 11
-24.988728
 21
21.16752
  0
LINE
  8
文字
  6
CONTINUOUS
 10
41.802938
 20
51.960545
 11
41.802938
 21
54.460545
  0
LINE
  8
文字
  6
CONTINUOUS
 10
40.969602
 20
51.960545
 11
40.969602
 21
54.460545
  0
LINE
  8
文字
  6
CONTINUOUS
 10
8.469602
 20
51.960545
 11
8.469602
 21
54.460545
  0
LINE
  8
文字
  6
CONTINUOUS
 10
7.636268
 20
51.960545
 11
7.636268
 21
54.460545
  0
LINE
  8
文字
  6
CONTINUOUS
 10
-59.155397
 20
51.960545
 11
-59.155397
 21
54.460545
  0
LINE
  8
文字
  6
CONTINUOUS
 10
-58.322062
 20
51.960545
 11
-58.322062
 21
54.460545
  0
LINE
  8
文字
  6
CONTINUOUS
 10
-25.822062
 20
51.960545
 11
-25.822062
 21
54.460545
  0
LINE
  8
文字
  6
CONTINUOUS
 10
-24.988728
 20
51.960545
 11
-24.988728
 21
54.460545
  0
LINE
  8
文字
  6
CONTINUOUS
 10
59.636897
 20
37.397365
 11
57.136897
 21
37.397365
  0
LINE
  8
文字
  6
CONTINUOUS
 10
59.636897
 20
38.2307
 11
57.136897
 21
38.2307
  0
LINE
  8
文字
  6
CONTINUOUS
 10
-76.989358
 20
37.397365
 11
-74.489358
 21
37.397365
  0
LINE
  8
文字
  6
CONTINUOUS
 10
-76.989358
 20
38.2307
 11
-74.489358
 21
38.2307
  0
INSERT
  2
*DIM_0002
  8
寸法
  6
CONTINUOUS
 10
0.0
 20
0.0
  0
INSERT
  2
*DIM_0003
  8
寸法
  6
CONTINUOUS
 10
0.0
 20
0.0
  0
INSERT
  2
*DIM_0004
  8
寸法
  6
CONTINUOUS
 10
0.0
 20
0.0
  0
INSERT
  2
*DIM_0005
  8
寸法
  6
CONTINUOUS
 10
0.0
 20
0.0
  0
INSERT
  2
*DIM_0006
  8
寸法
  6
CONTINUOUS
 10
0.0
 20
0.0
  0
INSERT
  2
*DIM_0007
  8
寸法
  6
CONTINUOUS
 10
0.0
 20
0.0
  0
INSERT
  2
*DIM_0008
  8
寸法
  6
CONTINUOUS
 10
0.0
 20
0.0
  0
INSERT
  2
*DIM_0009
  8
寸法
  6
CONTINUOUS
 10
0.0
 20
0.0
  0
INSERT
  2
*DIM_0010
  8
寸法
  6
CONTINUOUS
 10
0.0
 20
0.0
  0
INSERT
  2
*DIM_0011
  8
寸法
  6
CONTINUOUS
 10
0.0
 20
0.0
  0
INSERT
  2
*DIM_0012
  8
寸法
  6
CONTINUOUS
 10
0.0
 20
0.0
  0
INSERT
  2
*DIM_0013
  8
寸法
  6
CONTINUOUS
 10
0.0
 20
0.0
  0
INSERT
  2
*DIM_0014
  8
寸法
  6
CONTINUOUS
 10
0.0
 20
0.0
  0
INSERT
  2
*DIM_0015
  8
寸法
  6
CONTINUOUS
 10
0.0
 20
0.0
  0
LINE
  8
別途部材
  6
CONTINUOUS
 62
    47
 10
115.783952
 20
54.460445
 11
115.85062
 21
54.460445
  0
ARC
  8
別途部材
  6
CONTINUOUS
 62
    47
 10
115.783953
 20
54.360444
 40
0.1
 50
90.0
 51
180.0
  0
LINE
  8
別途部材
  6
CONTINUOUS
 62
    47
 10
115.683952
 20
54.360445
 11
115.683952
 21
54.303923
  0
LINE
  8
別途部材
  6
CONTINUOUS
 62
    47
 10
117.35062
 20
54.303923
 11
115.85062
 21
54.303923
  0
LINE
  8
別途部材
  6
CONTINUOUS
 62
    47
 10
115.783952
 20
21.16752
 11
115.85062
 21
21.16752
  0
ARC
  8
別途部材
  6
CONTINUOUS
 62
    47
 10
115.783953
 20
21.26752
 40
0.1
 50
180.0
 51
270.0
  0
LINE
  8
別途部材
  6
CONTINUOUS
 62
    47
 10
115.683952
 20
21.26752
 11
115.683952
 21
21.324042
  0
LINE
  8
別途部材
  6
CONTINUOUS
 62
    47
 10
117.35062
 20
21.324042
 11
115.85062
 21
21.324042
  0
LINE
  8
別途部材
  6
CONTINUOUS
 62
    47
 10
-76.989358
 20
-67.643295
 11
-76.989358
 21
-67.709962
  0
ARC
  8
別途部材
  6
CONTINUOUS
 62
    47
 10
-76.889358
 20
-67.643293
 40
0.1
 50
90.0
 51
180.0
  0
LINE
  8
別途部材
  6
CONTINUOUS
 62
    47
 10
-76.889358
 20
-67.543295
 11
-76.832835
 21
-67.543295
  0
LINE
  8
別途部材
  6
CONTINUOUS
 62
    47
 10
-76.832835
 20
-69.209962
 11
-76.832835
 21
-67.709962
  0
LINE
  8
別途部材
  6
CONTINUOUS
 62
    47
 10
59.6369
 20
-67.643295
 11
59.6369
 21
-67.709962
  0
ARC
  8
別途部材
  6
CONTINUOUS
 62
    47
 10
59.536899
 20
-67.643293
 40
0.1
 50
0.0
 51
90.0
  0
LINE
  8
別途部材
  6
CONTINUOUS
 62
    47
 10
59.5369
 20
-67.543295
 11
59.480378
 21
-67.543295
  0
LINE
  8
別途部材
  6
CONTINUOUS
 62
    47
 10
59.480378
 20
-69.209962
 11
59.480378
 21
-67.709962
  0
LINE
  8
曲げ物
  6
CONTINUOUS
 10
42.716167
 20
39.693362
 11
39.020855
 21
35.99805
  0
LINE
  8
曲げ物
  6
CONTINUOUS
 10
42.012697
 20
38.157252
 11
40.556968
 21
36.701522
  0
LINE
  8
曲げ物
  6
CONTINUOUS
 10
41.180057
 20
38.989892
 11
39.724328
 21
37.534162
  0
LINE
  8
曲げ物
  6
CONTINUOUS
 10
10.41293
 20
39.693362
 11
6.717618
 21
35.99805
  0
LINE
  8
曲げ物
  6
CONTINUOUS
 10
9.70946
 20
38.157252
 11
8.25373
 21
36.701522
  0
LINE
  8
曲げ物
  6
CONTINUOUS
 10
8.87682
 20
38.989892
 11
7.42109
 21
37.534162
  0
LINE
  8
曲げ物
  6
CONTINUOUS
 10
-22.68217
 20
39.693362
 11
-26.377483
 21
35.99805
  0
LINE
  8
曲げ物
  6
CONTINUOUS
 10
-23.38564
 20
38.157252
 11
-24.84137
 21
36.701522
  0
LINE
  8
曲げ物
  6
CONTINUOUS
 10
-24.21828
 20
38.989892
 11
-25.67401
 21
37.534162
  0
LINE
  8
曲げ物
  6
CONTINUOUS
 10
-56.347877
 20
39.693362
 11
-60.04319
 21
35.99805
  0
LINE
  8
曲げ物
  6
CONTINUOUS
 10
-57.051347
 20
38.157252
 11
-58.507078
 21
36.701522
  0
LINE
  8
曲げ物
  6
CONTINUOUS
 10
-57.883987
 20
38.989892
 11
-59.339718
 21
37.534162
  0
LINE
  8
曲げ物
  6
CONTINUOUS
 10
153.076993
 20
-83.118728
 11
153.076993
 21
-53.785395
  0
LINE
  8
曲げ物
  6
CONTINUOUS
 10
120.78366
 20
-83.118728
 11
120.78366
 21
-53.785395
  0
LINE
  8
曲げ物
  6
CONTINUOUS
 10
153.076993
 20
-53.785395
 11
120.78366
 21
-53.785395
  0
LINE
  8
曲げ物
  6
CONTINUOUS
 10
153.076993
 20
-83.118728
 11
120.78366
 21
-83.118728
  0
CIRCLE
  8
LAYER010
  6
CONTINUOUS
 62
    47
 10
118.500622
 20
55.813975
 40
0.011113
  0
CIRCLE
  8
LAYER010
  6
CONTINUOUS
 62
    47
 10
118.500622
 20
19.81399
 40
0.011113
  0
CIRCLE
  8
LAYER010
  6
CONTINUOUS
 62
    47
 10
-78.342887
 20
-70.359965
 40
0.011113
  0
CIRCLE
  8
LAYER010
  6
CONTINUOUS
 62
    47
 10
60.99043
 20
-70.359965
 40
0.011113
  0
ENDSEC
  0
EOF
