  0
SECTION
  2
HEADER
  9
$EXTMIN
 10
-210.0
 20
-148.5
  9
$EXTMAX
 10
210.0
 20
148.5
  9
$PDMODE
 70
    32
  9
$PDSIZE
 40
1.5
  9
$LTSCALE
 40
10.0
  0
ENDSEC
  0
SECTION
  2
TABLES
  0
TABLE
  2
LTYPE
 70
    15
  0
LTYPE
  2
CONTINUOUS
 70
    64
  3
実線
 72
    65
 73
     0
 40
0.0
  0
LTYPE
  2
DASHED
 70
    64
  3
破線A
 72
    65
 73
     2
 40
0.6
 49
0.4
 49
-0.2
  0
LTYPE
  2
DASHEDX2
 70
    64
  3
破線B
 72
    65
 73
     2
 40
1.3
 49
0.9
 49
-0.4
  0
LTYPE
  2
DASHDOT
 70
    64
  3
１点鎖線A
 72
    65
 73
     4
 40
0.5375
 49
0.375
 49
-0.05
 49
0.0625
 49
-0.05
  0
LTYPE
  2
DASHDOTX2
 70
    64
  3
１点鎖線B
 72
    65
 73
     4
 40
1.075
 49
0.75
 49
-0.1
 49
0.125
 49
-0.1
  0
LTYPE
  2
DIVIDE2
 70
    64
  3
２点鎖線A
 72
    65
 73
     6
 40
0.5125
 49
0.3
 49
-0.0375
 49
0.05
 49
-0.0375
 49
0.05
 49
-0.0375
  0
LTYPE
  2
DIVIDE
 70
    64
  3
２点鎖線B
 72
    65
 73
     6
 40
1.05
 49
0.55
 49
-0.1
 49
0.1
 49
-0.1
 49
0.1
 49
-0.1
  0
LTYPE
  2
DOT
 70
    64
  3
点線A
 72
    65
 73
     2
 40
0.1125
 49
0.0625
 49
-0.05
  0
LTYPE
  2
DOTX2
 70
    64
  3
点線B
 72
    65
 73
     2
 40
0.275
 49
0.15
 49
-0.125
  0
LTYPE
  2
CONTINUOUS
 70
    64
  3
実線
 72
    65
 73
     0
 40
0.0
  0
LTYPE
  2
CONTINUOUS
 70
    64
  3
実線
 72
    65
 73
     0
 40
0.0
  0
LTYPE
  2
CONTINUOUS
 70
    64
  3
実線
 72
    65
 73
     0
 40
0.0
  0
LTYPE
  2
CONTINUOUS
 70
    64
  3
実線
 72
    65
 73
     0
 40
0.0
  0
LTYPE
  2
CONTINUOUS
 70
    64
  3
実線
 72
    65
 73
     0
 40
0.0
  0
LTYPE
  2
CONTINUOUS
 70
    64
  3
実線
 72
    65
 73
     0
 40
0.0
  0
ENDTAB
  0
TABLE
  2
LAYER
 70
    35
  0
LAYER
  2
通り芯
 70
     0
 62
    15
  6
CONTINUOUS
  0
LAYER
  2
補助線
 70
     0
 62
    16
  6
DOT
  0
LAYER
  2
躯体
 70
     0
 62
    31
  6
CONTINUOUS
  0
LAYER
  2
型材
 70
     0
 62
    32
  6
CONTINUOUS
  0
LAYER
  2
型材断面
 70
     0
 62
    47
  6
CONTINUOUS
  0
LAYER
  2
ガラス
 70
     0
 62
    48
  6
CONTINUOUS
  0
LAYER
  2
ゴム等
 70
     0
 62
    63
  6
CONTINUOUS
  0
LAYER
  2
ボルト／ビス
 70
     0
 62
    64
  6
CONTINUOUS
  0
LAYER
  2
文字
 70
     0
 62
    79
  6
CONTINUOUS
  0
LAYER
  2
寸法
 70
     0
 62
    80
  6
CONTINUOUS
  0
LAYER
  2
ﾊｯﾁﾝｸﾞ
 70
     0
 62
    95
  6
CONTINUOUS
  0
LAYER
  2
別途部材
 70
     0
 62
    96
  6
CONTINUOUS
  0
LAYER
  2
曲げ物
 70
     0
 62
   111
  6
CONTINUOUS
  0
LAYER
  2
鉄骨等
 70
     0
 62
   112
  6
CONTINUOUS
  0
LAYER
  2
St
 70
     0
 62
   127
  6
CONTINUOUS
  0
LAYER
  2
その他部品等
 70
     0
 62
   128
  6
CONTINUOUS
  0
LAYER
  2
ｶﾞｽｹｯﾄ
 70
     0
 62
   143
  6
CONTINUOUS
  0
LAYER
  2
ｽｹｯﾁ
 70
     0
 62
    14
  6
CONTINUOUS
  0
LAYER
  2
0
 70
     0
 62
    17
  6
CONTINUOUS
  0
LAYER
  2
1
 70
     0
 62
    30
  6
CONTINUOUS
  0
LAYER
  2
4
 70
     0
 62
    33
  6
CONTINUOUS
  0
LAYER
  2
ﾚｲﾔ3
 70
     0
 62
    46
  6
CONTINUOUS
  0
LAYER
  2
外形線
 70
     0
 62
    49
  6
CONTINUOUS
  0
LAYER
  2
部品
 70
     0
 62
    14
  6
CONTINUOUS
  0
LAYER
  2
サッシ芯
 70
     0
 62
    17
  6
DASHDOTX2
  0
LAYER
  2
寸法線
 70
     0
 62
    62
  6
CONTINUOUS
  0
LAYER
  2
姿図外形線
 70
     0
 62
    65
  6
CONTINUOUS
  0
LAYER
  2
姿補助線
 70
     0
 62
    30
  6
CONTINUOUS
  0
LAYER
  2
透視線
 70
     0
 62
    78
  6
DOT
  0
LAYER
  2
用紙
 70
     0
 62
    81
  6
CONTINUOUS
  0
LAYER
  2
実線図枠
 70
     0
 62
    94
  6
CONTINUOUS
  0
LAYER
  2
補助図枠
 70
     0
 62
    97
  6
CONTINUOUS
  0
LAYER
  2
建具記号
 70
     0
 62
   110
  6
CONTINUOUS
  0
LAYER
  2
補助文字
 70
     0
 62
   113
  6
CONTINUOUS
  0
LAYER
  2
LAYER010
 70
     0
 62
    11
  6
CONTINUOUS
  0
ENDTAB
  0
TABLE
  2
STYLE
 70
    10
  0
STYLE
  2
STANDARD
 70
     0
 40
1.0
 41
1.0
 42
1.0
 50
0.0
 71
     0
  3
TXT
  4
BIGFONT
  0
STYLE
  2
TATE
 70
     4
 40
1.0
 41
1.0
 42
1.0
 50
0.0
 71
     0
  3
TXT
  4
BIGFONT
  0
STYLE
  2
TextStyle03
 70
     0
 40
1.0
 41
1.0
 42
1.0
 50
0.0
 71
     0
  3
MONOTXT
  4
BIGFONT
  0
STYLE
  2
TextStyle04
 70
     0
 40
1.0
 41
1.0
 42
1.0
 50
0.0
 71
     0
  3
MONOTXT
  4
BIGFONT
  0
STYLE
  2
TextStyle05
 70
     0
 40
1.0
 41
1.0
 42
1.0
 50
0.0
 71
     0
  3
MONOTXT
  4
BIGFONT
  0
STYLE
  2
TextStyle06
 70
     0
 40
1.0
 41
1.0
 42
1.0
 50
0.0
 71
     0
  3
MONOTXT
  4
BIGFONT
  0
STYLE
  2
TextStyle07
 70
     0
 40
1.0
 41
1.0
 42
1.0
 50
0.0
 71
     0
  3
MONOTXT
  4
BIGFONT
  0
STYLE
  2
TextStyle08
 70
     0
 40
1.0
 41
1.0
 42
1.0
 50
0.0
 71
     0
  3
MONOTXT
  4
BIGFONT
  0
STYLE
  2
TextStyle09
 70
     0
 40
1.0
 41
1.0
 42
1.0
 50
0.0
 71
     0
  3
MONOTXT
  4
BIGFONT
  0
STYLE
  2
TextStyle10
 70
     0
 40
1.0
 41
1.0
 42
1.0
 50
0.0
 71
     0
  3
MONOTXT
  4
BIGFONT
  0
ENDTAB
  0
ENDSEC
  0
SECTION
  2
BLOCKS
  0
BLOCK
  2
*GRP_0001
 70
    65
 10
0.0
 20
0.0
  0
LINE
  8
型材断面
  6
CONTINUOUS
 10
195.0
 20
133.5
 11
195.0
 21
-133.5
  0
LINE
  8
型材断面
  6
CONTINUOUS
 10
195.0
 20
-133.5
 11
-185.0
 21
-133.5
  0
LINE
  8
型材断面
  6
CONTINUOUS
 10
-185.0
 20
-133.5
 11
-185.0
 21
133.5
  0
LINE
  8
型材断面
  6
CONTINUOUS
 10
195.0
 20
133.5
 11
-185.0
 21
133.5
  0
LINE
  8
型材断面
  6
CONTINUOUS
 10
145.0
 20
-133.5
 11
145.0
 21
-118.5
  0
LINE
  8
型材断面
  6
CONTINUOUS
 10
195.0
 20
-118.5
 11
145.0
 21
-118.5
  0
ENDBLK
  0
BLOCK
  2
*DIM_0002
 70
    65
 10
0.0
 20
0.0
  0
LINE
  8
寸法
  6
BYBLOCK
 62
     0
 10
-78.596933
 20
-13.511205
 11
-78.596933
 21
-13.121378
  0
LINE
  8
寸法
  6
BYBLOCK
 62
     0
 10
21.403067
 20
-13.121378
 11
-78.596933
 21
-13.121378
  0
POINT
  8
寸法
 62
     0
 10
21.403067
 20
-13.121378
  0
POINT
  8
寸法
 62
     0
 10
-78.596933
 20
-13.121378
  0
TEXT
  7
TextStyle03
  8
寸法
  6
CONTINUOUS
 62
     0
 10
-40.31875
 20
-12.75
  1
呼称寸法　3000
 40
3.0
 72
     5
 11
-16.88125
 21
-12.75
  0
ENDBLK
  0
BLOCK
  2
*DIM_0003
 70
    65
 10
0.0
 20
0.0
  0
LINE
  8
寸法
  6
BYBLOCK
 62
     0
 10
-61.930265
 20
19.183902
 11
-61.930265
 21
14.10329
  0
LINE
  8
寸法
  6
BYBLOCK
 62
     0
 10
4.7364
 20
19.183902
 11
4.7364
 21
14.10329
  0
LINE
  8
寸法
  6
BYBLOCK
 62
     0
 10
-61.930265
 20
14.10329
 11
4.7364
 21
14.10329
  0
POINT
  8
寸法
 62
     0
 10
-61.930265
 20
14.10329
  0
POINT
  8
寸法
 62
     0
 10
4.7364
 20
14.10329
  0
TEXT
  7
TextStyle03
  8
寸法
  6
CONTINUOUS
 62
     0
 10
-31.88125
 20
14.475
  1
2000
 40
3.0
 72
     5
 11
-25.31875
 21
14.475
  0
ENDBLK
  0
BLOCK
  2
*DIM_0004
 70
    65
 10
0.0
 20
0.0
  0
LINE
  8
寸法
  6
BYBLOCK
 62
     0
 10
24.403112
 20
-69.576397
 11
24.403112
 21
-13.121378
  0
LINE
  8
寸法
  6
BYBLOCK
 62
     0
 10
21.403067
 20
-13.121378
 11
24.403112
 21
-13.121378
  0
POINT
  8
寸法
 62
     0
 10
21.403067
 20
-13.121378
  0
POINT
  8
寸法
 62
     0
 10
24.403112
 20
-13.121378
  0
TEXT
  7
TextStyle03
  8
寸法
  6
CONTINUOUS
 62
     0
 10
21.30625
 20
-12.75
  1
90
 40
3.0
 72
     5
 11
24.49375
 21
-12.75
  0
ENDBLK
  0
BLOCK
  2
*DIM_0005
 70
    65
 10
0.0
 20
0.0
  0
LINE
  8
寸法
  6
BYBLOCK
 62
     0
 10
-81.596977
 20
-69.576397
 11
-81.596977
 21
-13.121378
  0
LINE
  8
寸法
  6
BYBLOCK
 62
     0
 10
-78.596933
 20
-13.121378
 11
-81.596977
 21
-13.121378
  0
POINT
  8
寸法
 62
     0
 10
-78.596933
 20
-13.121378
  0
POINT
  8
寸法
 62
     0
 10
-81.596977
 20
-13.121378
  0
TEXT
  7
TextStyle03
  8
寸法
  6
CONTINUOUS
 62
     0
 10
-81.69375
 20
-12.75
  1
90
 40
3.0
 72
     5
 11
-78.50625
 21
-12.75
  0
ENDBLK
  0
BLOCK
  2
*DIM_0006
 70
    65
 10
0.0
 20
0.0
  0
LINE
  8
寸法
  6
BYBLOCK
 62
     0
 10
117.489623
 20
-53.785395
 11
125.547912
 21
-53.785395
  0
LINE
  8
寸法
  6
BYBLOCK
 62
     0
 10
117.489623
 20
-83.118728
 11
125.547912
 21
-83.118728
  0
LINE
  8
寸法
  6
BYBLOCK
 62
     0
 10
125.547912
 20
-53.785395
 11
125.547912
 21
-83.118728
  0
POINT
  8
寸法
 62
     0
 10
125.547912
 20
-53.785395
  0
POINT
  8
寸法
 62
     0
 10
125.547912
 20
-83.118728
  0
TEXT
  7
TextStyle03
  8
寸法
  6
CONTINUOUS
 62
     0
 10
125.225
 20
-70.9125
  1
880
 40
3.0
 50
90.0
 72
     5
 11
125.225
 21
-66.0375
  0
ENDBLK
  0
BLOCK
  2
*DIM_0007
 70
    65
 10
0.0
 20
0.0
  0
LINE
  8
寸法
  6
BYBLOCK
 62
     0
 10
-81.596933
 20
47.814033
 11
-94.88977
 21
47.814033
  0
LINE
  8
寸法
  6
BYBLOCK
 62
     0
 10
-81.596933
 20
27.814033
 11
-94.88977
 21
27.814033
  0
LINE
  8
寸法
  6
BYBLOCK
 62
     0
 10
-94.88977
 20
47.814033
 11
-94.88977
 21
27.814033
  0
POINT
  8
寸法
 62
     0
 10
-94.88977
 20
47.814033
  0
POINT
  8
寸法
 62
     0
 10
-94.88977
 20
27.814033
  0
TEXT
  7
TextStyle03
  8
寸法
  6
CONTINUOUS
 62
     0
 10
-95.25
 20
35.3625
  1
600
 40
3.0
 50
90.0
 72
     5
 11
-95.25
 21
40.2375
  0
ENDBLK
  0
BLOCK
  2
*DIM_0008
 70
    65
 10
0.0
 20
0.0
  0
LINE
  8
寸法
  6
BYBLOCK
 62
     0
 10
-68.596933
 20
55.814033
 11
-68.596933
 21
84.922105
  0
LINE
  8
寸法
  6
BYBLOCK
 62
     0
 10
-41.930265
 20
55.814033
 11
-41.930265
 21
84.922105
  0
LINE
  8
寸法
  6
BYBLOCK
 62
     0
 10
-68.596933
 20
84.922105
 11
-41.930265
 21
84.922105
  0
POINT
  8
寸法
 62
     0
 10
-68.596933
 20
84.922105
  0
POINT
  8
寸法
 62
     0
 10
-41.930265
 20
84.922105
  0
TEXT
  7
TextStyle03
  8
寸法
  6
CONTINUOUS
 62
     0
 10
-57.7125
 20
85.3
  1
800
 40
3.0
 72
     5
 11
-52.8375
 21
85.3
  0
ENDBLK
  0
BLOCK
  2
*DIM_0009
 70
    65
 10
0.0
 20
0.0
  0
LINE
  8
寸法
  6
BYBLOCK
 62
     0
 10
-15.2636
 20
55.814033
 11
-15.2636
 21
84.922105
  0
LINE
  8
寸法
  6
BYBLOCK
 62
     0
 10
-41.930265
 20
84.922105
 11
-15.2636
 21
84.922105
  0
POINT
  8
寸法
 62
     0
 10
-15.2636
 20
84.922105
  0
TEXT
  7
TextStyle03
  8
寸法
  6
CONTINUOUS
 62
     0
 10
-31.0375
 20
85.3
  1
800
 40
3.0
 72
     5
 11
-26.1625
 21
85.3
  0
ENDBLK
  0
BLOCK
  2
*DIM_0010
 70
    65
 10
0.0
 20
0.0
  0
LINE
  8
寸法
  6
BYBLOCK
 62
     0
 10
11.403067
 20
55.814033
 11
11.403067
 21
84.922105
  0
LINE
  8
寸法
  6
BYBLOCK
 62
     0
 10
-15.2636
 20
84.922105
 11
11.403067
 21
84.922105
  0
POINT
  8
寸法
 62
     0
 10
11.403067
 20
84.922105
  0
TEXT
  7
TextStyle03
  8
寸法
  6
CONTINUOUS
 62
     0
 10
-4.3625
 20
85.3
  1
800
 40
3.0
 72
     5
 11
0.5125
 21
85.3
  0
ENDBLK
  0
BLOCK
  2
*DIM_0011
 70
    65
 10
0.0
 20
0.0
  0
LINE
  8
寸法
  6
CONTINUOUS
 10
114.18688
 20
66.45319
 11
117.503548
 21
66.45319
  0
POINT
  8
寸法
 10
114.18688
 20
66.45319
  0
POINT
  8
寸法
 10
117.503548
 20
66.45319
  0
TEXT
  7
TextStyle03
  8
寸法
  6
CONTINUOUS
 10
112.44375
 20
66.65
  1
99.5
 40
3.0
 72
     5
 11
119.00625
 21
66.65
  0
ENDBLK
  0
BLOCK
  2
*DIM_0012
 70
    65
 10
0.0
 20
0.0
  0
LINE
  8
寸法
  6
CONTINUOUS
 10
35.042277
 20
-68.752333
 11
35.042277
 21
-72.069
  0
POINT
  8
寸法
 10
35.042277
 20
-68.752333
  0
POINT
  8
寸法
 10
35.042277
 20
-72.069
  0
TEXT
  7
TextStyle03
  8
寸法
  6
CONTINUOUS
 10
38.2
 20
-73.58125
  1
99.5
 40
3.0
 50
90.0
 72
     5
 11
38.2
 21
-67.01875
  0
ENDBLK
  0
BLOCK
  2
*DIM_0013
 70
    65
 10
0.0
 20
0.0
  0
LINE
  8
寸法
  6
CONTINUOUS
 10
116.489623
 20
-46.74026
 11
84.15629
 21
-46.74026
  0
POINT
  8
寸法
 10
116.489623
 20
-46.74026
  0
POINT
  8
寸法
 10
84.15629
 20
-46.74026
  0
TEXT
  7
TextStyle03
  8
寸法
  6
CONTINUOUS
 10
97.8625
 20
-46.375
  1
970
 40
3.0
 72
     5
 11
102.7375
 21
-46.375
  0
ENDBLK
  0
ENDSEC
  0
SECTION
  2
ENTITIES
  0
POLYLINE
  8
通り芯
  6
CONTINUOUS
 66
     1
 70
     1
  0
VERTEX
  8
通り芯
 10
-210.0
 20
-148.5
  0
VERTEX
  8
通り芯
 10
210.0
 20
-148.5
  0
VERTEX
  8
通り芯
 10
210.0
 20
148.5
  0
VERTEX
  8
通り芯
 10
-210.0
 20
148.5
  0
SEQEND
  0
INSERT
  2
*GRP_0001
  8
型材断面
  6
CONTINUOUS
 10
0.0
 20
0.0
  0
LINE
  8
型材断面
  6
DASHDOT
 10
-28.596933
 20
-77.836442
 11
-28.596933
 21
52.814033
  0
LINE
  8
型材断面
  6
DASHDOT
 10
-78.596933
 20
-77.836442
 11
-78.596933
 21
52.814033
  0
LINE
  8
型材断面
  6
DASHDOT
 10
-11.8636
 20
22.814033
 11
-11.8636
 21
52.814033
  0
LINE
  8
型材断面
  6
DASHDOT
 10
-45.330265
 20
22.814033
 11
-45.330265
 21
52.814033
  0
LINE
  8
型材断面
  6
CONTINUOUS
 10
-61.930265
 20
55.444162
 11
-63.425895
 21
58.03467
  0
LINE
  8
型材断面
  6
CONTINUOUS
 10
-61.930265
 20
55.444162
 11
-60.434635
 21
58.03467
  0
LINE
  8
型材断面
  6
CONTINUOUS
 10
-60.434635
 20
58.03467
 11
-63.425895
 21
58.03467
  0
LINE
  8
型材断面
  6
CONTINUOUS
 10
-81.227063
 20
37.814033
 11
-83.81757
 21
39.309663
  0
LINE
  8
型材断面
  6
CONTINUOUS
 10
-81.227063
 20
37.814033
 11
-83.81757
 21
36.318403
  0
LINE
  8
型材断面
  6
CONTINUOUS
 10
-83.81757
 20
36.318403
 11
-83.81757
 21
39.309663
  0
LINE
  8
型材断面
  6
CONTINUOUS
 10
-61.930265
 20
20.183902
 11
-63.425895
 21
17.593395
  0
LINE
  8
型材断面
  6
CONTINUOUS
 10
-61.930265
 20
20.183902
 11
-60.434635
 21
17.593395
  0
LINE
  8
型材断面
  6
CONTINUOUS
 10
-60.434635
 20
17.593395
 11
-63.425895
 21
17.593395
  0
LINE
  8
型材断面
  6
CONTINUOUS
 10
-132.475455
 20
97.32138
 11
-133.971085
 21
94.730873
  0
LINE
  8
型材断面
  6
CONTINUOUS
 10
-132.475455
 20
97.32138
 11
-130.979825
 21
94.730873
  0
LINE
  8
型材断面
  6
CONTINUOUS
 10
-130.979825
 20
94.730873
 11
-133.971085
 21
94.730873
  0
LINE
  8
型材断面
  6
CONTINUOUS
 10
-138.498042
 20
93.792277
 11
-92.256265
 21
93.792277
  0
LINE
  8
型材断面
  6
CONTINUOUS
 10
4.7364
 20
55.444162
 11
6.23203
 21
58.03467
  0
LINE
  8
型材断面
  6
CONTINUOUS
 10
4.7364
 20
55.444162
 11
3.24077
 21
58.03467
  0
LINE
  8
型材断面
  6
CONTINUOUS
 10
3.24077
 20
58.03467
 11
6.23203
 21
58.03467
  0
LINE
  8
型材断面
  6
CONTINUOUS
 10
4.7364
 20
20.183902
 11
6.23203
 21
17.593395
  0
LINE
  8
型材断面
  6
CONTINUOUS
 10
4.7364
 20
20.183902
 11
3.24077
 21
17.593395
  0
LINE
  8
型材断面
  6
CONTINUOUS
 10
3.24077
 20
17.593395
 11
6.23203
 21
17.593395
  0
LINE
  8
型材断面
  6
CONTINUOUS
 10
-138.498042
 20
86.82362
 11
-92.256265
 21
86.82362
  0
LINE
  8
型材断面
  6
CONTINUOUS
 10
-81.59698
 20
19.81399
 11
-28.596933
 21
19.81399
  0
LINE
  8
型材断面
  6
CONTINUOUS
 10
-81.59698
 20
55.814075
 11
-28.596933
 21
55.814075
  0
LINE
  8
型材断面
  6
CONTINUOUS
 10
24.403115
 20
55.814075
 11
-28.596933
 21
55.814075
  0
LINE
  8
型材断面
  6
CONTINUOUS
 10
24.403115
 20
19.81399
 11
-28.596933
 21
19.81399
  0
CIRCLE
  8
型材断面
  6
CONTINUOUS
 62
    47
 10
117.00355
 20
55.813975
 40
0.011113
  0
LINE
  8
型材断面
  6
CONTINUOUS
 62
    47
 10
117.503548
 20
55.313983
 11
117.503548
 21
55.813975
  0
LINE
  8
型材断面
  6
CONTINUOUS
 62
    47
 10
117.503548
 20
55.813975
 11
117.00355
 21
55.813975
  0
LINE
  8
型材断面
  6
CONTINUOUS
 62
    47
 10
117.00355
 20
55.813975
 11
116.50637
 21
52.880643
  0
LINE
  8
型材断面
  6
CONTINUOUS
 62
    47
 10
117.503548
 20
55.313983
 11
118.003548
 21
55.313983
  0
LINE
  8
型材断面
  6
CONTINUOUS
 62
    47
 10
116.50637
 20
52.880643
 11
115.853548
 21
52.880643
  0
CIRCLE
  8
型材断面
  6
CONTINUOUS
 62
    47
 10
117.00355
 20
19.81399
 40
0.011113
  0
LINE
  8
型材断面
  6
CONTINUOUS
 62
    47
 10
117.503548
 20
20.313983
 11
117.503548
 21
19.81399
  0
LINE
  8
型材断面
  6
CONTINUOUS
 62
    47
 10
117.503548
 20
19.81399
 11
117.00355
 21
19.81399
  0
LINE
  8
型材断面
  6
CONTINUOUS
 62
    47
 10
117.00355
 20
19.81399
 11
116.50637
 21
22.747322
  0
LINE
  8
型材断面
  6
CONTINUOUS
 62
    47
 10
117.503548
 20
20.313983
 11
118.003548
 21
20.313983
  0
LINE
  8
型材断面
  6
CONTINUOUS
 62
    47
 10
116.50637
 20
22.747322
 11
115.853548
 21
22.747322
  0
LINE
  8
型材断面
  6
CONTINUOUS
 62
    47
 10
114.353548
 20
54.460445
 11
114.353548
 21
37.813983
  0
LINE
  8
型材断面
  6
CONTINUOUS
 62
    47
 10
114.18688
 20
54.303923
 11
114.18688
 21
37.813983
  0
LINE
  8
型材断面
  6
CONTINUOUS
 62
    47
 10
115.853548
 20
54.303923
 11
115.853548
 21
37.813983
  0
LINE
  8
型材断面
  6
CONTINUOUS
 10
116.50637
 20
52.880695
 11
116.50637
 21
37.813983
  0
LINE
  8
型材断面
  6
CONTINUOUS
 10
117.003552
 20
55.814027
 11
117.003552
 21
37.813983
  0
LINE
  8
型材断面
  6
CONTINUOUS
 62
    47
 10
117.503548
 20
55.814027
 11
117.503548
 21
37.813983
  0
LINE
  8
型材断面
  6
CONTINUOUS
 10
118.003548
 20
55.314038
 11
118.003548
 21
37.813983
  0
LINE
  8
型材断面
  6
CONTINUOUS
 10
118.003548
 20
20.313927
 11
118.003548
 21
37.813983
  0
LINE
  8
型材断面
  6
CONTINUOUS
 10
117.003552
 20
19.813938
 11
117.003552
 21
37.813983
  0
LINE
  8
型材断面
  6
CONTINUOUS
 62
    47
 10
117.503548
 20
19.813938
 11
117.503548
 21
37.813983
  0
LINE
  8
型材断面
  6
CONTINUOUS
 10
116.50637
 20
22.74727
 11
116.50637
 21
37.813983
  0
LINE
  8
型材断面
  6
CONTINUOUS
 62
    47
 10
115.853548
 20
21.324042
 11
115.853548
 21
37.813983
  0
LINE
  8
型材断面
  6
CONTINUOUS
 62
    47
 10
114.353548
 20
21.16752
 11
114.353548
 21
37.813983
  0
LINE
  8
型材断面
  6
CONTINUOUS
 62
    47
 10
114.18688
 20
21.324042
 11
114.18688
 21
37.813983
  0
CIRCLE
  8
型材断面
  6
CONTINUOUS
 62
    47
 10
-81.596922
 20
-71.569002
 40
0.011113
  0
LINE
  8
型材断面
  6
CONTINUOUS
 62
    47
 10
-81.096933
 20
-72.069
 11
-81.596922
 21
-72.069
  0
LINE
  8
型材断面
  6
CONTINUOUS
 62
    47
 10
-81.596922
 20
-72.069
 11
-81.596922
 21
-71.569002
  0
LINE
  8
型材断面
  6
CONTINUOUS
 62
    47
 10
-81.596922
 20
-71.569002
 11
-78.663592
 21
-71.071822
  0
LINE
  8
型材断面
  6
CONTINUOUS
 62
    47
 10
-81.096933
 20
-72.069
 11
-81.096933
 21
-72.569
  0
LINE
  8
型材断面
  6
CONTINUOUS
 62
    47
 10
-78.663592
 20
-71.071822
 11
-78.663592
 21
-70.418998
  0
CIRCLE
  8
型材断面
  6
CONTINUOUS
 62
    47
 10
24.40306
 20
-71.569002
 40
0.011113
  0
LINE
  8
型材断面
  6
CONTINUOUS
 62
    47
 10
23.903067
 20
-72.069
 11
24.40306
 21
-72.069
  0
LINE
  8
型材断面
  6
CONTINUOUS
 62
    47
 10
24.40306
 20
-72.069
 11
24.40306
 21
-71.569002
  0
LINE
  8
型材断面
  6
CONTINUOUS
 62
    47
 10
24.40306
 20
-71.569002
 11
21.469728
 21
-71.071822
  0
LINE
  8
型材断面
  6
CONTINUOUS
 62
    47
 10
23.903067
 20
-72.069
 11
23.903067
 21
-72.569
  0
LINE
  8
型材断面
  6
CONTINUOUS
 62
    47
 10
21.469728
 20
-71.071822
 11
21.469728
 21
-70.418998
  0
LINE
  8
型材断面
  6
CONTINUOUS
 62
    47
 10
-80.086873
 20
-70.418998
 11
-28.596933
 21
-70.418998
  0
LINE
  8
型材断面
  6
CONTINUOUS
 62
    47
 10
-80.243393
 20
-68.918998
 11
-28.596933
 21
-68.918998
  0
LINE
  8
型材断面
  6
CONTINUOUS
 62
    47
 10
-80.086873
 20
-68.752333
 11
-28.596933
 21
-68.752333
  0
LINE
  8
型材断面
  6
CONTINUOUS
 10
-78.663645
 20
-71.071822
 11
-28.596933
 21
-71.071822
  0
LINE
  8
型材断面
  6
CONTINUOUS
 10
-81.596977
 20
-71.569002
 11
-28.596933
 21
-71.569002
  0
LINE
  8
型材断面
  6
CONTINUOUS
 10
-81.096987
 20
-72.569
 11
-28.596933
 21
-72.569
  0
LINE
  8
型材断面
  6
CONTINUOUS
 62
    47
 10
-81.596977
 20
-72.069
 11
-28.596933
 21
-72.069
  0
LINE
  8
型材断面
  6
CONTINUOUS
 10
24.403112
 20
-71.569002
 11
-28.596933
 21
-71.569002
  0
LINE
  8
型材断面
  6
CONTINUOUS
 10
23.903123
 20
-72.569
 11
-28.596933
 21
-72.569
  0
LINE
  8
型材断面
  6
CONTINUOUS
 62
    47
 10
24.403112
 20
-72.069
 11
-28.596933
 21
-72.069
  0
LINE
  8
型材断面
  6
CONTINUOUS
 10
21.469782
 20
-71.071822
 11
-28.596933
 21
-71.071822
  0
LINE
  8
型材断面
  6
CONTINUOUS
 62
    47
 10
22.893008
 20
-70.418998
 11
-28.596933
 21
-70.418998
  0
LINE
  8
型材断面
  6
CONTINUOUS
 62
    47
 10
23.04953
 20
-68.918998
 11
-28.596933
 21
-68.918998
  0
LINE
  8
型材断面
  6
CONTINUOUS
 62
    47
 10
22.893008
 20
-68.752333
 11
-28.596933
 21
-68.752333
  0
LINE
  8
型材断面
  6
DASHDOT
 10
21.403067
 20
-77.836442
 11
21.403067
 21
52.814033
  0
LINE
  8
型材断面
  6
DASHDOT
 10
124.979558
 20
22.813983
 11
-78.596933
 21
22.813983
  0
LINE
  8
型材断面
  6
DASHDOT
 10
124.979558
 20
52.813983
 11
-78.596933
 21
52.813983
  0
LINE
  8
型材断面
  6
DASHDOT
 10
-78.596933
 20
37.814033
 11
124.979558
 21
37.814033
  0
LINE
  8
型材断面
  6
CONTINUOUS
 10
-28.180265
 20
51.960545
 11
4.353067
 21
51.960545
  0
LINE
  8
型材断面
  6
CONTINUOUS
 10
-28.180265
 20
23.66752
 11
4.353067
 21
23.66752
  0
LINE
  8
型材断面
  6
CONTINUOUS
 10
-61.546933
 20
23.66752
 11
-29.0136
 21
23.66752
  0
LINE
  8
型材断面
  6
CONTINUOUS
 10
-61.546933
 20
51.960545
 11
-29.0136
 21
51.960545
  0
LINE
  8
型材断面
  6
CONTINUOUS
 10
24.033197
 20
37.814033
 11
26.623705
 21
39.309663
  0
LINE
  8
型材断面
  6
CONTINUOUS
 10
24.033197
 20
37.814033
 11
26.623705
 21
36.318403
  0
LINE
  8
型材断面
  6
CONTINUOUS
 10
26.623705
 20
36.318403
 11
26.623705
 21
39.309663
  0
LINE
  8
型材断面
  6
CONTINUOUS
 10
24.403115
 20
55.814075
 11
24.403115
 21
37.81403
  0
LINE
  8
型材断面
  6
CONTINUOUS
 10
24.403115
 20
19.81399
 11
24.403115
 21
37.814035
  0
LINE
  8
型材断面
  6
CONTINUOUS
 10
22.81383
 20
21.16752
 11
23.04953
 21
21.40322
  0
LINE
  8
型材断面
  6
CONTINUOUS
 10
24.403115
 20
19.81399
 11
22.931708
 21
21.285397
  0
LINE
  8
型材断面
  6
CONTINUOUS
 10
20.31383
 20
23.66752
 11
20.54953
 21
23.90322
  0
LINE
  8
型材断面
  6
CONTINUOUS
 10
20.54953
 20
23.90322
 11
23.049527
 21
21.403223
  0
LINE
  8
型材断面
  6
CONTINUOUS
 10
20.31383
 20
23.66752
 11
22.813727
 21
21.167622
  0
LINE
  8
型材断面
  6
CONTINUOUS
 10
20.549527
 20
37.397365
 11
20.549527
 21
23.903218
  0
LINE
  8
型材断面
  6
CONTINUOUS
 10
22.81383
 20
54.460545
 11
23.04953
 21
54.224845
  0
LINE
  8
型材断面
  6
CONTINUOUS
 10
24.403115
 20
55.814075
 11
22.931708
 21
54.342668
  0
LINE
  8
型材断面
  6
CONTINUOUS
 10
20.31383
 20
51.960545
 11
20.54953
 21
51.724845
  0
LINE
  8
型材断面
  6
CONTINUOUS
 10
20.54953
 20
51.724845
 11
23.049527
 21
54.224842
  0
LINE
  8
型材断面
  6
CONTINUOUS
 10
20.31383
 20
51.960545
 11
22.813727
 21
54.460442
  0
LINE
  8
型材断面
  6
CONTINUOUS
 10
20.549527
 20
38.2307
 11
20.549527
 21
51.724848
  0
LINE
  8
型材断面
  6
CONTINUOUS
 10
23.049527
 20
21.403223
 11
23.049527
 21
54.224842
  0
LINE
  8
型材断面
  6
CONTINUOUS
 10
5.186403
 20
51.960545
 11
20.31383
 21
51.960545
  0
LINE
  8
型材断面
  6
CONTINUOUS
 10
5.186403
 20
23.66752
 11
20.31383
 21
23.66752
  0
LINE
  8
型材断面
  6
CONTINUOUS
 10
-81.59698
 20
55.814075
 11
-81.59698
 21
37.81403
  0
LINE
  8
型材断面
  6
CONTINUOUS
 10
-81.59698
 20
19.81399
 11
-81.59698
 21
37.814035
  0
LINE
  8
型材断面
  6
CONTINUOUS
 10
-80.007695
 20
21.16752
 11
-80.243395
 21
21.40322
  0
LINE
  8
型材断面
  6
CONTINUOUS
 10
-81.59698
 20
19.81399
 11
-80.125573
 21
21.285397
  0
LINE
  8
型材断面
  6
CONTINUOUS
 10
-77.507695
 20
23.66752
 11
-77.743395
 21
23.90322
  0
LINE
  8
型材断面
  6
CONTINUOUS
 10
-77.743395
 20
23.90322
 11
-80.243393
 21
21.403223
  0
LINE
  8
型材断面
  6
CONTINUOUS
 10
-77.507695
 20
23.66752
 11
-80.007593
 21
21.167622
  0
LINE
  8
型材断面
  6
CONTINUOUS
 10
-77.743393
 20
37.397365
 11
-77.743393
 21
23.903218
  0
LINE
  8
型材断面
  6
CONTINUOUS
 10
-80.007695
 20
54.460545
 11
-80.243395
 21
54.224845
  0
LINE
  8
型材断面
  6
CONTINUOUS
 10
-81.59698
 20
55.814075
 11
-80.125573
 21
54.342668
  0
LINE
  8
型材断面
  6
CONTINUOUS
 10
-77.507695
 20
51.960545
 11
-77.743395
 21
51.724845
  0
LINE
  8
型材断面
  6
CONTINUOUS
 10
-77.743395
 20
51.724845
 11
-80.243393
 21
54.224842
  0
LINE
  8
型材断面
  6
CONTINUOUS
 10
-77.507695
 20
51.960545
 11
-80.007593
 21
54.460442
  0
LINE
  8
型材断面
  6
CONTINUOUS
 10
-77.743393
 20
38.2307
 11
-77.743393
 21
51.724848
  0
LINE
  8
型材断面
  6
CONTINUOUS
 10
-80.243393
 20
21.403223
 11
-80.243393
 21
54.224842
  0
LINE
  8
型材断面
  6
CONTINUOUS
 10
-62.380267
 20
23.66752
 11
-77.507695
 21
23.66752
  0
LINE
  8
型材断面
  6
CONTINUOUS
 10
22.81383
 20
21.16752
 11
-80.007695
 21
21.16752
  0
LINE
  8
型材断面
  6
CONTINUOUS
 10
-62.380267
 20
51.960545
 11
-77.507695
 21
51.960545
  0
LINE
  8
型材断面
  6
CONTINUOUS
 10
22.81383
 20
54.460545
 11
-80.007695
 21
54.460545
  0
LINE
  8
型材断面
  6
CONTINUOUS
 10
-44.080265
 20
24.500852
 11
-44.080265
 21
51.127212
  0
LINE
  8
型材断面
  6
CONTINUOUS
 10
-46.580265
 20
24.500852
 11
-46.580265
 21
51.127212
  0
LINE
  8
型材断面
  6
CONTINUOUS
 10
-10.6136
 20
24.500852
 11
-10.6136
 21
51.127212
  0
LINE
  8
型材断面
  6
CONTINUOUS
 10
-13.1136
 20
24.500852
 11
-13.1136
 21
51.127212
  0
TEXT
  7
TextStyle03
  8
文字
  6
CONTINUOUS
 10
-129.675
 20
94.925
  1
は排水穴位置を示す
 40
3.0
 72
     5
 11
-99.675
 21
94.925
  0
TEXT
  7
TextStyle03
  8
文字
  6
CONTINUOUS
 10
60.45
 20
104.525
  1
ＮＳコード：ＮＳＦＫＺ
 40
5.0
 72
     5
 11
121.7
 21
104.525
  0
TEXT
  7
TextStyle03
  8
文字
  6
CONTINUOUS
 10
97.975
 20
-76.7
  1
網入り6.8t
 40
3.0
 72
     5
 11
114.6625
 21
-76.7
  0
TEXT
  7
TextStyle03
  8
文字
  6
CONTINUOUS
 10
104.65
 20
-81.375
  1
×３枚
 40
3.0
 72
     5
 11
114.4
 21
-81.375
  0
TEXT
  7
TextStyle03
  8
文字
  6
CONTINUOUS
 10
-99.575
 20
16.275
  1
アンカーピッチ
 40
3.0
 50
90.0
 72
     5
 11
-99.575
 21
39.525
  0
TEXT
  7
TextStyle03
  8
文字
  6
CONTINUOUS
 10
-68.625
 20
90.225
  1
アンカーピッチ
 40
3.0
 72
     5
 11
-45.375
 21
90.225
  0
TEXT
  7
TextStyle03
  8
文字
  6
CONTINUOUS
 10
-133.4
 20
87.725
  1
アンカー数量　１２ヶ所
 40
3.0
 72
     5
 11
-96.65
 21
87.725
  0
LINE
  8
文字
  6
CONTINUOUS
 10
114.18688
 20
66.45319
 11
114.18688
 21
57.100035
  0
LINE
  8
文字
  6
CONTINUOUS
 10
117.503548
 20
66.45319
 11
117.503548
 21
57.165387
  0
LINE
  8
文字
  6
CONTINUOUS
 10
35.042277
 20
-68.752333
 11
25.68912
 21
-68.752333
  0
LINE
  8
文字
  6
CONTINUOUS
 10
35.042277
 20
-72.069
 11
25.754472
 21
-72.069
  0
LINE
  8
文字
  6
CONTINUOUS
 10
116.489623
 20
-46.74026
 11
116.489623
 21
-52.306862
  0
LINE
  8
文字
  6
CONTINUOUS
 10
84.15629
 20
-46.74026
 11
84.15629
 21
-52.306862
  0
TEXT
  7
TextStyle03
  8
文字
  6
CONTINUOUS
 10
60.3
 20
125.25
  1
シリーズ：ＴＦ２ＦＫＬ
 40
5.0
 72
     5
 11
121.55
 21
125.25
  0
TEXT
  7
TextStyle03
  8
文字
  6
CONTINUOUS
 10
60.3
 20
119.625
  1
　　　　　（固定）900×3000タイプ
 40
5.0
 72
     5
 11
152.4875
 21
119.625
  0
TEXT
  7
TextStyle03
  8
文字
  6
CONTINUOUS
 10
60.3
 20
114.0
  1
図面名　：外観姿図
 40
5.0
 72
     5
 11
110.3
 21
114.0
  0
TEXT
  7
TextStyle03
  8
文字
  6
CONTINUOUS
 10
60.3
 20
108.375
  1
　　　　　　
 40
5.0
 72
     5
 11
93.425
 21
108.375
  0
LINE
  8
文字
  6
CONTINUOUS
 10
5.186403
 20
23.66752
 11
5.186403
 21
21.16752
  0
LINE
  8
文字
  6
CONTINUOUS
 10
4.353067
 20
23.66752
 11
4.353067
 21
21.16752
  0
LINE
  8
文字
  6
CONTINUOUS
 10
-28.180265
 20
23.66752
 11
-28.180265
 21
21.16752
  0
LINE
  8
文字
  6
CONTINUOUS
 10
-29.0136
 20
23.66752
 11
-29.0136
 21
21.16752
  0
LINE
  8
文字
  6
CONTINUOUS
 10
-62.380267
 20
23.66752
 11
-62.380267
 21
21.16752
  0
LINE
  8
文字
  6
CONTINUOUS
 10
-61.546933
 20
23.66752
 11
-61.546933
 21
21.16752
  0
LINE
  8
文字
  6
CONTINUOUS
 10
5.186403
 20
51.960545
 11
5.186403
 21
54.460545
  0
LINE
  8
文字
  6
CONTINUOUS
 10
4.353067
 20
51.960545
 11
4.353067
 21
54.460545
  0
LINE
  8
文字
  6
CONTINUOUS
 10
-28.180265
 20
51.960545
 11
-28.180265
 21
54.460545
  0
LINE
  8
文字
  6
CONTINUOUS
 10
-29.0136
 20
51.960545
 11
-29.0136
 21
54.460545
  0
LINE
  8
文字
  6
CONTINUOUS
 10
-62.380267
 20
51.960545
 11
-62.380267
 21
54.460545
  0
LINE
  8
文字
  6
CONTINUOUS
 10
-61.546933
 20
51.960545
 11
-61.546933
 21
54.460545
  0
LINE
  8
文字
  6
CONTINUOUS
 10
23.049527
 20
37.397365
 11
20.549527
 21
37.397365
  0
LINE
  8
文字
  6
CONTINUOUS
 10
23.049527
 20
38.2307
 11
20.549527
 21
38.2307
  0
LINE
  8
文字
  6
CONTINUOUS
 10
-80.243393
 20
37.397365
 11
-77.743393
 21
37.397365
  0
LINE
  8
文字
  6
CONTINUOUS
 10
-80.243393
 20
38.2307
 11
-77.743393
 21
38.2307
  0
LINE
  8
文字
  6
CONTINUOUS
 10
-44.080265
 20
24.500852
 11
-46.580265
 21
24.500852
  0
LINE
  8
文字
  6
CONTINUOUS
 10
-44.080265
 20
51.127212
 11
-46.580265
 21
51.127212
  0
LINE
  8
文字
  6
CONTINUOUS
 10
-10.6136
 20
24.500852
 11
-13.1136
 21
24.500852
  0
LINE
  8
文字
  6
CONTINUOUS
 10
-10.6136
 20
51.127212
 11
-13.1136
 21
51.127212
  0
INSERT
  2
*DIM_0002
  8
寸法
  6
CONTINUOUS
 10
0.0
 20
0.0
  0
INSERT
  2
*DIM_0003
  8
寸法
  6
CONTINUOUS
 10
0.0
 20
0.0
  0
INSERT
  2
*DIM_0004
  8
寸法
  6
CONTINUOUS
 10
0.0
 20
0.0
  0
INSERT
  2
*DIM_0005
  8
寸法
  6
CONTINUOUS
 10
0.0
 20
0.0
  0
INSERT
  2
*DIM_0006
  8
寸法
  6
CONTINUOUS
 10
0.0
 20
0.0
  0
INSERT
  2
*DIM_0007
  8
寸法
  6
CONTINUOUS
 10
0.0
 20
0.0
  0
INSERT
  2
*DIM_0008
  8
寸法
  6
CONTINUOUS
 10
0.0
 20
0.0
  0
INSERT
  2
*DIM_0009
  8
寸法
  6
CONTINUOUS
 10
0.0
 20
0.0
  0
INSERT
  2
*DIM_0010
  8
寸法
  6
CONTINUOUS
 10
0.0
 20
0.0
  0
INSERT
  2
*DIM_0011
  8
寸法
  6
CONTINUOUS
 10
0.0
 20
0.0
  0
INSERT
  2
*DIM_0012
  8
寸法
  6
CONTINUOUS
 10
0.0
 20
0.0
  0
INSERT
  2
*DIM_0013
  8
寸法
  6
CONTINUOUS
 10
0.0
 20
0.0
  0
LINE
  8
別途部材
  6
CONTINUOUS
 62
    47
 10
114.28688
 20
54.460445
 11
114.353548
 21
54.460445
  0
ARC
  8
別途部材
  6
CONTINUOUS
 62
    47
 10
114.286879
 20
54.360444
 40
0.1
 50
90.0
 51
180.0
  0
LINE
  8
別途部材
  6
CONTINUOUS
 62
    47
 10
114.18688
 20
54.360445
 11
114.18688
 21
54.303923
  0
LINE
  8
別途部材
  6
CONTINUOUS
 62
    47
 10
115.853548
 20
54.303923
 11
114.353548
 21
54.303923
  0
LINE
  8
別途部材
  6
CONTINUOUS
 62
    47
 10
114.28688
 20
21.16752
 11
114.353548
 21
21.16752
  0
ARC
  8
別途部材
  6
CONTINUOUS
 62
    47
 10
114.286879
 20
21.26752
 40
0.1
 50
180.0
 51
270.0
  0
LINE
  8
別途部材
  6
CONTINUOUS
 62
    47
 10
114.18688
 20
21.26752
 11
114.18688
 21
21.324042
  0
LINE
  8
別途部材
  6
CONTINUOUS
 62
    47
 10
115.853548
 20
21.324042
 11
114.353548
 21
21.324042
  0
LINE
  8
別途部材
  6
CONTINUOUS
 62
    47
 10
-80.243393
 20
-68.852333
 11
-80.243393
 21
-68.918998
  0
ARC
  8
別途部材
  6
CONTINUOUS
 62
    47
 10
-80.143394
 20
-68.852327
 40
0.1
 50
90.0
 51
180.0
  0
LINE
  8
別途部材
  6
CONTINUOUS
 62
    47
 10
-80.143393
 20
-68.752333
 11
-80.086873
 21
-68.752333
  0
LINE
  8
別途部材
  6
CONTINUOUS
 62
    47
 10
-80.086873
 20
-70.418998
 11
-80.086873
 21
-68.918998
  0
LINE
  8
別途部材
  6
CONTINUOUS
 62
    47
 10
23.04953
 20
-68.852333
 11
23.04953
 21
-68.918998
  0
ARC
  8
別途部材
  6
CONTINUOUS
 62
    47
 10
22.94953
 20
-68.852327
 40
0.1
 50
0.0
 51
90.0
  0
LINE
  8
別途部材
  6
CONTINUOUS
 62
    47
 10
22.94953
 20
-68.752333
 11
22.893008
 21
-68.752333
  0
LINE
  8
別途部材
  6
CONTINUOUS
 62
    47
 10
22.893008
 20
-70.418998
 11
22.893008
 21
-68.918998
  0
LINE
  8
曲げ物
  6
CONTINUOUS
 10
7.174907
 20
39.693362
 11
3.479595
 21
35.99805
  0
LINE
  8
曲げ物
  6
CONTINUOUS
 10
6.471437
 20
38.157252
 11
5.015707
 21
36.701522
  0
LINE
  8
曲げ物
  6
CONTINUOUS
 10
5.638797
 20
38.989892
 11
4.183067
 21
37.534162
  0
LINE
  8
曲げ物
  6
CONTINUOUS
 10
-26.958828
 20
39.693362
 11
-30.65414
 21
35.99805
  0
LINE
  8
曲げ物
  6
CONTINUOUS
 10
-27.662298
 20
38.157252
 11
-29.118027
 21
36.701522
  0
LINE
  8
曲げ物
  6
CONTINUOUS
 10
-28.494938
 20
38.989892
 11
-29.950667
 21
37.534162
  0
LINE
  8
曲げ物
  6
CONTINUOUS
 10
-59.340672
 20
39.693362
 11
-63.035985
 21
35.99805
  0
LINE
  8
曲げ物
  6
CONTINUOUS
 10
-60.044143
 20
38.157252
 11
-61.499873
 21
36.701522
  0
LINE
  8
曲げ物
  6
CONTINUOUS
 10
-60.876782
 20
38.989892
 11
-62.332513
 21
37.534162
  0
LINE
  8
曲げ物
  6
CONTINUOUS
 10
116.489623
 20
-83.118728
 11
116.489623
 21
-53.785395
  0
LINE
  8
曲げ物
  6
CONTINUOUS
 10
84.15629
 20
-83.118728
 11
84.15629
 21
-53.785395
  0
LINE
  8
曲げ物
  6
CONTINUOUS
 10
116.489623
 20
-53.785395
 11
84.15629
 21
-53.785395
  0
LINE
  8
曲げ物
  6
CONTINUOUS
 10
116.489623
 20
-83.118728
 11
84.15629
 21
-83.118728
  0
CIRCLE
  8
LAYER010
  6
CONTINUOUS
 62
    47
 10
117.00355
 20
55.813975
 40
0.011113
  0
CIRCLE
  8
LAYER010
  6
CONTINUOUS
 62
    47
 10
117.00355
 20
19.81399
 40
0.011113
  0
CIRCLE
  8
LAYER010
  6
CONTINUOUS
 62
    47
 10
-81.596922
 20
-71.569002
 40
0.011113
  0
CIRCLE
  8
LAYER010
  6
CONTINUOUS
 62
    47
 10
24.40306
 20
-71.569002
 40
0.011113
  0
ENDSEC
  0
EOF
