  0
SECTION
  2
HEADER
  9
$EXTMIN
 10
-210.0
 20
-148.5
  9
$EXTMAX
 10
210.0
 20
148.5
  9
$PDMODE
 70
    32
  9
$PDSIZE
 40
1.5
  9
$LTSCALE
 40
10.0
  0
ENDSEC
  0
SECTION
  2
TABLES
  0
TABLE
  2
LTYPE
 70
    15
  0
LTYPE
  2
CONTINUOUS
 70
    64
  3
実線
 72
    65
 73
     0
 40
0.0
  0
LTYPE
  2
DASHED
 70
    64
  3
破線A
 72
    65
 73
     2
 40
0.6
 49
0.4
 49
-0.2
  0
LTYPE
  2
DASHEDX2
 70
    64
  3
破線B
 72
    65
 73
     2
 40
1.3
 49
0.9
 49
-0.4
  0
LTYPE
  2
DASHDOT
 70
    64
  3
１点鎖線A
 72
    65
 73
     4
 40
0.5375
 49
0.375
 49
-0.05
 49
0.0625
 49
-0.05
  0
LTYPE
  2
DASHDOTX2
 70
    64
  3
１点鎖線B
 72
    65
 73
     4
 40
1.075
 49
0.75
 49
-0.1
 49
0.125
 49
-0.1
  0
LTYPE
  2
DIVIDE2
 70
    64
  3
２点鎖線A
 72
    65
 73
     6
 40
0.5125
 49
0.3
 49
-0.0375
 49
0.05
 49
-0.0375
 49
0.05
 49
-0.0375
  0
LTYPE
  2
DIVIDE
 70
    64
  3
２点鎖線B
 72
    65
 73
     6
 40
1.05
 49
0.55
 49
-0.1
 49
0.1
 49
-0.1
 49
0.1
 49
-0.1
  0
LTYPE
  2
DOT
 70
    64
  3
点線A
 72
    65
 73
     2
 40
0.1125
 49
0.0625
 49
-0.05
  0
LTYPE
  2
DOTX2
 70
    64
  3
点線B
 72
    65
 73
     2
 40
0.275
 49
0.15
 49
-0.125
  0
LTYPE
  2
CONTINUOUS
 70
    64
  3
実線
 72
    65
 73
     0
 40
0.0
  0
LTYPE
  2
CONTINUOUS
 70
    64
  3
実線
 72
    65
 73
     0
 40
0.0
  0
LTYPE
  2
CONTINUOUS
 70
    64
  3
実線
 72
    65
 73
     0
 40
0.0
  0
LTYPE
  2
CONTINUOUS
 70
    64
  3
実線
 72
    65
 73
     0
 40
0.0
  0
LTYPE
  2
CONTINUOUS
 70
    64
  3
実線
 72
    65
 73
     0
 40
0.0
  0
LTYPE
  2
CONTINUOUS
 70
    64
  3
実線
 72
    65
 73
     0
 40
0.0
  0
ENDTAB
  0
TABLE
  2
LAYER
 70
    35
  0
LAYER
  2
通り芯
 70
     0
 62
    15
  6
CONTINUOUS
  0
LAYER
  2
補助線
 70
     0
 62
    16
  6
DOT
  0
LAYER
  2
躯体
 70
     0
 62
    31
  6
CONTINUOUS
  0
LAYER
  2
型材
 70
     0
 62
    32
  6
CONTINUOUS
  0
LAYER
  2
型材断面
 70
     0
 62
    47
  6
CONTINUOUS
  0
LAYER
  2
ガラス
 70
     0
 62
    48
  6
CONTINUOUS
  0
LAYER
  2
ゴム等
 70
     0
 62
    63
  6
CONTINUOUS
  0
LAYER
  2
ボルト／ビス
 70
     0
 62
    64
  6
CONTINUOUS
  0
LAYER
  2
文字
 70
     0
 62
    79
  6
CONTINUOUS
  0
LAYER
  2
寸法
 70
     0
 62
    80
  6
CONTINUOUS
  0
LAYER
  2
ﾊｯﾁﾝｸﾞ
 70
     0
 62
    95
  6
CONTINUOUS
  0
LAYER
  2
別途部材
 70
     0
 62
    96
  6
CONTINUOUS
  0
LAYER
  2
曲げ物
 70
     0
 62
   111
  6
CONTINUOUS
  0
LAYER
  2
鉄骨等
 70
     0
 62
   112
  6
CONTINUOUS
  0
LAYER
  2
St
 70
     0
 62
   127
  6
CONTINUOUS
  0
LAYER
  2
その他部品等
 70
     0
 62
   128
  6
CONTINUOUS
  0
LAYER
  2
ｶﾞｽｹｯﾄ
 70
     0
 62
   143
  6
CONTINUOUS
  0
LAYER
  2
ｽｹｯﾁ
 70
     0
 62
    14
  6
CONTINUOUS
  0
LAYER
  2
0
 70
     0
 62
    17
  6
CONTINUOUS
  0
LAYER
  2
1
 70
     0
 62
    30
  6
CONTINUOUS
  0
LAYER
  2
4
 70
     0
 62
    33
  6
CONTINUOUS
  0
LAYER
  2
ﾚｲﾔ3
 70
     0
 62
    46
  6
CONTINUOUS
  0
LAYER
  2
外形線
 70
     0
 62
    49
  6
CONTINUOUS
  0
LAYER
  2
部品
 70
     0
 62
    14
  6
CONTINUOUS
  0
LAYER
  2
サッシ芯
 70
     0
 62
    17
  6
DASHDOTX2
  0
LAYER
  2
寸法線
 70
     0
 62
    62
  6
CONTINUOUS
  0
LAYER
  2
姿図外形線
 70
     0
 62
    65
  6
CONTINUOUS
  0
LAYER
  2
姿補助線
 70
     0
 62
    30
  6
CONTINUOUS
  0
LAYER
  2
透視線
 70
     0
 62
    78
  6
DOT
  0
LAYER
  2
用紙
 70
     0
 62
    81
  6
CONTINUOUS
  0
LAYER
  2
実線図枠
 70
     0
 62
    94
  6
CONTINUOUS
  0
LAYER
  2
補助図枠
 70
     0
 62
    97
  6
CONTINUOUS
  0
LAYER
  2
建具記号
 70
     0
 62
   110
  6
CONTINUOUS
  0
LAYER
  2
補助文字
 70
     0
 62
   113
  6
CONTINUOUS
  0
LAYER
  2
LAYER010
 70
     0
 62
    11
  6
CONTINUOUS
  0
ENDTAB
  0
TABLE
  2
STYLE
 70
    10
  0
STYLE
  2
STANDARD
 70
     0
 40
1.0
 41
1.0
 42
1.0
 50
0.0
 71
     0
  3
TXT
  4
BIGFONT
  0
STYLE
  2
TATE
 70
     4
 40
1.0
 41
1.0
 42
1.0
 50
0.0
 71
     0
  3
TXT
  4
BIGFONT
  0
STYLE
  2
TextStyle03
 70
     0
 40
1.0
 41
1.0
 42
1.0
 50
0.0
 71
     0
  3
MONOTXT
  4
BIGFONT
  0
STYLE
  2
TextStyle04
 70
     0
 40
1.0
 41
1.0
 42
1.0
 50
0.0
 71
     0
  3
MONOTXT
  4
BIGFONT
  0
STYLE
  2
TextStyle05
 70
     0
 40
1.0
 41
1.0
 42
1.0
 50
0.0
 71
     0
  3
MONOTXT
  4
BIGFONT
  0
STYLE
  2
TextStyle06
 70
     0
 40
1.0
 41
1.0
 42
1.0
 50
0.0
 71
     0
  3
MONOTXT
  4
BIGFONT
  0
STYLE
  2
TextStyle07
 70
     0
 40
1.0
 41
1.0
 42
1.0
 50
0.0
 71
     0
  3
MONOTXT
  4
BIGFONT
  0
STYLE
  2
TextStyle08
 70
     0
 40
1.0
 41
1.0
 42
1.0
 50
0.0
 71
     0
  3
MONOTXT
  4
BIGFONT
  0
STYLE
  2
TextStyle09
 70
     0
 40
1.0
 41
1.0
 42
1.0
 50
0.0
 71
     0
  3
MONOTXT
  4
BIGFONT
  0
STYLE
  2
TextStyle10
 70
     0
 40
1.0
 41
1.0
 42
1.0
 50
0.0
 71
     0
  3
MONOTXT
  4
BIGFONT
  0
ENDTAB
  0
ENDSEC
  0
SECTION
  2
BLOCKS
  0
BLOCK
  2
*GRP_0001
 70
    65
 10
0.0
 20
0.0
  0
LINE
  8
型材断面
  6
CONTINUOUS
 10
195.0
 20
133.5
 11
195.0
 21
-133.5
  0
LINE
  8
型材断面
  6
CONTINUOUS
 10
195.0
 20
-133.5
 11
-185.0
 21
-133.5
  0
LINE
  8
型材断面
  6
CONTINUOUS
 10
-185.0
 20
-133.5
 11
-185.0
 21
133.5
  0
LINE
  8
型材断面
  6
CONTINUOUS
 10
195.0
 20
133.5
 11
-185.0
 21
133.5
  0
LINE
  8
型材断面
  6
CONTINUOUS
 10
145.0
 20
-133.5
 11
145.0
 21
-118.5
  0
LINE
  8
型材断面
  6
CONTINUOUS
 10
195.0
 20
-118.5
 11
145.0
 21
-118.5
  0
ENDBLK
  0
BLOCK
  2
*DIM_0002
 70
    65
 10
0.0
 20
0.0
  0
LINE
  8
寸法
  6
BYBLOCK
 62
     0
 10
-122.51245
 20
-13.511205
 11
-122.51245
 21
-13.121378
  0
LINE
  8
寸法
  6
BYBLOCK
 62
     0
 10
77.48755
 20
-13.121378
 11
-122.51245
 21
-13.121378
  0
POINT
  8
寸法
 62
     0
 10
77.48755
 20
-13.121378
  0
POINT
  8
寸法
 62
     0
 10
-122.51245
 20
-13.121378
  0
TEXT
  7
TextStyle03
  8
寸法
  6
CONTINUOUS
 62
     0
 10
-34.26875
 20
-12.75
  1
呼称寸法　6000
 40
3.0
 72
     5
 11
-10.83125
 21
-12.75
  0
ENDBLK
  0
BLOCK
  2
*DIM_0003
 70
    65
 10
0.0
 20
0.0
  0
LINE
  8
寸法
  6
BYBLOCK
 62
     0
 10
-105.845783
 20
19.183902
 11
-105.845783
 21
13.963537
  0
LINE
  8
寸法
  6
BYBLOCK
 62
     0
 10
-22.51245
 20
19.183905
 11
-22.51245
 21
13.963537
  0
LINE
  8
寸法
  6
BYBLOCK
 62
     0
 10
-105.845783
 20
13.963537
 11
-22.51245
 21
13.963537
  0
POINT
  8
寸法
 62
     0
 10
-105.845783
 20
13.963537
  0
POINT
  8
寸法
 62
     0
 10
-22.51245
 20
13.963537
  0
TEXT
  7
TextStyle03
  8
寸法
  6
CONTINUOUS
 62
     0
 10
-67.48125
 20
14.325
  1
2500
 40
3.0
 72
     5
 11
-60.91875
 21
14.325
  0
ENDBLK
  0
BLOCK
  2
*DIM_0004
 70
    65
 10
0.0
 20
0.0
  0
LINE
  8
寸法
  6
BYBLOCK
 62
     0
 10
60.820882
 20
19.183902
 11
60.820882
 21
13.963537
  0
LINE
  8
寸法
  6
BYBLOCK
 62
     0
 10
-22.51245
 20
13.963537
 11
60.820882
 21
13.963537
  0
POINT
  8
寸法
 62
     0
 10
60.820882
 20
13.963537
  0
TEXT
  7
TextStyle03
  8
寸法
  6
CONTINUOUS
 62
     0
 10
15.86875
 20
14.325
  1
2500
 40
3.0
 72
     5
 11
22.43125
 21
14.325
  0
ENDBLK
  0
BLOCK
  2
*DIM_0005
 70
    65
 10
0.0
 20
0.0
  0
LINE
  8
寸法
  6
BYBLOCK
 62
     0
 10
80.487598
 20
-69.576397
 11
80.487598
 21
-13.121378
  0
LINE
  8
寸法
  6
BYBLOCK
 62
     0
 10
77.48755
 20
-13.121378
 11
80.487598
 21
-13.121378
  0
POINT
  8
寸法
 62
     0
 10
77.48755
 20
-13.121378
  0
POINT
  8
寸法
 62
     0
 10
80.487598
 20
-13.121378
  0
TEXT
  7
TextStyle03
  8
寸法
  6
CONTINUOUS
 62
     0
 10
77.33125
 20
-12.75
  1
90
 40
3.0
 72
     5
 11
80.51875
 21
-12.75
  0
ENDBLK
  0
BLOCK
  2
*DIM_0006
 70
    65
 10
0.0
 20
0.0
  0
LINE
  8
寸法
  6
BYBLOCK
 62
     0
 10
-125.512497
 20
-69.576397
 11
-125.512497
 21
-13.121378
  0
LINE
  8
寸法
  6
BYBLOCK
 62
     0
 10
-122.51245
 20
-13.121378
 11
-125.512497
 21
-13.121378
  0
POINT
  8
寸法
 62
     0
 10
-122.51245
 20
-13.121378
  0
POINT
  8
寸法
 62
     0
 10
-125.512497
 20
-13.121378
  0
TEXT
  7
TextStyle03
  8
寸法
  6
CONTINUOUS
 62
     0
 10
-125.61875
 20
-12.75
  1
90
 40
3.0
 72
     5
 11
-122.43125
 21
-12.75
  0
ENDBLK
  0
BLOCK
  2
*DIM_0007
 70
    65
 10
0.0
 20
0.0
  0
LINE
  8
寸法
  6
BYBLOCK
 62
     0
 10
173.574105
 20
-63.785395
 11
181.685635
 21
-63.785395
  0
LINE
  8
寸法
  6
BYBLOCK
 62
     0
 10
173.574105
 20
-83.118728
 11
181.685635
 21
-83.118728
  0
LINE
  8
寸法
  6
BYBLOCK
 62
     0
 10
181.685635
 20
-63.785395
 11
181.685635
 21
-83.118728
  0
POINT
  8
寸法
 62
     0
 10
181.685635
 20
-63.785395
  0
POINT
  8
寸法
 62
     0
 10
181.685635
 20
-83.118728
  0
TEXT
  7
TextStyle03
  8
寸法
  6
CONTINUOUS
 62
     0
 10
181.275
 20
-75.9125
  1
580
 40
3.0
 50
90.0
 72
     5
 11
181.275
 21
-71.0375
  0
ENDBLK
  0
BLOCK
  2
*DIM_0008
 70
    65
 10
0.0
 20
0.0
  0
LINE
  8
寸法
  6
BYBLOCK
 62
     0
 10
-125.51245
 20
39.4807
 11
-138.805288
 21
39.4807
  0
LINE
  8
寸法
  6
BYBLOCK
 62
     0
 10
-125.51245
 20
26.147365
 11
-138.805288
 21
26.147365
  0
LINE
  8
寸法
  6
BYBLOCK
 62
     0
 10
-138.805288
 20
39.4807
 11
-138.805288
 21
26.147365
  0
POINT
  8
寸法
 62
     0
 10
-138.805288
 20
39.4807
  0
POINT
  8
寸法
 62
     0
 10
-138.805288
 20
26.147365
  0
TEXT
  7
TextStyle03
  8
寸法
  6
CONTINUOUS
 62
     0
 10
-139.225
 20
30.3625
  1
400
 40
3.0
 50
90.0
 72
     5
 11
-139.225
 21
35.2375
  0
ENDBLK
  0
BLOCK
  2
*DIM_0009
 70
    65
 10
0.0
 20
0.0
  0
LINE
  8
寸法
  6
BYBLOCK
 62
     0
 10
-115.845783
 20
45.814033
 11
-115.845783
 21
74.922105
  0
LINE
  8
寸法
  6
BYBLOCK
 62
     0
 10
-92.51245
 20
45.814033
 11
-92.51245
 21
74.922105
  0
LINE
  8
寸法
  6
BYBLOCK
 62
     0
 10
-115.845783
 20
74.922105
 11
-92.51245
 21
74.922105
  0
POINT
  8
寸法
 62
     0
 10
-115.845783
 20
74.922105
  0
POINT
  8
寸法
 62
     0
 10
-92.51245
 20
74.922105
  0
TEXT
  7
TextStyle03
  8
寸法
  6
CONTINUOUS
 62
     0
 10
-106.6375
 20
75.3
  1
700
 40
3.0
 72
     5
 11
-101.7625
 21
75.3
  0
ENDBLK
  0
BLOCK
  2
*DIM_0010
 70
    65
 10
0.0
 20
0.0
  0
LINE
  8
寸法
  6
BYBLOCK
 62
     0
 10
-69.179118
 20
45.814033
 11
-69.179118
 21
74.922105
  0
LINE
  8
寸法
  6
BYBLOCK
 62
     0
 10
-92.51245
 20
74.922105
 11
-69.179118
 21
74.922105
  0
POINT
  8
寸法
 62
     0
 10
-69.179118
 20
74.922105
  0
TEXT
  7
TextStyle03
  8
寸法
  6
CONTINUOUS
 62
     0
 10
-83.3125
 20
75.3
  1
700
 40
3.0
 72
     5
 11
-78.4375
 21
75.3
  0
ENDBLK
  0
BLOCK
  2
*DIM_0011
 70
    65
 10
0.0
 20
0.0
  0
LINE
  8
寸法
  6
BYBLOCK
 62
     0
 10
-45.845783
 20
45.814033
 11
-45.845783
 21
74.922105
  0
LINE
  8
寸法
  6
BYBLOCK
 62
     0
 10
-69.179118
 20
74.922105
 11
-45.845783
 21
74.922105
  0
POINT
  8
寸法
 62
     0
 10
-45.845783
 20
74.922105
  0
TEXT
  7
TextStyle03
  8
寸法
  6
CONTINUOUS
 62
     0
 10
-59.9625
 20
75.3
  1
700
 40
3.0
 72
     5
 11
-55.0875
 21
75.3
  0
ENDBLK
  0
BLOCK
  2
*DIM_0012
 70
    65
 10
0.0
 20
0.0
  0
LINE
  8
寸法
  6
BYBLOCK
 62
     0
 10
-22.51245
 20
45.814033
 11
-22.51245
 21
74.922105
  0
LINE
  8
寸法
  6
BYBLOCK
 62
     0
 10
-45.845783
 20
74.922105
 11
-22.51245
 21
74.922105
  0
POINT
  8
寸法
 62
     0
 10
-22.51245
 20
74.922105
  0
TEXT
  7
TextStyle03
  8
寸法
  6
CONTINUOUS
 62
     0
 10
-36.6375
 20
75.3
  1
700
 40
3.0
 72
     5
 11
-31.7625
 21
75.3
  0
ENDBLK
  0
BLOCK
  2
*DIM_0013
 70
    65
 10
0.0
 20
0.0
  0
LINE
  8
寸法
  6
BYBLOCK
 62
     0
 10
0.820882
 20
45.814033
 11
0.820882
 21
74.922105
  0
LINE
  8
寸法
  6
BYBLOCK
 62
     0
 10
-22.51245
 20
74.922105
 11
0.820882
 21
74.922105
  0
POINT
  8
寸法
 62
     0
 10
0.820882
 20
74.922105
  0
TEXT
  7
TextStyle03
  8
寸法
  6
CONTINUOUS
 62
     0
 10
-13.3125
 20
75.3
  1
700
 40
3.0
 72
     5
 11
-8.4375
 21
75.3
  0
ENDBLK
  0
BLOCK
  2
*DIM_0014
 70
    65
 10
0.0
 20
0.0
  0
LINE
  8
寸法
  6
BYBLOCK
 62
     0
 10
24.154218
 20
45.814033
 11
24.154218
 21
74.922105
  0
LINE
  8
寸法
  6
BYBLOCK
 62
     0
 10
0.820882
 20
74.922105
 11
24.154218
 21
74.922105
  0
POINT
  8
寸法
 62
     0
 10
24.154218
 20
74.922105
  0
TEXT
  7
TextStyle03
  8
寸法
  6
CONTINUOUS
 62
     0
 10
10.0375
 20
75.3
  1
700
 40
3.0
 72
     5
 11
14.9125
 21
75.3
  0
ENDBLK
  0
BLOCK
  2
*DIM_0015
 70
    65
 10
0.0
 20
0.0
  0
LINE
  8
寸法
  6
BYBLOCK
 62
     0
 10
47.48755
 20
45.814033
 11
47.48755
 21
74.922105
  0
LINE
  8
寸法
  6
BYBLOCK
 62
     0
 10
24.154218
 20
74.922105
 11
47.48755
 21
74.922105
  0
POINT
  8
寸法
 62
     0
 10
47.48755
 20
74.922105
  0
TEXT
  7
TextStyle03
  8
寸法
  6
CONTINUOUS
 62
     0
 10
33.3625
 20
75.3
  1
700
 40
3.0
 72
     5
 11
38.2375
 21
75.3
  0
ENDBLK
  0
BLOCK
  2
*DIM_0016
 70
    65
 10
0.0
 20
0.0
  0
LINE
  8
寸法
  6
BYBLOCK
 62
     0
 10
70.820882
 20
45.814033
 11
70.820882
 21
74.922105
  0
LINE
  8
寸法
  6
BYBLOCK
 62
     0
 10
47.48755
 20
74.922105
 11
70.820882
 21
74.922105
  0
POINT
  8
寸法
 62
     0
 10
70.820882
 20
74.922105
  0
TEXT
  7
TextStyle03
  8
寸法
  6
CONTINUOUS
 62
     0
 10
56.6875
 20
75.3
  1
700
 40
3.0
 72
     5
 11
61.5625
 21
75.3
  0
ENDBLK
  0
BLOCK
  2
*DIM_0017
 70
    65
 10
0.0
 20
0.0
  0
LINE
  8
寸法
  6
CONTINUOUS
 10
144.379203
 20
56.453242
 11
147.69587
 21
56.453242
  0
POINT
  8
寸法
 10
144.379203
 20
56.453242
  0
POINT
  8
寸法
 10
147.69587
 20
56.453242
  0
TEXT
  7
TextStyle03
  8
寸法
  6
CONTINUOUS
 10
142.56875
 20
56.625
  1
99.5
 40
3.0
 72
     5
 11
149.13125
 21
56.625
  0
ENDBLK
  0
BLOCK
  2
*DIM_0018
 70
    65
 10
0.0
 20
0.0
  0
LINE
  8
寸法
  6
CONTINUOUS
 10
91.12676
 20
-68.425565
 11
91.12676
 21
-71.742232
  0
POINT
  8
寸法
 10
91.12676
 20
-68.425565
  0
POINT
  8
寸法
 10
91.12676
 20
-71.742232
  0
TEXT
  7
TextStyle03
  8
寸法
  6
CONTINUOUS
 10
94.25
 20
-73.30625
  1
99.5
 40
3.0
 50
90.0
 72
     5
 11
94.25
 21
-66.74375
  0
ENDBLK
  0
BLOCK
  2
*DIM_0019
 70
    65
 10
0.0
 20
0.0
  0
LINE
  8
寸法
  6
CONTINUOUS
 10
172.574105
 20
-55.393898
 11
140.324105
 21
-55.393898
  0
POINT
  8
寸法
 10
172.574105
 20
-55.393898
  0
POINT
  8
寸法
 10
140.324105
 20
-55.393898
  0
TEXT
  7
TextStyle03
  8
寸法
  6
CONTINUOUS
 10
152.3
 20
-55.025
  1
967.5
 40
3.0
 72
     5
 11
160.55
 21
-55.025
  0
ENDBLK
  0
ENDSEC
  0
SECTION
  2
ENTITIES
  0
POLYLINE
  8
通り芯
  6
CONTINUOUS
 66
     1
 70
     1
  0
VERTEX
  8
通り芯
 10
-210.0
 20
-148.5
  0
VERTEX
  8
通り芯
 10
210.0
 20
-148.5
  0
VERTEX
  8
通り芯
 10
210.0
 20
148.5
  0
VERTEX
  8
通り芯
 10
-210.0
 20
148.5
  0
SEQEND
  0
INSERT
  2
*GRP_0001
  8
型材断面
  6
CONTINUOUS
 10
0.0
 20
0.0
  0
LINE
  8
型材断面
  6
DASHDOT
 10
-22.51245
 20
-77.836442
 11
-22.51245
 21
42.814033
  0
LINE
  8
型材断面
  6
DASHDOT
 10
-122.51245
 20
-77.836442
 11
-122.51245
 21
42.814033
  0
LINE
  8
型材断面
  6
DASHDOT
 10
77.48755
 20
-77.836442
 11
77.48755
 21
42.814033
  0
LINE
  8
型材断面
  6
CONTINUOUS
 10
-105.845783
 20
45.444162
 11
-107.341413
 21
48.03467
  0
LINE
  8
型材断面
  6
CONTINUOUS
 10
-105.845783
 20
45.444162
 11
-104.350152
 21
48.03467
  0
LINE
  8
型材断面
  6
CONTINUOUS
 10
-104.350152
 20
48.03467
 11
-107.341413
 21
48.03467
  0
LINE
  8
型材断面
  6
CONTINUOUS
 10
-163.364657
 20
87.32138
 11
-164.860287
 21
84.730873
  0
LINE
  8
型材断面
  6
CONTINUOUS
 10
-163.364657
 20
87.32138
 11
-161.869027
 21
84.730873
  0
LINE
  8
型材断面
  6
CONTINUOUS
 10
-161.869027
 20
84.730873
 11
-164.860287
 21
84.730873
  0
LINE
  8
型材断面
  6
CONTINUOUS
 10
-169.387245
 20
83.792277
 11
-123.145468
 21
83.792277
  0
LINE
  8
型材断面
  6
CONTINUOUS
 10
60.820882
 20
45.444162
 11
62.316512
 21
48.03467
  0
LINE
  8
型材断面
  6
CONTINUOUS
 10
60.820882
 20
45.444162
 11
59.325252
 21
48.03467
  0
LINE
  8
型材断面
  6
CONTINUOUS
 10
59.325252
 20
48.03467
 11
62.316512
 21
48.03467
  0
LINE
  8
型材断面
  6
CONTINUOUS
 10
-125.14258
 20
32.814033
 11
-127.733087
 21
34.309663
  0
LINE
  8
型材断面
  6
CONTINUOUS
 10
-125.14258
 20
32.814033
 11
-127.733087
 21
31.318403
  0
LINE
  8
型材断面
  6
CONTINUOUS
 10
-127.733087
 20
31.318403
 11
-127.733087
 21
34.309663
  0
LINE
  8
型材断面
  6
CONTINUOUS
 10
-22.51245
 20
45.44416
 11
-24.00808
 21
48.034668
  0
LINE
  8
型材断面
  6
CONTINUOUS
 10
-22.51245
 20
45.44416
 11
-21.01682
 21
48.034668
  0
LINE
  8
型材断面
  6
CONTINUOUS
 10
-21.01682
 20
48.034668
 11
-24.00808
 21
48.034668
  0
LINE
  8
型材断面
  6
CONTINUOUS
 10
-105.845783
 20
20.183902
 11
-107.341413
 21
17.593395
  0
LINE
  8
型材断面
  6
CONTINUOUS
 10
-105.845783
 20
20.183902
 11
-104.350152
 21
17.593395
  0
LINE
  8
型材断面
  6
CONTINUOUS
 10
-104.350152
 20
17.593395
 11
-107.341413
 21
17.593395
  0
LINE
  8
型材断面
  6
CONTINUOUS
 10
60.820882
 20
20.183902
 11
62.316512
 21
17.593395
  0
LINE
  8
型材断面
  6
CONTINUOUS
 10
60.820882
 20
20.183902
 11
59.325252
 21
17.593395
  0
LINE
  8
型材断面
  6
CONTINUOUS
 10
59.325252
 20
17.593395
 11
62.316512
 21
17.593395
  0
LINE
  8
型材断面
  6
CONTINUOUS
 10
-22.51245
 20
20.183905
 11
-24.00808
 21
17.593397
  0
LINE
  8
型材断面
  6
CONTINUOUS
 10
-22.51245
 20
20.183905
 11
-21.01682
 21
17.593397
  0
LINE
  8
型材断面
  6
CONTINUOUS
 10
-21.01682
 20
17.593397
 11
-24.00808
 21
17.593397
  0
LINE
  8
型材断面
  6
CONTINUOUS
 10
80.11768
 20
32.814033
 11
82.708187
 21
34.309663
  0
LINE
  8
型材断面
  6
CONTINUOUS
 10
80.11768
 20
32.814033
 11
82.708187
 21
31.318403
  0
LINE
  8
型材断面
  6
CONTINUOUS
 10
82.708187
 20
31.318403
 11
82.708187
 21
34.309663
  0
LINE
  8
型材断面
  6
CONTINUOUS
 10
-169.387245
 20
77.157948
 11
-123.145468
 21
77.157948
  0
LINE
  8
型材断面
  6
CONTINUOUS
 10
-125.512497
 20
19.81399
 11
-22.51245
 21
19.81399
  0
LINE
  8
型材断面
  6
CONTINUOUS
 10
-125.512497
 20
45.814075
 11
-22.51245
 21
45.814075
  0
LINE
  8
型材断面
  6
CONTINUOUS
 10
80.487598
 20
45.814075
 11
80.487598
 21
32.81403
  0
LINE
  8
型材断面
  6
CONTINUOUS
 10
80.487598
 20
45.814075
 11
-22.51245
 21
45.814075
  0
LINE
  8
型材断面
  6
CONTINUOUS
 10
80.487598
 20
19.81399
 11
80.487598
 21
32.814035
  0
LINE
  8
型材断面
  6
CONTINUOUS
 10
80.487598
 20
19.81399
 11
-22.51245
 21
19.81399
  0
LINE
  8
型材断面
  6
CONTINUOUS
 10
148.19587
 20
20.313977
 11
148.19587
 21
32.814033
  0
CIRCLE
  8
型材断面
  6
CONTINUOUS
 62
    47
 10
147.195873
 20
19.814042
 40
0.011113
  0
LINE
  8
型材断面
  6
CONTINUOUS
 62
    47
 10
147.69587
 20
20.314033
 11
147.69587
 21
19.814042
  0
LINE
  8
型材断面
  6
CONTINUOUS
 62
    47
 10
147.69587
 20
19.814042
 11
147.195873
 21
19.814042
  0
LINE
  8
型材断面
  6
CONTINUOUS
 62
    47
 10
147.195873
 20
19.814042
 11
146.698692
 21
22.747372
  0
LINE
  8
型材断面
  6
CONTINUOUS
 62
    47
 10
147.69587
 20
20.314033
 11
148.19587
 21
20.314033
  0
LINE
  8
型材断面
  6
CONTINUOUS
 10
146.698692
 20
22.74732
 11
146.698692
 21
32.814033
  0
LINE
  8
型材断面
  6
CONTINUOUS
 62
    47
 10
146.04587
 20
21.324093
 11
146.04587
 21
32.814033
  0
LINE
  8
型材断面
  6
CONTINUOUS
 62
    47
 10
144.54587
 20
21.167572
 11
144.54587
 21
32.814033
  0
LINE
  8
型材断面
  6
CONTINUOUS
 62
    47
 10
144.379203
 20
21.324093
 11
144.379203
 21
32.814033
  0
LINE
  8
型材断面
  6
CONTINUOUS
 10
147.195875
 20
19.813988
 11
147.195875
 21
32.814033
  0
LINE
  8
型材断面
  6
CONTINUOUS
 62
    47
 10
147.69587
 20
19.813988
 11
147.69587
 21
32.814033
  0
LINE
  8
型材断面
  6
CONTINUOUS
 62
    47
 10
146.698692
 20
22.747372
 11
146.04587
 21
22.747372
  0
LINE
  8
型材断面
  6
CONTINUOUS
 10
148.19587
 20
45.314087
 11
148.19587
 21
32.814033
  0
CIRCLE
  8
型材断面
  6
CONTINUOUS
 62
    47
 10
147.195873
 20
45.814025
 40
0.011113
  0
LINE
  8
型材断面
  6
CONTINUOUS
 62
    47
 10
147.69587
 20
45.314033
 11
147.69587
 21
45.814025
  0
LINE
  8
型材断面
  6
CONTINUOUS
 62
    47
 10
147.69587
 20
45.814025
 11
147.195873
 21
45.814025
  0
LINE
  8
型材断面
  6
CONTINUOUS
 62
    47
 10
147.195873
 20
45.814025
 11
146.698692
 21
42.880693
  0
LINE
  8
型材断面
  6
CONTINUOUS
 62
    47
 10
147.69587
 20
45.314033
 11
148.19587
 21
45.314033
  0
LINE
  8
型材断面
  6
CONTINUOUS
 10
146.698692
 20
42.880747
 11
146.698692
 21
32.814033
  0
LINE
  8
型材断面
  6
CONTINUOUS
 62
    47
 10
146.04587
 20
44.303973
 11
146.04587
 21
32.814033
  0
LINE
  8
型材断面
  6
CONTINUOUS
 62
    47
 10
144.54587
 20
44.460495
 11
144.54587
 21
32.814033
  0
LINE
  8
型材断面
  6
CONTINUOUS
 62
    47
 10
144.379203
 20
44.303973
 11
144.379203
 21
32.814033
  0
LINE
  8
型材断面
  6
CONTINUOUS
 10
147.195875
 20
45.814077
 11
147.195875
 21
32.814033
  0
LINE
  8
型材断面
  6
CONTINUOUS
 62
    47
 10
147.69587
 20
45.814077
 11
147.69587
 21
32.814033
  0
LINE
  8
型材断面
  6
CONTINUOUS
 62
    47
 10
146.698692
 20
42.880693
 11
146.04587
 21
42.880693
  0
CIRCLE
  8
型材断面
  6
CONTINUOUS
 62
    47
 10
-125.51244
 20
-71.242235
 40
0.011113
  0
LINE
  8
型材断面
  6
CONTINUOUS
 62
    47
 10
-125.01245
 20
-71.742232
 11
-125.51244
 21
-71.742232
  0
LINE
  8
型材断面
  6
CONTINUOUS
 62
    47
 10
-125.51244
 20
-71.742232
 11
-125.51244
 21
-71.242235
  0
LINE
  8
型材断面
  6
CONTINUOUS
 62
    47
 10
-125.51244
 20
-71.242235
 11
-122.57911
 21
-70.745055
  0
LINE
  8
型材断面
  6
CONTINUOUS
 62
    47
 10
-125.01245
 20
-71.742232
 11
-125.01245
 21
-72.242232
  0
LINE
  8
型材断面
  6
CONTINUOUS
 62
    47
 10
-122.57911
 20
-70.745055
 11
-122.57911
 21
-70.092232
  0
CIRCLE
  8
型材断面
  6
CONTINUOUS
 62
    47
 10
80.487543
 20
-71.242235
 40
0.011113
  0
LINE
  8
型材断面
  6
CONTINUOUS
 62
    47
 10
79.98755
 20
-71.742232
 11
80.487543
 21
-71.742232
  0
LINE
  8
型材断面
  6
CONTINUOUS
 62
    47
 10
80.487543
 20
-71.742232
 11
80.487543
 21
-71.242235
  0
LINE
  8
型材断面
  6
CONTINUOUS
 62
    47
 10
80.487543
 20
-71.242235
 11
77.55421
 21
-70.745055
  0
LINE
  8
型材断面
  6
CONTINUOUS
 62
    47
 10
79.98755
 20
-71.742232
 11
79.98755
 21
-72.242232
  0
LINE
  8
型材断面
  6
CONTINUOUS
 62
    47
 10
77.55421
 20
-70.745055
 11
77.55421
 21
-70.092232
  0
LINE
  8
型材断面
  6
CONTINUOUS
 10
-122.579162
 20
-70.745055
 11
-22.51245
 21
-70.745055
  0
LINE
  8
型材断面
  6
CONTINUOUS
 62
    47
 10
-124.00239
 20
-68.425565
 11
-22.51245
 21
-68.425565
  0
LINE
  8
型材断面
  6
CONTINUOUS
 62
    47
 10
-124.15891
 20
-68.592232
 11
-22.51245
 21
-68.592232
  0
LINE
  8
型材断面
  6
CONTINUOUS
 62
    47
 10
-124.00239
 20
-70.092232
 11
-22.51245
 21
-70.092232
  0
LINE
  8
型材断面
  6
CONTINUOUS
 10
-125.012505
 20
-72.242232
 11
-22.51245
 21
-72.242232
  0
LINE
  8
型材断面
  6
CONTINUOUS
 10
-125.512495
 20
-71.242238
 11
-22.51245
 21
-71.242238
  0
LINE
  8
型材断面
  6
CONTINUOUS
 62
    47
 10
-125.512495
 20
-71.742232
 11
-22.51245
 21
-71.742232
  0
LINE
  8
型材断面
  6
CONTINUOUS
 62
    47
 10
78.97749
 20
-70.092232
 11
-22.51245
 21
-70.092232
  0
LINE
  8
型材断面
  6
CONTINUOUS
 62
    47
 10
78.97749
 20
-68.425565
 11
-22.51245
 21
-68.425565
  0
LINE
  8
型材断面
  6
CONTINUOUS
 62
    47
 10
79.134013
 20
-68.592232
 11
-22.51245
 21
-68.592232
  0
LINE
  8
型材断面
  6
CONTINUOUS
 10
77.554265
 20
-70.745055
 11
-22.51245
 21
-70.745055
  0
LINE
  8
型材断面
  6
CONTINUOUS
 10
80.487595
 20
-71.242238
 11
-22.51245
 21
-71.242238
  0
LINE
  8
型材断面
  6
CONTINUOUS
 10
79.987605
 20
-72.242232
 11
-22.51245
 21
-72.242232
  0
LINE
  8
型材断面
  6
CONTINUOUS
 62
    47
 10
80.487595
 20
-71.742232
 11
-22.51245
 21
-71.742232
  0
LINE
  8
型材断面
  6
DASHDOT
 10
155.17188
 20
22.814033
 11
-122.51245
 21
22.814033
  0
LINE
  8
型材断面
  6
DASHDOT
 10
155.17188
 20
32.814033
 11
-122.51245
 21
32.814033
  0
LINE
  8
型材断面
  6
DASHDOT
 10
155.17188
 20
42.814033
 11
-122.51245
 21
42.814033
  0
LINE
  8
型材断面
  6
DASHDOT
 10
-89.345783
 20
22.814033
 11
-89.345783
 21
42.814033
  0
LINE
  8
型材断面
  6
DASHDOT
 10
-55.929115
 20
22.814033
 11
-55.929115
 21
42.814033
  0
LINE
  8
型材断面
  6
DASHDOT
 10
44.320882
 20
22.814033
 11
44.320882
 21
42.814033
  0
LINE
  8
型材断面
  6
DASHDOT
 10
10.904215
 20
22.814033
 11
10.904215
 21
42.814033
  0
LINE
  8
型材断面
  6
CONTINUOUS
 10
60.48755
 20
23.66757
 11
60.48755
 21
21.16757
  0
LINE
  8
型材断面
  6
CONTINUOUS
 10
61.320885
 20
23.66757
 11
61.320885
 21
21.16757
  0
LINE
  8
型材断面
  6
CONTINUOUS
 10
27.195882
 20
23.66757
 11
27.195882
 21
21.16757
  0
LINE
  8
型材断面
  6
CONTINUOUS
 10
28.029218
 20
23.66757
 11
28.029218
 21
21.16757
  0
LINE
  8
型材断面
  6
CONTINUOUS
 10
-6.220785
 20
23.66757
 11
-6.220785
 21
21.16757
  0
LINE
  8
型材断面
  6
CONTINUOUS
 10
-5.38745
 20
23.66757
 11
-5.38745
 21
21.16757
  0
LINE
  8
型材断面
  6
CONTINUOUS
 10
-105.51245
 20
23.66757
 11
-105.51245
 21
21.16757
  0
LINE
  8
型材断面
  6
CONTINUOUS
 10
-106.345785
 20
23.66757
 11
-106.345785
 21
21.16757
  0
LINE
  8
型材断面
  6
CONTINUOUS
 10
-72.220783
 20
23.66757
 11
-72.220783
 21
21.16757
  0
LINE
  8
型材断面
  6
CONTINUOUS
 10
-73.054118
 20
23.66757
 11
-73.054118
 21
21.16757
  0
LINE
  8
型材断面
  6
CONTINUOUS
 10
-38.804115
 20
23.66757
 11
-38.804115
 21
21.16757
  0
LINE
  8
型材断面
  6
CONTINUOUS
 10
-39.63745
 20
23.66757
 11
-39.63745
 21
21.16757
  0
LINE
  8
型材断面
  6
CONTINUOUS
 10
60.48755
 20
41.960495
 11
60.48755
 21
44.460495
  0
LINE
  8
型材断面
  6
CONTINUOUS
 10
61.320885
 20
41.960495
 11
61.320885
 21
44.460495
  0
LINE
  8
型材断面
  6
CONTINUOUS
 10
27.195882
 20
41.960495
 11
27.195882
 21
44.460495
  0
LINE
  8
型材断面
  6
CONTINUOUS
 10
28.029218
 20
41.960495
 11
28.029218
 21
44.460495
  0
LINE
  8
型材断面
  6
CONTINUOUS
 10
-6.220785
 20
41.960495
 11
-6.220785
 21
44.460495
  0
LINE
  8
型材断面
  6
CONTINUOUS
 10
-5.38745
 20
41.960495
 11
-5.38745
 21
44.460495
  0
LINE
  8
型材断面
  6
CONTINUOUS
 10
-105.51245
 20
41.960495
 11
-105.51245
 21
44.460495
  0
LINE
  8
型材断面
  6
CONTINUOUS
 10
-106.345785
 20
41.960495
 11
-106.345785
 21
44.460495
  0
LINE
  8
型材断面
  6
CONTINUOUS
 10
-72.220783
 20
41.960495
 11
-72.220783
 21
44.460495
  0
LINE
  8
型材断面
  6
CONTINUOUS
 10
-73.054118
 20
41.960495
 11
-73.054118
 21
44.460495
  0
LINE
  8
型材断面
  6
CONTINUOUS
 10
-38.804115
 20
41.960495
 11
-38.804115
 21
44.460495
  0
LINE
  8
型材断面
  6
CONTINUOUS
 10
-39.63745
 20
41.960495
 11
-39.63745
 21
44.460495
  0
LINE
  8
型材断面
  6
CONTINUOUS
 10
76.63401
 20
32.397365
 11
79.13401
 21
32.397365
  0
LINE
  8
型材断面
  6
CONTINUOUS
 10
76.63401
 20
33.2307
 11
79.13401
 21
33.2307
  0
LINE
  8
型材断面
  6
CONTINUOUS
 10
28.029218
 20
41.960495
 11
60.48755
 21
41.960495
  0
LINE
  8
型材断面
  6
CONTINUOUS
 10
28.029218
 20
23.66757
 11
60.48755
 21
23.66757
  0
LINE
  8
型材断面
  6
CONTINUOUS
 10
-5.38745
 20
23.66757
 11
27.195882
 21
23.66757
  0
LINE
  8
型材断面
  6
CONTINUOUS
 10
-5.38745
 20
41.960495
 11
27.195882
 21
41.960495
  0
LINE
  8
型材断面
  6
CONTINUOUS
 10
-38.804115
 20
41.960495
 11
-6.220785
 21
41.960495
  0
LINE
  8
型材断面
  6
CONTINUOUS
 10
-38.804115
 20
23.66757
 11
-6.220785
 21
23.66757
  0
LINE
  8
型材断面
  6
CONTINUOUS
 10
-72.220783
 20
23.66757
 11
-39.63745
 21
23.66757
  0
LINE
  8
型材断面
  6
CONTINUOUS
 10
-72.220783
 20
41.960495
 11
-39.63745
 21
41.960495
  0
LINE
  8
型材断面
  6
CONTINUOUS
 10
-105.51245
 20
41.960495
 11
-73.054118
 21
41.960495
  0
LINE
  8
型材断面
  6
CONTINUOUS
 10
-105.51245
 20
23.66757
 11
-73.054118
 21
23.66757
  0
LINE
  8
型材断面
  6
CONTINUOUS
 10
78.898313
 20
21.16752
 11
79.134013
 21
21.40322
  0
LINE
  8
型材断面
  6
CONTINUOUS
 10
80.487598
 20
19.81399
 11
79.01619
 21
21.285397
  0
LINE
  8
型材断面
  6
CONTINUOUS
 10
76.398313
 20
23.66752
 11
76.634013
 21
23.90322
  0
LINE
  8
型材断面
  6
CONTINUOUS
 10
45.570882
 20
24.500852
 11
43.070882
 21
24.500852
  0
LINE
  8
型材断面
  6
CONTINUOUS
 10
76.398313
 20
23.66752
 11
78.898263
 21
21.16757
  0
LINE
  8
型材断面
  6
CONTINUOUS
 10
76.634013
 20
23.90322
 11
79.13401
 21
21.403223
  0
LINE
  8
型材断面
  6
CONTINUOUS
 10
61.320885
 20
23.66757
 11
76.398363
 21
23.66757
  0
LINE
  8
型材断面
  6
CONTINUOUS
 10
76.63401
 20
32.397365
 11
76.63401
 21
23.903218
  0
LINE
  8
型材断面
  6
CONTINUOUS
 10
45.570882
 20
41.127212
 11
43.070882
 21
41.127212
  0
LINE
  8
型材断面
  6
CONTINUOUS
 10
45.570882
 20
24.500852
 11
45.570882
 21
41.127212
  0
LINE
  8
型材断面
  6
CONTINUOUS
 10
43.070882
 20
24.500852
 11
43.070882
 21
41.127212
  0
LINE
  8
型材断面
  6
CONTINUOUS
 10
78.898313
 20
44.460545
 11
79.134013
 21
44.224845
  0
LINE
  8
型材断面
  6
CONTINUOUS
 10
80.487598
 20
45.814075
 11
79.01619
 21
44.342668
  0
LINE
  8
型材断面
  6
CONTINUOUS
 10
76.398313
 20
41.960545
 11
76.634013
 21
41.724845
  0
LINE
  8
型材断面
  6
CONTINUOUS
 10
76.398313
 20
41.960545
 11
78.898263
 21
44.460495
  0
LINE
  8
型材断面
  6
CONTINUOUS
 10
76.634013
 20
41.724845
 11
79.13401
 21
44.224842
  0
LINE
  8
型材断面
  6
CONTINUOUS
 10
79.13401
 20
21.403223
 11
79.13401
 21
44.224842
  0
LINE
  8
型材断面
  6
CONTINUOUS
 10
76.63401
 20
33.2307
 11
76.63401
 21
41.724848
  0
LINE
  8
型材断面
  6
CONTINUOUS
 10
61.320885
 20
41.960495
 11
76.398363
 21
41.960495
  0
LINE
  8
型材断面
  6
CONTINUOUS
 10
-125.512497
 20
45.814075
 11
-125.512497
 21
32.81403
  0
LINE
  8
型材断面
  6
CONTINUOUS
 10
-125.512497
 20
19.81399
 11
-125.512497
 21
32.814035
  0
LINE
  8
型材断面
  6
CONTINUOUS
 10
-121.65891
 20
32.397365
 11
-124.15891
 21
32.397365
  0
LINE
  8
型材断面
  6
CONTINUOUS
 10
-121.65891
 20
33.2307
 11
-124.15891
 21
33.2307
  0
LINE
  8
型材断面
  6
CONTINUOUS
 10
-123.923213
 20
21.16752
 11
-124.158913
 21
21.40322
  0
LINE
  8
型材断面
  6
CONTINUOUS
 10
-125.512497
 20
19.81399
 11
-124.04109
 21
21.285397
  0
LINE
  8
型材断面
  6
CONTINUOUS
 10
-121.423213
 20
23.66752
 11
-121.658913
 21
23.90322
  0
LINE
  8
型材断面
  6
CONTINUOUS
 10
-121.423213
 20
23.66752
 11
-123.923163
 21
21.16757
  0
LINE
  8
型材断面
  6
CONTINUOUS
 10
-121.658913
 20
23.90322
 11
-124.15891
 21
21.403223
  0
LINE
  8
型材断面
  6
CONTINUOUS
 10
-121.65891
 20
32.397365
 11
-121.65891
 21
23.903218
  0
LINE
  8
型材断面
  6
CONTINUOUS
 10
-123.923213
 20
44.460545
 11
-124.158913
 21
44.224845
  0
LINE
  8
型材断面
  6
CONTINUOUS
 10
-125.512497
 20
45.814075
 11
-124.04109
 21
44.342668
  0
LINE
  8
型材断面
  6
CONTINUOUS
 10
-121.423213
 20
41.960545
 11
-121.658913
 21
41.724845
  0
LINE
  8
型材断面
  6
CONTINUOUS
 10
-121.423213
 20
41.960545
 11
-123.923163
 21
44.460495
  0
LINE
  8
型材断面
  6
CONTINUOUS
 10
-121.658913
 20
41.724845
 11
-124.15891
 21
44.224842
  0
LINE
  8
型材断面
  6
CONTINUOUS
 10
-124.15891
 20
21.403223
 11
-124.15891
 21
44.224842
  0
LINE
  8
型材断面
  6
CONTINUOUS
 10
-121.65891
 20
33.2307
 11
-121.65891
 21
41.724848
  0
LINE
  8
型材断面
  6
CONTINUOUS
 10
-106.345785
 20
23.66757
 11
-121.423163
 21
23.66757
  0
LINE
  8
型材断面
  6
CONTINUOUS
 10
78.898263
 20
21.16757
 11
-123.923163
 21
21.16757
  0
LINE
  8
型材断面
  6
CONTINUOUS
 10
-106.345785
 20
41.960495
 11
-121.423163
 21
41.960495
  0
LINE
  8
型材断面
  6
CONTINUOUS
 10
78.898263
 20
44.460495
 11
-123.923163
 21
44.460495
  0
LINE
  8
型材断面
  6
CONTINUOUS
 10
12.154215
 20
24.500852
 11
9.654215
 21
24.500852
  0
LINE
  8
型材断面
  6
CONTINUOUS
 10
12.154215
 20
41.127212
 11
9.654215
 21
41.127212
  0
LINE
  8
型材断面
  6
CONTINUOUS
 10
12.154215
 20
24.500852
 11
12.154215
 21
41.127212
  0
LINE
  8
型材断面
  6
CONTINUOUS
 10
9.654215
 20
24.500852
 11
9.654215
 21
41.127212
  0
LINE
  8
型材断面
  6
CONTINUOUS
 10
-21.26245
 20
24.500852
 11
-23.76245
 21
24.500852
  0
LINE
  8
型材断面
  6
CONTINUOUS
 10
-21.26245
 20
41.127212
 11
-23.76245
 21
41.127212
  0
LINE
  8
型材断面
  6
CONTINUOUS
 10
-21.26245
 20
24.500852
 11
-21.26245
 21
41.127212
  0
LINE
  8
型材断面
  6
CONTINUOUS
 10
-23.76245
 20
24.500852
 11
-23.76245
 21
41.127212
  0
LINE
  8
型材断面
  6
CONTINUOUS
 10
-90.595783
 20
24.500852
 11
-88.095783
 21
24.500852
  0
LINE
  8
型材断面
  6
CONTINUOUS
 10
-90.595783
 20
41.127212
 11
-88.095783
 21
41.127212
  0
LINE
  8
型材断面
  6
CONTINUOUS
 10
-90.595783
 20
24.500852
 11
-90.595783
 21
41.127212
  0
LINE
  8
型材断面
  6
CONTINUOUS
 10
-88.095783
 20
24.500852
 11
-88.095783
 21
41.127212
  0
LINE
  8
型材断面
  6
CONTINUOUS
 10
-57.179115
 20
24.500852
 11
-54.679115
 21
24.500852
  0
LINE
  8
型材断面
  6
CONTINUOUS
 10
-57.179115
 20
41.127212
 11
-54.679115
 21
41.127212
  0
LINE
  8
型材断面
  6
CONTINUOUS
 10
-57.179115
 20
24.500852
 11
-57.179115
 21
41.127212
  0
LINE
  8
型材断面
  6
CONTINUOUS
 10
-54.679115
 20
24.500852
 11
-54.679115
 21
41.127212
  0
TEXT
  7
TextStyle03
  8
文字
  6
CONTINUOUS
 10
-160.55
 20
84.95
  1
は排水穴位置を示す
 40
3.0
 72
     5
 11
-130.55
 21
84.95
  0
TEXT
  7
TextStyle03
  8
文字
  6
CONTINUOUS
 10
59.65
 20
104.525
  1
ＮＳコード：ＮＳＦＫＺ
 40
5.0
 72
     5
 11
120.9
 21
104.525
  0
TEXT
  7
TextStyle03
  8
文字
  6
CONTINUOUS
 10
154.025
 20
-76.7
  1
網入り6.8t
 40
3.0
 72
     5
 11
170.7125
 21
-76.7
  0
TEXT
  7
TextStyle03
  8
文字
  6
CONTINUOUS
 10
160.7
 20
-81.375
  1
×６枚
 40
3.0
 72
     5
 11
170.45
 21
-81.375
  0
TEXT
  7
TextStyle03
  8
文字
  6
CONTINUOUS
 10
-143.575
 20
11.275
  1
アンカーピッチ
 40
3.0
 50
90.0
 72
     5
 11
-143.575
 21
34.525
  0
TEXT
  7
TextStyle03
  8
文字
  6
CONTINUOUS
 10
-109.075
 20
79.975
  1
アンカーピッチ
 40
3.0
 72
     5
 11
-85.825
 21
79.975
  0
TEXT
  7
TextStyle03
  8
文字
  6
CONTINUOUS
 10
-164.275
 20
78.075
  1
アンカー数量　２２ヶ所
 40
3.0
 72
     5
 11
-127.525
 21
78.075
  0
LINE
  8
文字
  6
CONTINUOUS
 10
144.379203
 20
56.453242
 11
144.379203
 21
47.100085
  0
LINE
  8
文字
  6
CONTINUOUS
 10
147.69587
 20
56.453242
 11
147.69587
 21
47.165438
  0
LINE
  8
文字
  6
CONTINUOUS
 10
91.12676
 20
-68.425565
 11
81.773603
 21
-68.425565
  0
LINE
  8
文字
  6
CONTINUOUS
 10
91.12676
 20
-71.742232
 11
81.838955
 21
-71.742232
  0
LINE
  8
文字
  6
CONTINUOUS
 10
172.574105
 20
-55.393898
 11
172.574105
 21
-62.650685
  0
LINE
  8
文字
  6
CONTINUOUS
 10
140.324105
 20
-55.393898
 11
140.324105
 21
-62.650685
  0
TEXT
  7
TextStyle03
  8
文字
  6
CONTINUOUS
 10
59.5
 20
125.25
  1
シリーズ：ＴＦ２ＦＫＬ
 40
5.0
 72
     5
 11
120.75
 21
125.25
  0
TEXT
  7
TextStyle03
  8
文字
  6
CONTINUOUS
 10
59.5
 20
119.625
  1
　　　　　（固定）600×6000タイプ
 40
5.0
 72
     5
 11
151.6875
 21
119.625
  0
TEXT
  7
TextStyle03
  8
文字
  6
CONTINUOUS
 10
59.5
 20
114.0
  1
図面名　：外観姿図
 40
5.0
 72
     5
 11
109.5
 21
114.0
  0
TEXT
  7
TextStyle03
  8
文字
  6
CONTINUOUS
 10
59.5
 20
108.375
  1
　　　　　　
 40
5.0
 72
     5
 11
92.625
 21
108.375
  0
INSERT
  2
*DIM_0002
  8
寸法
  6
CONTINUOUS
 10
0.0
 20
0.0
  0
INSERT
  2
*DIM_0003
  8
寸法
  6
CONTINUOUS
 10
0.0
 20
0.0
  0
INSERT
  2
*DIM_0004
  8
寸法
  6
CONTINUOUS
 10
0.0
 20
0.0
  0
INSERT
  2
*DIM_0005
  8
寸法
  6
CONTINUOUS
 10
0.0
 20
0.0
  0
INSERT
  2
*DIM_0006
  8
寸法
  6
CONTINUOUS
 10
0.0
 20
0.0
  0
INSERT
  2
*DIM_0007
  8
寸法
  6
CONTINUOUS
 10
0.0
 20
0.0
  0
INSERT
  2
*DIM_0008
  8
寸法
  6
CONTINUOUS
 10
0.0
 20
0.0
  0
INSERT
  2
*DIM_0009
  8
寸法
  6
CONTINUOUS
 10
0.0
 20
0.0
  0
INSERT
  2
*DIM_0010
  8
寸法
  6
CONTINUOUS
 10
0.0
 20
0.0
  0
INSERT
  2
*DIM_0011
  8
寸法
  6
CONTINUOUS
 10
0.0
 20
0.0
  0
INSERT
  2
*DIM_0012
  8
寸法
  6
CONTINUOUS
 10
0.0
 20
0.0
  0
INSERT
  2
*DIM_0013
  8
寸法
  6
CONTINUOUS
 10
0.0
 20
0.0
  0
INSERT
  2
*DIM_0014
  8
寸法
  6
CONTINUOUS
 10
0.0
 20
0.0
  0
INSERT
  2
*DIM_0015
  8
寸法
  6
CONTINUOUS
 10
0.0
 20
0.0
  0
INSERT
  2
*DIM_0016
  8
寸法
  6
CONTINUOUS
 10
0.0
 20
0.0
  0
INSERT
  2
*DIM_0017
  8
寸法
  6
CONTINUOUS
 10
0.0
 20
0.0
  0
INSERT
  2
*DIM_0018
  8
寸法
  6
CONTINUOUS
 10
0.0
 20
0.0
  0
INSERT
  2
*DIM_0019
  8
寸法
  6
CONTINUOUS
 10
0.0
 20
0.0
  0
LINE
  8
別途部材
  6
CONTINUOUS
 62
    47
 10
144.479203
 20
21.167572
 11
144.54587
 21
21.167572
  0
ARC
  8
別途部材
  6
CONTINUOUS
 62
    47
 10
144.479201
 20
21.267571
 40
0.1
 50
180.0
 51
270.0
  0
LINE
  8
別途部材
  6
CONTINUOUS
 62
    47
 10
144.379203
 20
21.267572
 11
144.379203
 21
21.324093
  0
LINE
  8
別途部材
  6
CONTINUOUS
 62
    47
 10
146.04587
 20
21.324093
 11
144.54587
 21
21.324093
  0
LINE
  8
別途部材
  6
CONTINUOUS
 62
    47
 10
144.479203
 20
44.460495
 11
144.54587
 21
44.460495
  0
ARC
  8
別途部材
  6
CONTINUOUS
 62
    47
 10
144.479201
 20
44.360495
 40
0.1
 50
90.0
 51
180.0
  0
LINE
  8
別途部材
  6
CONTINUOUS
 62
    47
 10
144.379203
 20
44.360495
 11
144.379203
 21
44.303973
  0
LINE
  8
別途部材
  6
CONTINUOUS
 62
    47
 10
146.04587
 20
44.303973
 11
144.54587
 21
44.303973
  0
LINE
  8
別途部材
  6
CONTINUOUS
 62
    47
 10
-124.15891
 20
-68.525565
 11
-124.15891
 21
-68.592232
  0
ARC
  8
別途部材
  6
CONTINUOUS
 62
    47
 10
-124.058913
 20
-68.525561
 40
0.1
 50
90.0
 51
180.0
  0
LINE
  8
別途部材
  6
CONTINUOUS
 62
    47
 10
-124.05891
 20
-68.425565
 11
-124.00239
 21
-68.425565
  0
LINE
  8
別途部材
  6
CONTINUOUS
 62
    47
 10
-124.00239
 20
-70.092232
 11
-124.00239
 21
-68.592232
  0
LINE
  8
別途部材
  6
CONTINUOUS
 62
    47
 10
79.134013
 20
-68.525565
 11
79.134013
 21
-68.592232
  0
ARC
  8
別途部材
  6
CONTINUOUS
 62
    47
 10
79.034012
 20
-68.525561
 40
0.1
 50
0.0
 51
90.0
  0
LINE
  8
別途部材
  6
CONTINUOUS
 62
    47
 10
79.034013
 20
-68.425565
 11
78.97749
 21
-68.425565
  0
LINE
  8
別途部材
  6
CONTINUOUS
 62
    47
 10
78.97749
 20
-70.092232
 11
78.97749
 21
-68.592232
  0
LINE
  8
曲げ物
  6
CONTINUOUS
 10
-103.719793
 20
34.739582
 11
-107.415105
 21
31.04427
  0
LINE
  8
曲げ物
  6
CONTINUOUS
 10
-104.423262
 20
33.203472
 11
-105.878993
 21
31.747742
  0
LINE
  8
曲げ物
  6
CONTINUOUS
 10
-105.255902
 20
34.036112
 11
-106.711632
 21
32.580383
  0
LINE
  8
曲げ物
  6
CONTINUOUS
 10
-70.883593
 20
34.739582
 11
-74.578905
 21
31.04427
  0
LINE
  8
曲げ物
  6
CONTINUOUS
 10
-71.587062
 20
33.203472
 11
-73.042792
 21
31.747742
  0
LINE
  8
曲げ物
  6
CONTINUOUS
 10
-72.419703
 20
34.036112
 11
-73.875432
 21
32.580383
  0
LINE
  8
曲げ物
  6
CONTINUOUS
 10
-36.56901
 20
34.739582
 11
-40.264322
 21
31.04427
  0
LINE
  8
曲げ物
  6
CONTINUOUS
 10
-37.27248
 20
33.203472
 11
-38.72821
 21
31.747742
  0
LINE
  8
曲げ物
  6
CONTINUOUS
 10
-38.10512
 20
34.036112
 11
-39.56085
 21
32.580383
  0
LINE
  8
曲げ物
  6
CONTINUOUS
 10
-4.926303
 20
34.739582
 11
-8.621615
 21
31.04427
  0
LINE
  8
曲げ物
  6
CONTINUOUS
 10
-5.629773
 20
33.203472
 11
-7.085502
 21
31.747742
  0
LINE
  8
曲げ物
  6
CONTINUOUS
 10
-6.462413
 20
34.036112
 11
-7.918142
 21
32.580383
  0
LINE
  8
曲げ物
  6
CONTINUOUS
 10
29.900783
 20
34.739582
 11
26.20547
 21
31.04427
  0
LINE
  8
曲げ物
  6
CONTINUOUS
 10
29.197313
 20
33.203472
 11
27.741583
 21
31.747742
  0
LINE
  8
曲げ物
  6
CONTINUOUS
 10
28.364673
 20
34.036112
 11
26.908943
 21
32.580383
  0
LINE
  8
曲げ物
  6
CONTINUOUS
 10
62.21328
 20
34.739582
 11
58.517967
 21
31.04427
  0
LINE
  8
曲げ物
  6
CONTINUOUS
 10
61.50981
 20
33.203472
 11
60.05408
 21
31.747742
  0
LINE
  8
曲げ物
  6
CONTINUOUS
 10
60.67717
 20
34.036112
 11
59.22144
 21
32.580383
  0
LINE
  8
曲げ物
  6
CONTINUOUS
 10
172.574105
 20
-83.118728
 11
172.574105
 21
-63.785395
  0
LINE
  8
曲げ物
  6
CONTINUOUS
 10
140.324105
 20
-83.118728
 11
140.324105
 21
-63.785395
  0
LINE
  8
曲げ物
  6
CONTINUOUS
 10
172.574105
 20
-63.785395
 11
140.324105
 21
-63.785395
  0
LINE
  8
曲げ物
  6
CONTINUOUS
 10
172.574105
 20
-83.118728
 11
140.324105
 21
-83.118728
  0
CIRCLE
  8
LAYER010
  6
CONTINUOUS
 62
    47
 10
147.195873
 20
19.814042
 40
0.011113
  0
CIRCLE
  8
LAYER010
  6
CONTINUOUS
 62
    47
 10
147.195873
 20
45.814025
 40
0.011113
  0
CIRCLE
  8
LAYER010
  6
CONTINUOUS
 62
    47
 10
-125.51244
 20
-71.242235
 40
0.011113
  0
CIRCLE
  8
LAYER010
  6
CONTINUOUS
 62
    47
 10
80.487543
 20
-71.242235
 40
0.011113
  0
ENDSEC
  0
EOF
