  0
SECTION
  2
HEADER
  9
$EXTMIN
 10
-210.0
 20
-148.5
  9
$EXTMAX
 10
210.0
 20
148.5
  9
$PDMODE
 70
    32
  9
$PDSIZE
 40
1.5
  9
$LTSCALE
 40
10.0
  0
ENDSEC
  0
SECTION
  2
TABLES
  0
TABLE
  2
LTYPE
 70
    15
  0
LTYPE
  2
CONTINUOUS
 70
    64
  3
実線
 72
    65
 73
     0
 40
0.0
  0
LTYPE
  2
DASHED
 70
    64
  3
破線A
 72
    65
 73
     2
 40
0.6
 49
0.4
 49
-0.2
  0
LTYPE
  2
DASHEDX2
 70
    64
  3
破線B
 72
    65
 73
     2
 40
1.3
 49
0.9
 49
-0.4
  0
LTYPE
  2
DASHDOT
 70
    64
  3
１点鎖線A
 72
    65
 73
     4
 40
0.5375
 49
0.375
 49
-0.05
 49
0.0625
 49
-0.05
  0
LTYPE
  2
DASHDOTX2
 70
    64
  3
１点鎖線B
 72
    65
 73
     4
 40
1.075
 49
0.75
 49
-0.1
 49
0.125
 49
-0.1
  0
LTYPE
  2
DIVIDE2
 70
    64
  3
２点鎖線A
 72
    65
 73
     6
 40
0.5125
 49
0.3
 49
-0.0375
 49
0.05
 49
-0.0375
 49
0.05
 49
-0.0375
  0
LTYPE
  2
DIVIDE
 70
    64
  3
２点鎖線B
 72
    65
 73
     6
 40
1.05
 49
0.55
 49
-0.1
 49
0.1
 49
-0.1
 49
0.1
 49
-0.1
  0
LTYPE
  2
DOT
 70
    64
  3
点線A
 72
    65
 73
     2
 40
0.1125
 49
0.0625
 49
-0.05
  0
LTYPE
  2
DOTX2
 70
    64
  3
点線B
 72
    65
 73
     2
 40
0.275
 49
0.15
 49
-0.125
  0
LTYPE
  2
CONTINUOUS
 70
    64
  3
実線
 72
    65
 73
     0
 40
0.0
  0
LTYPE
  2
CONTINUOUS
 70
    64
  3
実線
 72
    65
 73
     0
 40
0.0
  0
LTYPE
  2
CONTINUOUS
 70
    64
  3
実線
 72
    65
 73
     0
 40
0.0
  0
LTYPE
  2
CONTINUOUS
 70
    64
  3
実線
 72
    65
 73
     0
 40
0.0
  0
LTYPE
  2
CONTINUOUS
 70
    64
  3
実線
 72
    65
 73
     0
 40
0.0
  0
LTYPE
  2
CONTINUOUS
 70
    64
  3
実線
 72
    65
 73
     0
 40
0.0
  0
ENDTAB
  0
TABLE
  2
LAYER
 70
    35
  0
LAYER
  2
通り芯
 70
     0
 62
    15
  6
CONTINUOUS
  0
LAYER
  2
補助線
 70
     0
 62
    16
  6
DOT
  0
LAYER
  2
躯体
 70
     0
 62
    31
  6
CONTINUOUS
  0
LAYER
  2
型材
 70
     0
 62
    32
  6
CONTINUOUS
  0
LAYER
  2
型材断面
 70
     0
 62
    47
  6
CONTINUOUS
  0
LAYER
  2
ガラス
 70
     0
 62
    48
  6
CONTINUOUS
  0
LAYER
  2
ゴム等
 70
     0
 62
    63
  6
CONTINUOUS
  0
LAYER
  2
ボルト／ビス
 70
     0
 62
    64
  6
CONTINUOUS
  0
LAYER
  2
文字
 70
     0
 62
    79
  6
CONTINUOUS
  0
LAYER
  2
寸法
 70
     0
 62
    80
  6
CONTINUOUS
  0
LAYER
  2
ﾊｯﾁﾝｸﾞ
 70
     0
 62
    95
  6
CONTINUOUS
  0
LAYER
  2
別途部材
 70
     0
 62
    96
  6
CONTINUOUS
  0
LAYER
  2
曲げ物
 70
     0
 62
   111
  6
CONTINUOUS
  0
LAYER
  2
鉄骨等
 70
     0
 62
   112
  6
CONTINUOUS
  0
LAYER
  2
St
 70
     0
 62
   127
  6
CONTINUOUS
  0
LAYER
  2
その他部品等
 70
     0
 62
   128
  6
CONTINUOUS
  0
LAYER
  2
ｶﾞｽｹｯﾄ
 70
     0
 62
   143
  6
CONTINUOUS
  0
LAYER
  2
ｽｹｯﾁ
 70
     0
 62
    14
  6
CONTINUOUS
  0
LAYER
  2
0
 70
     0
 62
    17
  6
CONTINUOUS
  0
LAYER
  2
1
 70
     0
 62
    30
  6
CONTINUOUS
  0
LAYER
  2
4
 70
     0
 62
    33
  6
CONTINUOUS
  0
LAYER
  2
ﾚｲﾔ3
 70
     0
 62
    46
  6
CONTINUOUS
  0
LAYER
  2
外形線
 70
     0
 62
    49
  6
CONTINUOUS
  0
LAYER
  2
部品
 70
     0
 62
    14
  6
CONTINUOUS
  0
LAYER
  2
サッシ芯
 70
     0
 62
    17
  6
DASHDOTX2
  0
LAYER
  2
寸法線
 70
     0
 62
    62
  6
CONTINUOUS
  0
LAYER
  2
姿図外形線
 70
     0
 62
    65
  6
CONTINUOUS
  0
LAYER
  2
姿補助線
 70
     0
 62
    30
  6
CONTINUOUS
  0
LAYER
  2
透視線
 70
     0
 62
    78
  6
DOT
  0
LAYER
  2
用紙
 70
     0
 62
    81
  6
CONTINUOUS
  0
LAYER
  2
実線図枠
 70
     0
 62
    94
  6
CONTINUOUS
  0
LAYER
  2
補助図枠
 70
     0
 62
    97
  6
CONTINUOUS
  0
LAYER
  2
建具記号
 70
     0
 62
   110
  6
CONTINUOUS
  0
LAYER
  2
補助文字
 70
     0
 62
   113
  6
CONTINUOUS
  0
LAYER
  2
LAYER010
 70
     0
 62
    11
  6
CONTINUOUS
  0
ENDTAB
  0
TABLE
  2
STYLE
 70
    10
  0
STYLE
  2
STANDARD
 70
     0
 40
1.0
 41
1.0
 42
1.0
 50
0.0
 71
     0
  3
TXT
  4
BIGFONT
  0
STYLE
  2
TATE
 70
     4
 40
1.0
 41
1.0
 42
1.0
 50
0.0
 71
     0
  3
TXT
  4
BIGFONT
  0
STYLE
  2
TextStyle03
 70
     0
 40
1.0
 41
1.0
 42
1.0
 50
0.0
 71
     0
  3
MONOTXT
  4
BIGFONT
  0
STYLE
  2
TextStyle04
 70
     0
 40
1.0
 41
1.0
 42
1.0
 50
0.0
 71
     0
  3
MONOTXT
  4
BIGFONT
  0
STYLE
  2
TextStyle05
 70
     0
 40
1.0
 41
1.0
 42
1.0
 50
0.0
 71
     0
  3
MONOTXT
  4
BIGFONT
  0
STYLE
  2
TextStyle06
 70
     0
 40
1.0
 41
1.0
 42
1.0
 50
0.0
 71
     0
  3
MONOTXT
  4
BIGFONT
  0
STYLE
  2
TextStyle07
 70
     0
 40
1.0
 41
1.0
 42
1.0
 50
0.0
 71
     0
  3
MONOTXT
  4
BIGFONT
  0
STYLE
  2
TextStyle08
 70
     0
 40
1.0
 41
1.0
 42
1.0
 50
0.0
 71
     0
  3
MONOTXT
  4
BIGFONT
  0
STYLE
  2
TextStyle09
 70
     0
 40
1.0
 41
1.0
 42
1.0
 50
0.0
 71
     0
  3
MONOTXT
  4
BIGFONT
  0
STYLE
  2
TextStyle10
 70
     0
 40
1.0
 41
1.0
 42
1.0
 50
0.0
 71
     0
  3
MONOTXT
  4
BIGFONT
  0
ENDTAB
  0
ENDSEC
  0
SECTION
  2
BLOCKS
  0
BLOCK
  2
*GRP_0001
 70
    65
 10
0.0
 20
0.0
  0
LINE
  8
型材断面
  6
CONTINUOUS
 10
195.0
 20
133.5
 11
195.0
 21
-133.5
  0
LINE
  8
型材断面
  6
CONTINUOUS
 10
195.0
 20
-133.5
 11
-185.0
 21
-133.5
  0
LINE
  8
型材断面
  6
CONTINUOUS
 10
-185.0
 20
-133.5
 11
-185.0
 21
133.5
  0
LINE
  8
型材断面
  6
CONTINUOUS
 10
195.0
 20
133.5
 11
-185.0
 21
133.5
  0
LINE
  8
型材断面
  6
CONTINUOUS
 10
145.0
 20
-133.5
 11
145.0
 21
-118.5
  0
LINE
  8
型材断面
  6
CONTINUOUS
 10
195.0
 20
-118.5
 11
145.0
 21
-118.5
  0
ENDBLK
  0
BLOCK
  2
*DIM_0002
 70
    65
 10
0.0
 20
0.0
  0
LINE
  8
寸法
  6
BYBLOCK
 62
     0
 10
46.224393
 20
-13.121378
 11
-120.442275
 21
-13.121378
  0
POINT
  8
寸法
 62
     0
 10
46.224393
 20
-13.121378
  0
POINT
  8
寸法
 62
     0
 10
-120.442275
 20
-13.121378
  0
TEXT
  7
TextStyle03
  8
寸法
  6
CONTINUOUS
 62
     0
 10
-48.84375
 20
-12.75
  1
呼称寸法　5000
 40
3.0
 72
     5
 11
-25.40625
 21
-12.75
  0
ENDBLK
  0
BLOCK
  2
*DIM_0003
 70
    65
 10
0.0
 20
0.0
  0
LINE
  8
寸法
  6
BYBLOCK
 62
     0
 10
-103.775608
 20
19.183902
 11
-103.775608
 21
14.041447
  0
LINE
  8
寸法
  6
BYBLOCK
 62
     0
 10
-37.10894
 20
19.183905
 11
-37.10894
 21
14.041447
  0
LINE
  8
寸法
  6
BYBLOCK
 62
     0
 10
-103.775608
 20
14.041447
 11
-37.10894
 21
14.041447
  0
POINT
  8
寸法
 62
     0
 10
-103.775608
 20
14.041447
  0
POINT
  8
寸法
 62
     0
 10
-37.10894
 20
14.041447
  0
TEXT
  7
TextStyle03
  8
寸法
  6
CONTINUOUS
 62
     0
 10
-73.73125
 20
14.4
  1
2000
 40
3.0
 72
     5
 11
-67.16875
 21
14.4
  0
ENDBLK
  0
BLOCK
  2
*DIM_0004
 70
    65
 10
0.0
 20
0.0
  0
LINE
  8
寸法
  6
BYBLOCK
 62
     0
 10
29.557727
 20
19.183902
 11
29.557727
 21
14.041447
  0
LINE
  8
寸法
  6
BYBLOCK
 62
     0
 10
-37.10894
 20
14.041447
 11
29.557727
 21
14.041447
  0
POINT
  8
寸法
 62
     0
 10
29.557727
 20
14.041447
  0
TEXT
  7
TextStyle03
  8
寸法
  6
CONTINUOUS
 62
     0
 10
-7.08125
 20
14.4
  1
2000
 40
3.0
 72
     5
 11
-0.51875
 21
14.4
  0
ENDBLK
  0
BLOCK
  2
*DIM_0005
 70
    65
 10
0.0
 20
0.0
  0
LINE
  8
寸法
  6
BYBLOCK
 62
     0
 10
49.22444
 20
-69.576397
 11
49.22444
 21
-13.121378
  0
LINE
  8
寸法
  6
BYBLOCK
 62
     0
 10
46.224393
 20
-13.121378
 11
49.22444
 21
-13.121378
  0
POINT
  8
寸法
 62
     0
 10
46.224393
 20
-13.121378
  0
POINT
  8
寸法
 62
     0
 10
49.22444
 20
-13.121378
  0
TEXT
  7
TextStyle03
  8
寸法
  6
CONTINUOUS
 62
     0
 10
46.10625
 20
-12.75
  1
90
 40
3.0
 72
     5
 11
49.29375
 21
-12.75
  0
ENDBLK
  0
BLOCK
  2
*DIM_0006
 70
    65
 10
0.0
 20
0.0
  0
LINE
  8
寸法
  6
BYBLOCK
 62
     0
 10
-123.44232
 20
-69.576397
 11
-123.44232
 21
-13.121378
  0
LINE
  8
寸法
  6
BYBLOCK
 62
     0
 10
-120.442273
 20
-13.121378
 11
-123.44232
 21
-13.121378
  0
POINT
  8
寸法
 62
     0
 10
-120.442273
 20
-13.121378
  0
POINT
  8
寸法
 62
     0
 10
-123.44232
 20
-13.121378
  0
TEXT
  7
TextStyle03
  8
寸法
  6
CONTINUOUS
 62
     0
 10
-123.54375
 20
-12.75
  1
90
 40
3.0
 72
     5
 11
-120.35625
 21
-12.75
  0
ENDBLK
  0
BLOCK
  2
*DIM_0007
 70
    65
 10
0.0
 20
0.0
  0
LINE
  8
寸法
  6
BYBLOCK
 62
     0
 10
142.310947
 20
-63.785395
 11
150.422478
 21
-63.785395
  0
LINE
  8
寸法
  6
BYBLOCK
 62
     0
 10
142.310947
 20
-83.118728
 11
150.422478
 21
-83.118728
  0
LINE
  8
寸法
  6
BYBLOCK
 62
     0
 10
150.422478
 20
-63.785395
 11
150.422478
 21
-83.118728
  0
POINT
  8
寸法
 62
     0
 10
150.422478
 20
-63.785395
  0
POINT
  8
寸法
 62
     0
 10
150.422478
 20
-83.118728
  0
TEXT
  7
TextStyle03
  8
寸法
  6
CONTINUOUS
 62
     0
 10
150.025
 20
-75.9125
  1
580
 40
3.0
 50
90.0
 72
     5
 11
150.025
 21
-71.0375
  0
ENDBLK
  0
BLOCK
  2
*DIM_0008
 70
    65
 10
0.0
 20
0.0
  0
LINE
  8
寸法
  6
BYBLOCK
 62
     0
 10
-123.442275
 20
39.4807
 11
-136.735113
 21
39.4807
  0
LINE
  8
寸法
  6
BYBLOCK
 62
     0
 10
-123.442275
 20
26.147365
 11
-136.735113
 21
26.147365
  0
LINE
  8
寸法
  6
BYBLOCK
 62
     0
 10
-136.735113
 20
39.4807
 11
-136.735113
 21
26.147365
  0
POINT
  8
寸法
 62
     0
 10
-136.735113
 20
39.4807
  0
POINT
  8
寸法
 62
     0
 10
-136.735113
 20
26.147365
  0
TEXT
  7
TextStyle03
  8
寸法
  6
CONTINUOUS
 62
     0
 10
-137.15
 20
30.3625
  1
400
 40
3.0
 50
90.0
 72
     5
 11
-137.15
 21
35.2375
  0
ENDBLK
  0
BLOCK
  2
*DIM_0009
 70
    65
 10
0.0
 20
0.0
  0
LINE
  8
寸法
  6
BYBLOCK
 62
     0
 10
-112.10894
 20
45.814033
 11
-112.10894
 21
74.922105
  0
LINE
  8
寸法
  6
BYBLOCK
 62
     0
 10
-87.10894
 20
45.814033
 11
-87.10894
 21
74.922105
  0
LINE
  8
寸法
  6
BYBLOCK
 62
     0
 10
-112.10894
 20
74.922105
 11
-87.10894
 21
74.922105
  0
POINT
  8
寸法
 62
     0
 10
-112.10894
 20
74.922105
  0
POINT
  8
寸法
 62
     0
 10
-87.10894
 20
74.922105
  0
TEXT
  7
TextStyle03
  8
寸法
  6
CONTINUOUS
 62
     0
 10
-102.0625
 20
75.3
  1
750
 40
3.0
 72
     5
 11
-97.1875
 21
75.3
  0
ENDBLK
  0
BLOCK
  2
*DIM_0010
 70
    65
 10
0.0
 20
0.0
  0
LINE
  8
寸法
  6
BYBLOCK
 62
     0
 10
-62.10894
 20
45.814033
 11
-62.10894
 21
74.922105
  0
LINE
  8
寸法
  6
BYBLOCK
 62
     0
 10
-87.10894
 20
74.922105
 11
-62.10894
 21
74.922105
  0
POINT
  8
寸法
 62
     0
 10
-62.10894
 20
74.922105
  0
TEXT
  7
TextStyle03
  8
寸法
  6
CONTINUOUS
 62
     0
 10
-77.0625
 20
75.3
  1
750
 40
3.0
 72
     5
 11
-72.1875
 21
75.3
  0
ENDBLK
  0
BLOCK
  2
*DIM_0011
 70
    65
 10
0.0
 20
0.0
  0
LINE
  8
寸法
  6
BYBLOCK
 62
     0
 10
-37.10894
 20
45.814033
 11
-37.10894
 21
74.922105
  0
LINE
  8
寸法
  6
BYBLOCK
 62
     0
 10
-62.10894
 20
74.922105
 11
-37.10894
 21
74.922105
  0
POINT
  8
寸法
 62
     0
 10
-37.10894
 20
74.922105
  0
TEXT
  7
TextStyle03
  8
寸法
  6
CONTINUOUS
 62
     0
 10
-52.0625
 20
75.3
  1
750
 40
3.0
 72
     5
 11
-47.1875
 21
75.3
  0
ENDBLK
  0
BLOCK
  2
*DIM_0012
 70
    65
 10
0.0
 20
0.0
  0
LINE
  8
寸法
  6
BYBLOCK
 62
     0
 10
-12.10894
 20
45.814033
 11
-12.10894
 21
74.922105
  0
LINE
  8
寸法
  6
BYBLOCK
 62
     0
 10
-37.10894
 20
74.922105
 11
-12.10894
 21
74.922105
  0
POINT
  8
寸法
 62
     0
 10
-12.10894
 20
74.922105
  0
TEXT
  7
TextStyle03
  8
寸法
  6
CONTINUOUS
 62
     0
 10
-27.0625
 20
75.3
  1
750
 40
3.0
 72
     5
 11
-22.1875
 21
75.3
  0
ENDBLK
  0
BLOCK
  2
*DIM_0013
 70
    65
 10
0.0
 20
0.0
  0
LINE
  8
寸法
  6
BYBLOCK
 62
     0
 10
12.89106
 20
45.814033
 11
12.89106
 21
74.922105
  0
LINE
  8
寸法
  6
BYBLOCK
 62
     0
 10
-12.10894
 20
74.922105
 11
12.89106
 21
74.922105
  0
POINT
  8
寸法
 62
     0
 10
12.89106
 20
74.922105
  0
TEXT
  7
TextStyle03
  8
寸法
  6
CONTINUOUS
 62
     0
 10
-2.0625
 20
75.3
  1
750
 40
3.0
 72
     5
 11
2.8125
 21
75.3
  0
ENDBLK
  0
BLOCK
  2
*DIM_0014
 70
    65
 10
0.0
 20
0.0
  0
LINE
  8
寸法
  6
BYBLOCK
 62
     0
 10
37.89106
 20
45.814033
 11
37.89106
 21
74.922105
  0
LINE
  8
寸法
  6
BYBLOCK
 62
     0
 10
12.89106
 20
74.922105
 11
37.89106
 21
74.922105
  0
POINT
  8
寸法
 62
     0
 10
37.89106
 20
74.922105
  0
TEXT
  7
TextStyle03
  8
寸法
  6
CONTINUOUS
 62
     0
 10
22.9375
 20
75.3
  1
750
 40
3.0
 72
     5
 11
27.8125
 21
75.3
  0
ENDBLK
  0
BLOCK
  2
*DIM_0015
 70
    65
 10
0.0
 20
0.0
  0
LINE
  8
寸法
  6
CONTINUOUS
 10
113.116045
 20
56.453242
 11
116.432712
 21
56.453242
  0
POINT
  8
寸法
 10
113.116045
 20
56.453242
  0
POINT
  8
寸法
 10
116.432712
 20
56.453242
  0
TEXT
  7
TextStyle03
  8
寸法
  6
CONTINUOUS
 10
111.34375
 20
56.625
  1
99.5
 40
3.0
 72
     5
 11
117.90625
 21
56.625
  0
ENDBLK
  0
BLOCK
  2
*DIM_0016
 70
    65
 10
0.0
 20
0.0
  0
LINE
  8
寸法
  6
CONTINUOUS
 10
59.863602
 20
-68.229505
 11
59.863602
 21
-71.546173
  0
POINT
  8
寸法
 10
59.863602
 20
-68.229505
  0
POINT
  8
寸法
 10
59.863602
 20
-71.546173
  0
TEXT
  7
TextStyle03
  8
寸法
  6
CONTINUOUS
 10
63.0
 20
-73.10625
  1
99.5
 40
3.0
 50
90.0
 72
     5
 11
63.0
 21
-66.54375
  0
ENDBLK
  0
BLOCK
  2
*DIM_0017
 70
    65
 10
0.0
 20
0.0
  0
LINE
  8
寸法
  6
CONTINUOUS
 10
141.310947
 20
-55.545172
 11
109.04428
 21
-55.545172
  0
POINT
  8
寸法
 10
141.310947
 20
-55.545172
  0
POINT
  8
寸法
 10
109.04428
 20
-55.545172
  0
TEXT
  7
TextStyle03
  8
寸法
  6
CONTINUOUS
 10
122.7375
 20
-55.175
  1
968
 40
3.0
 72
     5
 11
127.6125
 21
-55.175
  0
ENDBLK
  0
ENDSEC
  0
SECTION
  2
ENTITIES
  0
POLYLINE
  8
通り芯
  6
CONTINUOUS
 66
     1
 70
     1
  0
VERTEX
  8
通り芯
 10
-210.0
 20
-148.5
  0
VERTEX
  8
通り芯
 10
210.0
 20
-148.5
  0
VERTEX
  8
通り芯
 10
210.0
 20
148.5
  0
VERTEX
  8
通り芯
 10
-210.0
 20
148.5
  0
SEQEND
  0
INSERT
  2
*GRP_0001
  8
型材断面
  6
CONTINUOUS
 10
0.0
 20
0.0
  0
LINE
  8
型材断面
  6
DASHDOT
 10
46.224393
 20
-77.836442
 11
46.224393
 21
42.814033
  0
LINE
  8
型材断面
  6
DASHDOT
 10
-37.10894
 20
-77.836442
 11
-37.10894
 21
42.814033
  0
LINE
  8
型材断面
  6
DASHDOT
 10
-120.442275
 20
-77.836442
 11
-120.442275
 21
42.814033
  0
LINE
  8
型材断面
  6
CONTINUOUS
 10
-103.775608
 20
45.444162
 11
-105.271238
 21
48.03467
  0
LINE
  8
型材断面
  6
CONTINUOUS
 10
-103.775608
 20
45.444162
 11
-102.279978
 21
48.03467
  0
LINE
  8
型材断面
  6
CONTINUOUS
 10
-102.279978
 20
48.03467
 11
-105.271238
 21
48.03467
  0
LINE
  8
型材断面
  6
CONTINUOUS
 10
-161.294482
 20
87.32138
 11
-162.790113
 21
84.730873
  0
LINE
  8
型材断面
  6
CONTINUOUS
 10
-161.294482
 20
87.32138
 11
-159.798852
 21
84.730873
  0
LINE
  8
型材断面
  6
CONTINUOUS
 10
-159.798852
 20
84.730873
 11
-162.790113
 21
84.730873
  0
LINE
  8
型材断面
  6
CONTINUOUS
 10
-167.31707
 20
83.792277
 11
-121.075292
 21
83.792277
  0
LINE
  8
型材断面
  6
CONTINUOUS
 10
-123.072405
 20
32.814033
 11
-125.662913
 21
34.309663
  0
LINE
  8
型材断面
  6
CONTINUOUS
 10
-123.072405
 20
32.814033
 11
-125.662913
 21
31.318403
  0
LINE
  8
型材断面
  6
CONTINUOUS
 10
-125.662913
 20
31.318403
 11
-125.662913
 21
34.309663
  0
LINE
  8
型材断面
  6
CONTINUOUS
 10
-103.775608
 20
20.183902
 11
-105.271238
 21
17.593395
  0
LINE
  8
型材断面
  6
CONTINUOUS
 10
-103.775608
 20
20.183902
 11
-102.279978
 21
17.593395
  0
LINE
  8
型材断面
  6
CONTINUOUS
 10
-102.279978
 20
17.593395
 11
-105.271238
 21
17.593395
  0
LINE
  8
型材断面
  6
CONTINUOUS
 10
29.557727
 20
45.444162
 11
31.053357
 21
48.03467
  0
LINE
  8
型材断面
  6
CONTINUOUS
 10
29.557727
 20
45.444162
 11
28.062097
 21
48.03467
  0
LINE
  8
型材断面
  6
CONTINUOUS
 10
28.062097
 20
48.03467
 11
31.053357
 21
48.03467
  0
LINE
  8
型材断面
  6
CONTINUOUS
 10
48.854525
 20
32.814033
 11
51.445032
 21
34.309663
  0
LINE
  8
型材断面
  6
CONTINUOUS
 10
48.854525
 20
32.814033
 11
51.445032
 21
31.318403
  0
LINE
  8
型材断面
  6
CONTINUOUS
 10
51.445032
 20
31.318403
 11
51.445032
 21
34.309663
  0
LINE
  8
型材断面
  6
CONTINUOUS
 10
29.557727
 20
20.183902
 11
31.053357
 21
17.593395
  0
LINE
  8
型材断面
  6
CONTINUOUS
 10
29.557727
 20
20.183902
 11
28.062097
 21
17.593395
  0
LINE
  8
型材断面
  6
CONTINUOUS
 10
28.062097
 20
17.593395
 11
31.053357
 21
17.593395
  0
LINE
  8
型材断面
  6
CONTINUOUS
 10
-37.10894
 20
45.44416
 11
-35.61331
 21
48.034668
  0
LINE
  8
型材断面
  6
CONTINUOUS
 10
-37.10894
 20
45.44416
 11
-38.60457
 21
48.034668
  0
LINE
  8
型材断面
  6
CONTINUOUS
 10
-38.60457
 20
48.034668
 11
-35.61331
 21
48.034668
  0
LINE
  8
型材断面
  6
CONTINUOUS
 10
-37.10894
 20
20.1839
 11
-35.61331
 21
17.593392
  0
LINE
  8
型材断面
  6
CONTINUOUS
 10
-37.10894
 20
20.1839
 11
-38.60457
 21
17.593392
  0
LINE
  8
型材断面
  6
CONTINUOUS
 10
-38.60457
 20
17.593392
 11
-35.61331
 21
17.593392
  0
LINE
  8
型材断面
  6
CONTINUOUS
 10
-167.31707
 20
77.65944
 11
-121.075292
 21
77.65944
  0
LINE
  8
型材断面
  6
CONTINUOUS
 10
-123.442322
 20
19.81399
 11
-37.10894
 21
19.81399
  0
LINE
  8
型材断面
  6
CONTINUOUS
 10
-123.442322
 20
45.814075
 11
-37.10894
 21
45.814075
  0
LINE
  8
型材断面
  6
CONTINUOUS
 10
49.224443
 20
45.814075
 11
-37.10894
 21
45.814075
  0
LINE
  8
型材断面
  6
CONTINUOUS
 10
49.224443
 20
19.81399
 11
-37.10894
 21
19.81399
  0
LINE
  8
型材断面
  6
CONTINUOUS
 10
116.932712
 20
20.313977
 11
116.932712
 21
32.814033
  0
CIRCLE
  8
型材断面
  6
CONTINUOUS
 62
    47
 10
115.932715
 20
19.814042
 40
0.011113
  0
LINE
  8
型材断面
  6
CONTINUOUS
 62
    47
 10
116.432712
 20
20.314033
 11
116.432712
 21
19.814042
  0
LINE
  8
型材断面
  6
CONTINUOUS
 62
    47
 10
116.432712
 20
19.814042
 11
115.932715
 21
19.814042
  0
LINE
  8
型材断面
  6
CONTINUOUS
 62
    47
 10
115.932715
 20
19.814042
 11
115.435535
 21
22.747372
  0
LINE
  8
型材断面
  6
CONTINUOUS
 62
    47
 10
116.432712
 20
20.314033
 11
116.932712
 21
20.314033
  0
LINE
  8
型材断面
  6
CONTINUOUS
 10
115.435535
 20
22.74732
 11
115.435535
 21
32.814033
  0
LINE
  8
型材断面
  6
CONTINUOUS
 62
    47
 10
114.782712
 20
21.324093
 11
114.782712
 21
32.814033
  0
LINE
  8
型材断面
  6
CONTINUOUS
 62
    47
 10
113.282712
 20
21.167572
 11
113.282712
 21
32.814033
  0
LINE
  8
型材断面
  6
CONTINUOUS
 62
    47
 10
113.116045
 20
21.324093
 11
113.116045
 21
32.814033
  0
LINE
  8
型材断面
  6
CONTINUOUS
 10
115.932718
 20
19.813988
 11
115.932718
 21
32.814033
  0
LINE
  8
型材断面
  6
CONTINUOUS
 62
    47
 10
116.432712
 20
19.813988
 11
116.432712
 21
32.814033
  0
LINE
  8
型材断面
  6
CONTINUOUS
 62
    47
 10
115.435535
 20
22.747372
 11
114.782712
 21
22.747372
  0
LINE
  8
型材断面
  6
CONTINUOUS
 10
116.932712
 20
45.314087
 11
116.932712
 21
32.814033
  0
CIRCLE
  8
型材断面
  6
CONTINUOUS
 62
    47
 10
115.932715
 20
45.814025
 40
0.011113
  0
LINE
  8
型材断面
  6
CONTINUOUS
 62
    47
 10
116.432712
 20
45.314033
 11
116.432712
 21
45.814025
  0
LINE
  8
型材断面
  6
CONTINUOUS
 62
    47
 10
116.432712
 20
45.814025
 11
115.932715
 21
45.814025
  0
LINE
  8
型材断面
  6
CONTINUOUS
 62
    47
 10
115.932715
 20
45.814025
 11
115.435535
 21
42.880693
  0
LINE
  8
型材断面
  6
CONTINUOUS
 62
    47
 10
116.432712
 20
45.314033
 11
116.932712
 21
45.314033
  0
LINE
  8
型材断面
  6
CONTINUOUS
 10
115.435535
 20
42.880747
 11
115.435535
 21
32.814033
  0
LINE
  8
型材断面
  6
CONTINUOUS
 62
    47
 10
114.782712
 20
44.303973
 11
114.782712
 21
32.814033
  0
LINE
  8
型材断面
  6
CONTINUOUS
 62
    47
 10
113.282712
 20
44.460495
 11
113.282712
 21
32.814033
  0
LINE
  8
型材断面
  6
CONTINUOUS
 62
    47
 10
113.116045
 20
44.303973
 11
113.116045
 21
32.814033
  0
LINE
  8
型材断面
  6
CONTINUOUS
 10
115.932718
 20
45.814077
 11
115.932718
 21
32.814033
  0
LINE
  8
型材断面
  6
CONTINUOUS
 62
    47
 10
116.432712
 20
45.814077
 11
116.432712
 21
32.814033
  0
LINE
  8
型材断面
  6
CONTINUOUS
 62
    47
 10
115.435535
 20
42.880693
 11
114.782712
 21
42.880693
  0
CIRCLE
  8
型材断面
  6
CONTINUOUS
 62
    47
 10
-123.442265
 20
-71.046175
 40
0.011113
  0
LINE
  8
型材断面
  6
CONTINUOUS
 62
    47
 10
-122.942273
 20
-71.546173
 11
-123.442265
 21
-71.546173
  0
LINE
  8
型材断面
  6
CONTINUOUS
 62
    47
 10
-123.442265
 20
-71.546173
 11
-123.442265
 21
-71.046175
  0
LINE
  8
型材断面
  6
CONTINUOUS
 62
    47
 10
-123.442265
 20
-71.046175
 11
-120.508932
 21
-70.548995
  0
LINE
  8
型材断面
  6
CONTINUOUS
 62
    47
 10
-122.942273
 20
-71.546173
 11
-122.942273
 21
-72.046173
  0
LINE
  8
型材断面
  6
CONTINUOUS
 62
    47
 10
-120.508932
 20
-70.548995
 11
-120.508932
 21
-69.89617
  0
CIRCLE
  8
型材断面
  6
CONTINUOUS
 62
    47
 10
49.224385
 20
-71.046175
 40
0.011113
  0
LINE
  8
型材断面
  6
CONTINUOUS
 62
    47
 10
48.724393
 20
-71.546173
 11
49.224385
 21
-71.546173
  0
LINE
  8
型材断面
  6
CONTINUOUS
 62
    47
 10
49.224385
 20
-71.546173
 11
49.224385
 21
-71.046175
  0
LINE
  8
型材断面
  6
CONTINUOUS
 62
    47
 10
49.224385
 20
-71.046175
 11
46.291052
 21
-70.548995
  0
LINE
  8
型材断面
  6
CONTINUOUS
 62
    47
 10
48.724393
 20
-71.546173
 11
48.724393
 21
-72.046173
  0
LINE
  8
型材断面
  6
CONTINUOUS
 62
    47
 10
46.291052
 20
-70.548995
 11
46.291052
 21
-69.89617
  0
LINE
  8
型材断面
  6
CONTINUOUS
 62
    47
 10
-123.442317
 20
-71.546173
 11
-37.10894
 21
-71.546173
  0
LINE
  8
型材断面
  6
CONTINUOUS
 10
-120.508987
 20
-70.548995
 11
-37.10894
 21
-70.548995
  0
LINE
  8
型材断面
  6
CONTINUOUS
 62
    47
 10
-121.932212
 20
-68.229505
 11
-37.10894
 21
-68.229505
  0
LINE
  8
型材断面
  6
CONTINUOUS
 62
    47
 10
-122.088735
 20
-68.39617
 11
-37.10894
 21
-68.39617
  0
LINE
  8
型材断面
  6
CONTINUOUS
 62
    47
 10
-121.932212
 20
-69.89617
 11
-37.10894
 21
-69.89617
  0
LINE
  8
型材断面
  6
CONTINUOUS
 10
-122.942328
 20
-72.046173
 11
-37.10894
 21
-72.046173
  0
LINE
  8
型材断面
  6
CONTINUOUS
 10
-123.442317
 20
-71.046175
 11
-37.10894
 21
-71.046175
  0
LINE
  8
型材断面
  6
CONTINUOUS
 62
    47
 10
49.224438
 20
-71.546173
 11
-37.10894
 21
-71.546173
  0
LINE
  8
型材断面
  6
CONTINUOUS
 10
49.224438
 20
-71.046175
 11
-37.10894
 21
-71.046175
  0
LINE
  8
型材断面
  6
CONTINUOUS
 62
    47
 10
47.714332
 20
-68.229505
 11
-37.10894
 21
-68.229505
  0
LINE
  8
型材断面
  6
CONTINUOUS
 62
    47
 10
47.870855
 20
-68.39617
 11
-37.10894
 21
-68.39617
  0
LINE
  8
型材断面
  6
CONTINUOUS
 62
    47
 10
47.714332
 20
-69.89617
 11
-37.10894
 21
-69.89617
  0
LINE
  8
型材断面
  6
CONTINUOUS
 10
48.724447
 20
-72.046173
 11
-37.10894
 21
-72.046173
  0
LINE
  8
型材断面
  6
CONTINUOUS
 10
46.291107
 20
-70.548995
 11
-37.10894
 21
-70.548995
  0
LINE
  8
型材断面
  6
DASHDOT
 10
123.908722
 20
22.814033
 11
-120.442275
 21
22.814033
  0
LINE
  8
型材断面
  6
DASHDOT
 10
123.908722
 20
32.814033
 11
-120.442275
 21
32.814033
  0
LINE
  8
型材断面
  6
DASHDOT
 10
123.908722
 20
42.814033
 11
-120.442275
 21
42.814033
  0
LINE
  8
型材断面
  6
DASHDOT
 10
-87.25894
 20
22.814033
 11
-87.25894
 21
42.814033
  0
LINE
  8
型材断面
  6
DASHDOT
 10
-53.825605
 20
22.814033
 11
-53.825605
 21
42.814033
  0
LINE
  8
型材断面
  6
DASHDOT
 10
13.04106
 20
22.814033
 11
13.04106
 21
42.814033
  0
LINE
  8
型材断面
  6
DASHDOT
 10
-20.392275
 20
22.814033
 11
-20.392275
 21
42.814033
  0
LINE
  8
型材断面
  6
CONTINUOUS
 10
-3.25894
 20
41.960495
 11
29.216057
 21
41.960495
  0
LINE
  8
型材断面
  6
CONTINUOUS
 10
-3.25894
 20
23.66757
 11
29.216057
 21
23.66757
  0
LINE
  8
型材断面
  6
CONTINUOUS
 10
-36.692275
 20
23.66757
 11
-4.092275
 21
23.66757
  0
LINE
  8
型材断面
  6
CONTINUOUS
 10
-36.692275
 20
41.960495
 11
-4.092275
 21
41.960495
  0
LINE
  8
型材断面
  6
CONTINUOUS
 10
-70.125605
 20
41.960495
 11
-37.52561
 21
41.960495
  0
LINE
  8
型材断面
  6
CONTINUOUS
 10
-70.125605
 20
23.66757
 11
-37.52561
 21
23.66757
  0
LINE
  8
型材断面
  6
CONTINUOUS
 10
-103.433937
 20
23.66757
 11
-70.95894
 21
23.66757
  0
LINE
  8
型材断面
  6
CONTINUOUS
 10
-103.433937
 20
41.960495
 11
-70.95894
 21
41.960495
  0
LINE
  8
型材断面
  6
CONTINUOUS
 10
14.29106
 20
24.500902
 11
11.79106
 21
24.500902
  0
LINE
  8
型材断面
  6
CONTINUOUS
 10
14.29106
 20
41.127162
 11
11.79106
 21
41.127162
  0
LINE
  8
型材断面
  6
CONTINUOUS
 10
14.29106
 20
24.500902
 11
14.29106
 21
41.127162
  0
LINE
  8
型材断面
  6
CONTINUOUS
 10
11.79106
 20
24.500902
 11
11.79106
 21
41.127162
  0
LINE
  8
型材断面
  6
CONTINUOUS
 10
-19.142275
 20
24.500902
 11
-21.642275
 21
24.500902
  0
LINE
  8
型材断面
  6
CONTINUOUS
 10
-19.142275
 20
41.127162
 11
-21.642275
 21
41.127162
  0
LINE
  8
型材断面
  6
CONTINUOUS
 10
-19.142275
 20
24.500902
 11
-19.142275
 21
41.127162
  0
LINE
  8
型材断面
  6
CONTINUOUS
 10
-21.642275
 20
24.500902
 11
-21.642275
 21
41.127162
  0
LINE
  8
型材断面
  6
CONTINUOUS
 10
-88.50894
 20
24.500902
 11
-86.00894
 21
24.500902
  0
LINE
  8
型材断面
  6
CONTINUOUS
 10
-88.50894
 20
41.127162
 11
-86.00894
 21
41.127162
  0
LINE
  8
型材断面
  6
CONTINUOUS
 10
-88.50894
 20
24.500902
 11
-88.50894
 21
41.127162
  0
LINE
  8
型材断面
  6
CONTINUOUS
 10
-86.00894
 20
24.500902
 11
-86.00894
 21
41.127162
  0
LINE
  8
型材断面
  6
CONTINUOUS
 10
-55.075605
 20
24.500902
 11
-52.575605
 21
24.500902
  0
LINE
  8
型材断面
  6
CONTINUOUS
 10
-55.075605
 20
41.127162
 11
-52.575605
 21
41.127162
  0
LINE
  8
型材断面
  6
CONTINUOUS
 10
-55.075605
 20
24.500902
 11
-55.075605
 21
41.127162
  0
LINE
  8
型材断面
  6
CONTINUOUS
 10
-52.575605
 20
24.500902
 11
-52.575605
 21
41.127162
  0
LINE
  8
型材断面
  6
CONTINUOUS
 10
49.22444
 20
45.814075
 11
49.22444
 21
32.81403
  0
LINE
  8
型材断面
  6
CONTINUOUS
 10
49.22444
 20
19.81399
 11
49.22444
 21
32.814035
  0
LINE
  8
型材断面
  6
CONTINUOUS
 10
45.370852
 20
32.397365
 11
47.870852
 21
32.397365
  0
LINE
  8
型材断面
  6
CONTINUOUS
 10
45.370852
 20
33.2307
 11
47.870852
 21
33.2307
  0
LINE
  8
型材断面
  6
CONTINUOUS
 10
47.635155
 20
21.16752
 11
47.870855
 21
21.40322
  0
LINE
  8
型材断面
  6
CONTINUOUS
 10
49.22444
 20
19.81399
 11
47.753032
 21
21.285397
  0
LINE
  8
型材断面
  6
CONTINUOUS
 10
45.135155
 20
23.66752
 11
45.370855
 21
23.90322
  0
LINE
  8
型材断面
  6
CONTINUOUS
 10
45.135155
 20
23.66752
 11
47.635105
 21
21.16757
  0
LINE
  8
型材断面
  6
CONTINUOUS
 10
45.370855
 20
23.90322
 11
47.870852
 21
21.403223
  0
LINE
  8
型材断面
  6
CONTINUOUS
 10
45.370852
 20
32.397365
 11
45.370852
 21
23.903218
  0
LINE
  8
型材断面
  6
CONTINUOUS
 10
47.635155
 20
44.460545
 11
47.870855
 21
44.224845
  0
LINE
  8
型材断面
  6
CONTINUOUS
 10
49.22444
 20
45.814075
 11
47.753032
 21
44.342668
  0
LINE
  8
型材断面
  6
CONTINUOUS
 10
45.135155
 20
41.960545
 11
45.370855
 21
41.724845
  0
LINE
  8
型材断面
  6
CONTINUOUS
 10
45.135155
 20
41.960545
 11
47.635105
 21
44.460495
  0
LINE
  8
型材断面
  6
CONTINUOUS
 10
45.370855
 20
41.724845
 11
47.870852
 21
44.224842
  0
LINE
  8
型材断面
  6
CONTINUOUS
 10
47.870852
 20
21.403223
 11
47.870852
 21
44.224842
  0
LINE
  8
型材断面
  6
CONTINUOUS
 10
45.370852
 20
33.2307
 11
45.370852
 21
41.724848
  0
LINE
  8
型材断面
  6
CONTINUOUS
 10
30.049393
 20
41.960495
 11
45.135105
 21
41.960495
  0
LINE
  8
型材断面
  6
CONTINUOUS
 10
-122.088735
 20
44.460495
 11
47.635105
 21
44.460495
  0
LINE
  8
型材断面
  6
CONTINUOUS
 10
30.049393
 20
23.66757
 11
45.135105
 21
23.66757
  0
LINE
  8
型材断面
  6
CONTINUOUS
 10
-123.44232
 20
45.814075
 11
-123.44232
 21
32.81403
  0
LINE
  8
型材断面
  6
CONTINUOUS
 10
-123.44232
 20
19.81399
 11
-123.44232
 21
32.814035
  0
LINE
  8
型材断面
  6
CONTINUOUS
 10
-119.588732
 20
32.397365
 11
-122.088732
 21
32.397365
  0
LINE
  8
型材断面
  6
CONTINUOUS
 10
-119.588732
 20
33.2307
 11
-122.088732
 21
33.2307
  0
LINE
  8
型材断面
  6
CONTINUOUS
 10
-121.853035
 20
21.16752
 11
-122.088735
 21
21.40322
  0
LINE
  8
型材断面
  6
CONTINUOUS
 10
-123.44232
 20
19.81399
 11
-121.970913
 21
21.285397
  0
LINE
  8
型材断面
  6
CONTINUOUS
 10
-119.353035
 20
23.66752
 11
-119.588735
 21
23.90322
  0
LINE
  8
型材断面
  6
CONTINUOUS
 10
-119.353035
 20
23.66752
 11
-121.852985
 21
21.16757
  0
LINE
  8
型材断面
  6
CONTINUOUS
 10
-119.588735
 20
23.90322
 11
-122.088732
 21
21.403223
  0
LINE
  8
型材断面
  6
CONTINUOUS
 10
-119.588732
 20
32.397365
 11
-119.588732
 21
23.903218
  0
LINE
  8
型材断面
  6
CONTINUOUS
 10
-121.853035
 20
44.460545
 11
-122.088735
 21
44.224845
  0
LINE
  8
型材断面
  6
CONTINUOUS
 10
-123.44232
 20
45.814075
 11
-121.970913
 21
44.342668
  0
LINE
  8
型材断面
  6
CONTINUOUS
 10
-119.353035
 20
41.960545
 11
-119.588735
 21
41.724845
  0
LINE
  8
型材断面
  6
CONTINUOUS
 10
-119.353035
 20
41.960545
 11
-121.852985
 21
44.460495
  0
LINE
  8
型材断面
  6
CONTINUOUS
 10
-119.588735
 20
41.724845
 11
-122.088732
 21
44.224842
  0
LINE
  8
型材断面
  6
CONTINUOUS
 10
-122.088732
 20
21.403223
 11
-122.088732
 21
44.224842
  0
LINE
  8
型材断面
  6
CONTINUOUS
 10
-119.588732
 20
33.2307
 11
-119.588732
 21
41.724848
  0
LINE
  8
型材断面
  6
CONTINUOUS
 10
-104.267273
 20
41.960495
 11
-119.352985
 21
41.960495
  0
LINE
  8
型材断面
  6
CONTINUOUS
 10
-104.267273
 20
23.66757
 11
-119.352985
 21
23.66757
  0
LINE
  8
型材断面
  6
CONTINUOUS
 10
47.635105
 20
21.16757
 11
-121.852985
 21
21.16757
  0
TEXT
  7
TextStyle03
  8
文字
  6
CONTINUOUS
 10
-158.45
 20
84.95
  1
は排水穴位置を示す
 40
3.0
 72
     5
 11
-128.45
 21
84.95
  0
TEXT
  7
TextStyle03
  8
文字
  6
CONTINUOUS
 10
59.65
 20
104.525
  1
ＮＳコード：ＮＳＦＫＺ
 40
5.0
 72
     5
 11
120.9
 21
104.525
  0
TEXT
  7
TextStyle03
  8
文字
  6
CONTINUOUS
 10
122.775
 20
-76.7
  1
網入り6.8t
 40
3.0
 72
     5
 11
139.4625
 21
-76.7
  0
TEXT
  7
TextStyle03
  8
文字
  6
CONTINUOUS
 10
129.45
 20
-81.375
  1
×５枚
 40
3.0
 72
     5
 11
139.2
 21
-81.375
  0
TEXT
  7
TextStyle03
  8
文字
  6
CONTINUOUS
 10
-141.5
 20
11.275
  1
アンカーピッチ
 40
3.0
 50
90.0
 72
     5
 11
-141.5
 21
34.525
  0
TEXT
  7
TextStyle03
  8
文字
  6
CONTINUOUS
 10
-109.7
 20
80.275
  1
アンカーピッチ
 40
3.0
 72
     5
 11
-86.45
 21
80.275
  0
TEXT
  7
TextStyle03
  8
文字
  6
CONTINUOUS
 10
-162.175
 20
78.6
  1
アンカー数量　１８ヶ所
 40
3.0
 72
     5
 11
-125.425
 21
78.6
  0
LINE
  8
文字
  6
CONTINUOUS
 10
113.116045
 20
56.453242
 11
113.116045
 21
47.100085
  0
LINE
  8
文字
  6
CONTINUOUS
 10
116.432712
 20
56.453242
 11
116.432712
 21
47.165438
  0
LINE
  8
文字
  6
CONTINUOUS
 10
59.863602
 20
-68.229505
 11
50.510445
 21
-68.229505
  0
LINE
  8
文字
  6
CONTINUOUS
 10
59.863602
 20
-71.546173
 11
50.575798
 21
-71.546173
  0
LINE
  8
文字
  6
CONTINUOUS
 10
141.310947
 20
-55.545172
 11
141.310947
 21
-62.32894
  0
LINE
  8
文字
  6
CONTINUOUS
 10
109.04428
 20
-55.545172
 11
109.04428
 21
-62.32894
  0
TEXT
  7
TextStyle03
  8
文字
  6
CONTINUOUS
 10
59.5
 20
125.25
  1
シリーズ：ＴＦ２ＦＫＬ
 40
5.0
 72
     5
 11
120.75
 21
125.25
  0
TEXT
  7
TextStyle03
  8
文字
  6
CONTINUOUS
 10
59.5
 20
119.625
  1
　　　　　（固定）600×5000タイプ
 40
5.0
 72
     5
 11
151.6875
 21
119.625
  0
TEXT
  7
TextStyle03
  8
文字
  6
CONTINUOUS
 10
59.5
 20
114.0
  1
図面名　：外観姿図
 40
5.0
 72
     5
 11
109.5
 21
114.0
  0
TEXT
  7
TextStyle03
  8
文字
  6
CONTINUOUS
 10
59.5
 20
108.375
  1
　　　　　　
 40
5.0
 72
     5
 11
92.625
 21
108.375
  0
LINE
  8
文字
  6
CONTINUOUS
 10
30.049393
 20
23.66757
 11
30.049393
 21
21.16757
  0
LINE
  8
文字
  6
CONTINUOUS
 10
29.216057
 20
23.66757
 11
29.216057
 21
21.16757
  0
LINE
  8
文字
  6
CONTINUOUS
 10
-3.25894
 20
23.66757
 11
-3.25894
 21
21.16757
  0
LINE
  8
文字
  6
CONTINUOUS
 10
-4.092275
 20
23.66757
 11
-4.092275
 21
21.16757
  0
LINE
  8
文字
  6
CONTINUOUS
 10
-36.692275
 20
23.66757
 11
-36.692275
 21
21.16757
  0
LINE
  8
文字
  6
CONTINUOUS
 10
-37.52561
 20
23.66757
 11
-37.52561
 21
21.16757
  0
LINE
  8
文字
  6
CONTINUOUS
 10
-104.267273
 20
23.66757
 11
-104.267273
 21
21.16757
  0
LINE
  8
文字
  6
CONTINUOUS
 10
-103.433937
 20
23.66757
 11
-103.433937
 21
21.16757
  0
LINE
  8
文字
  6
CONTINUOUS
 10
-70.95894
 20
23.66757
 11
-70.95894
 21
21.16757
  0
LINE
  8
文字
  6
CONTINUOUS
 10
-70.125605
 20
23.66757
 11
-70.125605
 21
21.16757
  0
LINE
  8
文字
  6
CONTINUOUS
 10
30.049393
 20
41.960495
 11
30.049393
 21
44.460495
  0
LINE
  8
文字
  6
CONTINUOUS
 10
29.216057
 20
41.960495
 11
29.216057
 21
44.460495
  0
LINE
  8
文字
  6
CONTINUOUS
 10
-3.25894
 20
41.960495
 11
-3.25894
 21
44.460495
  0
LINE
  8
文字
  6
CONTINUOUS
 10
-4.092275
 20
41.960495
 11
-4.092275
 21
44.460495
  0
LINE
  8
文字
  6
CONTINUOUS
 10
-36.692275
 20
41.960495
 11
-36.692275
 21
44.460495
  0
LINE
  8
文字
  6
CONTINUOUS
 10
-37.52561
 20
41.960495
 11
-37.52561
 21
44.460495
  0
LINE
  8
文字
  6
CONTINUOUS
 10
-104.267273
 20
41.960495
 11
-104.267273
 21
44.460495
  0
LINE
  8
文字
  6
CONTINUOUS
 10
-103.433937
 20
41.960495
 11
-103.433937
 21
44.460495
  0
LINE
  8
文字
  6
CONTINUOUS
 10
-70.95894
 20
41.960495
 11
-70.95894
 21
44.460495
  0
LINE
  8
文字
  6
CONTINUOUS
 10
-70.125605
 20
41.960495
 11
-70.125605
 21
44.460495
  0
INSERT
  2
*DIM_0002
  8
寸法
  6
CONTINUOUS
 10
0.0
 20
0.0
  0
INSERT
  2
*DIM_0003
  8
寸法
  6
CONTINUOUS
 10
0.0
 20
0.0
  0
INSERT
  2
*DIM_0004
  8
寸法
  6
CONTINUOUS
 10
0.0
 20
0.0
  0
INSERT
  2
*DIM_0005
  8
寸法
  6
CONTINUOUS
 10
0.0
 20
0.0
  0
INSERT
  2
*DIM_0006
  8
寸法
  6
CONTINUOUS
 10
0.0
 20
0.0
  0
INSERT
  2
*DIM_0007
  8
寸法
  6
CONTINUOUS
 10
0.0
 20
0.0
  0
INSERT
  2
*DIM_0008
  8
寸法
  6
CONTINUOUS
 10
0.0
 20
0.0
  0
INSERT
  2
*DIM_0009
  8
寸法
  6
CONTINUOUS
 10
0.0
 20
0.0
  0
INSERT
  2
*DIM_0010
  8
寸法
  6
CONTINUOUS
 10
0.0
 20
0.0
  0
INSERT
  2
*DIM_0011
  8
寸法
  6
CONTINUOUS
 10
0.0
 20
0.0
  0
INSERT
  2
*DIM_0012
  8
寸法
  6
CONTINUOUS
 10
0.0
 20
0.0
  0
INSERT
  2
*DIM_0013
  8
寸法
  6
CONTINUOUS
 10
0.0
 20
0.0
  0
INSERT
  2
*DIM_0014
  8
寸法
  6
CONTINUOUS
 10
0.0
 20
0.0
  0
INSERT
  2
*DIM_0015
  8
寸法
  6
CONTINUOUS
 10
0.0
 20
0.0
  0
INSERT
  2
*DIM_0016
  8
寸法
  6
CONTINUOUS
 10
0.0
 20
0.0
  0
INSERT
  2
*DIM_0017
  8
寸法
  6
CONTINUOUS
 10
0.0
 20
0.0
  0
LINE
  8
別途部材
  6
CONTINUOUS
 62
    47
 10
113.216045
 20
21.167572
 11
113.282712
 21
21.167572
  0
ARC
  8
別途部材
  6
CONTINUOUS
 62
    47
 10
113.216044
 20
21.267571
 40
0.1
 50
180.0
 51
270.0
  0
LINE
  8
別途部材
  6
CONTINUOUS
 62
    47
 10
113.116045
 20
21.267572
 11
113.116045
 21
21.324093
  0
LINE
  8
別途部材
  6
CONTINUOUS
 62
    47
 10
114.782712
 20
21.324093
 11
113.282712
 21
21.324093
  0
LINE
  8
別途部材
  6
CONTINUOUS
 62
    47
 10
113.216045
 20
44.460495
 11
113.282712
 21
44.460495
  0
ARC
  8
別途部材
  6
CONTINUOUS
 62
    47
 10
113.216044
 20
44.360495
 40
0.1
 50
90.0
 51
180.0
  0
LINE
  8
別途部材
  6
CONTINUOUS
 62
    47
 10
113.116045
 20
44.360495
 11
113.116045
 21
44.303973
  0
LINE
  8
別途部材
  6
CONTINUOUS
 62
    47
 10
114.782712
 20
44.303973
 11
113.282712
 21
44.303973
  0
LINE
  8
別途部材
  6
CONTINUOUS
 62
    47
 10
-122.088735
 20
-68.329505
 11
-122.088735
 21
-68.39617
  0
ARC
  8
別途部材
  6
CONTINUOUS
 62
    47
 10
-121.988737
 20
-68.329501
 40
0.1
 50
90.0
 51
180.0
  0
LINE
  8
別途部材
  6
CONTINUOUS
 62
    47
 10
-121.988735
 20
-68.229505
 11
-121.932212
 21
-68.229505
  0
LINE
  8
別途部材
  6
CONTINUOUS
 62
    47
 10
-121.932212
 20
-69.89617
 11
-121.932212
 21
-68.39617
  0
LINE
  8
別途部材
  6
CONTINUOUS
 62
    47
 10
47.870855
 20
-68.329505
 11
47.870855
 21
-68.39617
  0
ARC
  8
別途部材
  6
CONTINUOUS
 62
    47
 10
47.770854
 20
-68.329501
 40
0.1
 50
0.0
 51
90.0
  0
LINE
  8
別途部材
  6
CONTINUOUS
 62
    47
 10
47.770855
 20
-68.229505
 11
47.714332
 21
-68.229505
  0
LINE
  8
別途部材
  6
CONTINUOUS
 62
    47
 10
47.714332
 20
-69.89617
 11
47.714332
 21
-68.39617
  0
LINE
  8
曲げ物
  6
CONTINUOUS
 10
30.950122
 20
34.739582
 11
27.25481
 21
31.04427
  0
LINE
  8
曲げ物
  6
CONTINUOUS
 10
30.246652
 20
33.203472
 11
28.790922
 21
31.747742
  0
LINE
  8
曲げ物
  6
CONTINUOUS
 10
29.414012
 20
34.036112
 11
27.958282
 21
32.580383
  0
LINE
  8
曲げ物
  6
CONTINUOUS
 10
-1.454618
 20
34.739582
 11
-5.14993
 21
31.04427
  0
LINE
  8
曲げ物
  6
CONTINUOUS
 10
-2.158087
 20
33.203472
 11
-3.613818
 21
31.747742
  0
LINE
  8
曲げ物
  6
CONTINUOUS
 10
-2.990727
 20
34.036112
 11
-4.446457
 21
32.580383
  0
LINE
  8
曲げ物
  6
CONTINUOUS
 10
-35.12204
 20
34.739582
 11
-38.817353
 21
31.04427
  0
LINE
  8
曲げ物
  6
CONTINUOUS
 10
-35.82551
 20
33.203472
 11
-37.28124
 21
31.747742
  0
LINE
  8
曲げ物
  6
CONTINUOUS
 10
-36.65815
 20
34.036112
 11
-38.11388
 21
32.580383
  0
LINE
  8
曲げ物
  6
CONTINUOUS
 10
-67.45992
 20
34.739582
 11
-71.155232
 21
31.04427
  0
LINE
  8
曲げ物
  6
CONTINUOUS
 10
-68.16339
 20
33.203472
 11
-69.61912
 21
31.747742
  0
LINE
  8
曲げ物
  6
CONTINUOUS
 10
-68.99603
 20
34.036112
 11
-70.45176
 21
32.580383
  0
LINE
  8
曲げ物
  6
CONTINUOUS
 10
-102.618253
 20
34.739582
 11
-106.313565
 21
31.04427
  0
LINE
  8
曲げ物
  6
CONTINUOUS
 10
-103.321723
 20
33.203472
 11
-104.777452
 21
31.747742
  0
LINE
  8
曲げ物
  6
CONTINUOUS
 10
-104.154363
 20
34.036112
 11
-105.610092
 21
32.580383
  0
LINE
  8
曲げ物
  6
CONTINUOUS
 10
141.310947
 20
-83.118728
 11
141.310947
 21
-63.785395
  0
LINE
  8
曲げ物
  6
CONTINUOUS
 10
109.04428
 20
-83.118728
 11
109.04428
 21
-63.785395
  0
LINE
  8
曲げ物
  6
CONTINUOUS
 10
141.310947
 20
-63.785395
 11
109.04428
 21
-63.785395
  0
LINE
  8
曲げ物
  6
CONTINUOUS
 10
141.310947
 20
-83.118728
 11
109.04428
 21
-83.118728
  0
CIRCLE
  8
LAYER010
  6
CONTINUOUS
 62
    47
 10
115.932715
 20
19.814042
 40
0.011113
  0
CIRCLE
  8
LAYER010
  6
CONTINUOUS
 62
    47
 10
115.932715
 20
45.814025
 40
0.011113
  0
CIRCLE
  8
LAYER010
  6
CONTINUOUS
 62
    47
 10
-123.442265
 20
-71.046175
 40
0.011113
  0
CIRCLE
  8
LAYER010
  6
CONTINUOUS
 62
    47
 10
49.224385
 20
-71.046175
 40
0.011113
  0
ENDSEC
  0
EOF
