  0
SECTION
  2
HEADER
  9
$EXTMIN
 10
-210.0
 20
-148.5
  9
$EXTMAX
 10
210.0
 20
148.5
  9
$PDMODE
 70
    32
  9
$PDSIZE
 40
1.5
  9
$LTSCALE
 40
10.0
  0
ENDSEC
  0
SECTION
  2
TABLES
  0
TABLE
  2
LTYPE
 70
    15
  0
LTYPE
  2
CONTINUOUS
 70
    64
  3
実線
 72
    65
 73
     0
 40
0.0
  0
LTYPE
  2
DASHED
 70
    64
  3
破線A
 72
    65
 73
     2
 40
0.6
 49
0.4
 49
-0.2
  0
LTYPE
  2
DASHEDX2
 70
    64
  3
破線B
 72
    65
 73
     2
 40
1.3
 49
0.9
 49
-0.4
  0
LTYPE
  2
DASHDOT
 70
    64
  3
１点鎖線A
 72
    65
 73
     4
 40
0.5375
 49
0.375
 49
-0.05
 49
0.0625
 49
-0.05
  0
LTYPE
  2
DASHDOTX2
 70
    64
  3
１点鎖線B
 72
    65
 73
     4
 40
1.075
 49
0.75
 49
-0.1
 49
0.125
 49
-0.1
  0
LTYPE
  2
DIVIDE2
 70
    64
  3
２点鎖線A
 72
    65
 73
     6
 40
0.5125
 49
0.3
 49
-0.0375
 49
0.05
 49
-0.0375
 49
0.05
 49
-0.0375
  0
LTYPE
  2
DIVIDE
 70
    64
  3
２点鎖線B
 72
    65
 73
     6
 40
1.05
 49
0.55
 49
-0.1
 49
0.1
 49
-0.1
 49
0.1
 49
-0.1
  0
LTYPE
  2
DOT
 70
    64
  3
点線A
 72
    65
 73
     2
 40
0.1125
 49
0.0625
 49
-0.05
  0
LTYPE
  2
DOTX2
 70
    64
  3
点線B
 72
    65
 73
     2
 40
0.275
 49
0.15
 49
-0.125
  0
LTYPE
  2
CONTINUOUS
 70
    64
  3
実線
 72
    65
 73
     0
 40
0.0
  0
LTYPE
  2
CONTINUOUS
 70
    64
  3
実線
 72
    65
 73
     0
 40
0.0
  0
LTYPE
  2
CONTINUOUS
 70
    64
  3
実線
 72
    65
 73
     0
 40
0.0
  0
LTYPE
  2
CONTINUOUS
 70
    64
  3
実線
 72
    65
 73
     0
 40
0.0
  0
LTYPE
  2
CONTINUOUS
 70
    64
  3
実線
 72
    65
 73
     0
 40
0.0
  0
LTYPE
  2
CONTINUOUS
 70
    64
  3
実線
 72
    65
 73
     0
 40
0.0
  0
ENDTAB
  0
TABLE
  2
LAYER
 70
    35
  0
LAYER
  2
通り芯
 70
     0
 62
    15
  6
CONTINUOUS
  0
LAYER
  2
補助線
 70
     0
 62
    16
  6
DOT
  0
LAYER
  2
躯体
 70
     0
 62
    31
  6
CONTINUOUS
  0
LAYER
  2
型材
 70
     0
 62
    32
  6
CONTINUOUS
  0
LAYER
  2
型材断面
 70
     0
 62
    47
  6
CONTINUOUS
  0
LAYER
  2
ガラス
 70
     0
 62
    48
  6
CONTINUOUS
  0
LAYER
  2
ゴム等
 70
     0
 62
    63
  6
CONTINUOUS
  0
LAYER
  2
ボルト／ビス
 70
     0
 62
    64
  6
CONTINUOUS
  0
LAYER
  2
文字
 70
     0
 62
    79
  6
CONTINUOUS
  0
LAYER
  2
寸法
 70
     0
 62
    80
  6
CONTINUOUS
  0
LAYER
  2
ﾊｯﾁﾝｸﾞ
 70
     0
 62
    95
  6
CONTINUOUS
  0
LAYER
  2
別途部材
 70
     0
 62
    96
  6
CONTINUOUS
  0
LAYER
  2
曲げ物
 70
     0
 62
   111
  6
CONTINUOUS
  0
LAYER
  2
鉄骨等
 70
     0
 62
   112
  6
CONTINUOUS
  0
LAYER
  2
St
 70
     0
 62
   127
  6
CONTINUOUS
  0
LAYER
  2
その他部品等
 70
     0
 62
   128
  6
CONTINUOUS
  0
LAYER
  2
ｶﾞｽｹｯﾄ
 70
     0
 62
   143
  6
CONTINUOUS
  0
LAYER
  2
ｽｹｯﾁ
 70
     0
 62
    14
  6
CONTINUOUS
  0
LAYER
  2
0
 70
     0
 62
    17
  6
CONTINUOUS
  0
LAYER
  2
1
 70
     0
 62
    30
  6
CONTINUOUS
  0
LAYER
  2
4
 70
     0
 62
    33
  6
CONTINUOUS
  0
LAYER
  2
ﾚｲﾔ3
 70
     0
 62
    46
  6
CONTINUOUS
  0
LAYER
  2
外形線
 70
     0
 62
    49
  6
CONTINUOUS
  0
LAYER
  2
部品
 70
     0
 62
    14
  6
CONTINUOUS
  0
LAYER
  2
サッシ芯
 70
     0
 62
    17
  6
DASHDOTX2
  0
LAYER
  2
寸法線
 70
     0
 62
    62
  6
CONTINUOUS
  0
LAYER
  2
姿図外形線
 70
     0
 62
    65
  6
CONTINUOUS
  0
LAYER
  2
姿補助線
 70
     0
 62
    30
  6
CONTINUOUS
  0
LAYER
  2
透視線
 70
     0
 62
    78
  6
DOT
  0
LAYER
  2
用紙
 70
     0
 62
    81
  6
CONTINUOUS
  0
LAYER
  2
実線図枠
 70
     0
 62
    94
  6
CONTINUOUS
  0
LAYER
  2
補助図枠
 70
     0
 62
    97
  6
CONTINUOUS
  0
LAYER
  2
建具記号
 70
     0
 62
   110
  6
CONTINUOUS
  0
LAYER
  2
補助文字
 70
     0
 62
   113
  6
CONTINUOUS
  0
LAYER
  2
LAYER010
 70
     0
 62
    11
  6
CONTINUOUS
  0
ENDTAB
  0
TABLE
  2
STYLE
 70
    10
  0
STYLE
  2
STANDARD
 70
     0
 40
1.0
 41
1.0
 42
1.0
 50
0.0
 71
     0
  3
TXT
  4
BIGFONT
  0
STYLE
  2
TATE
 70
     4
 40
1.0
 41
1.0
 42
1.0
 50
0.0
 71
     0
  3
TXT
  4
BIGFONT
  0
STYLE
  2
TextStyle03
 70
     0
 40
1.0
 41
1.0
 42
1.0
 50
0.0
 71
     0
  3
MONOTXT
  4
BIGFONT
  0
STYLE
  2
TextStyle04
 70
     0
 40
1.0
 41
1.0
 42
1.0
 50
0.0
 71
     0
  3
MONOTXT
  4
BIGFONT
  0
STYLE
  2
TextStyle05
 70
     0
 40
1.0
 41
1.0
 42
1.0
 50
0.0
 71
     0
  3
MONOTXT
  4
BIGFONT
  0
STYLE
  2
TextStyle06
 70
     0
 40
1.0
 41
1.0
 42
1.0
 50
0.0
 71
     0
  3
MONOTXT
  4
BIGFONT
  0
STYLE
  2
TextStyle07
 70
     0
 40
1.0
 41
1.0
 42
1.0
 50
0.0
 71
     0
  3
MONOTXT
  4
BIGFONT
  0
STYLE
  2
TextStyle08
 70
     0
 40
1.0
 41
1.0
 42
1.0
 50
0.0
 71
     0
  3
MONOTXT
  4
BIGFONT
  0
STYLE
  2
TextStyle09
 70
     0
 40
1.0
 41
1.0
 42
1.0
 50
0.0
 71
     0
  3
MONOTXT
  4
BIGFONT
  0
STYLE
  2
TextStyle10
 70
     0
 40
1.0
 41
1.0
 42
1.0
 50
0.0
 71
     0
  3
MONOTXT
  4
BIGFONT
  0
ENDTAB
  0
ENDSEC
  0
SECTION
  2
BLOCKS
  0
BLOCK
  2
*GRP_0001
 70
    65
 10
0.0
 20
0.0
  0
LINE
  8
型材断面
  6
CONTINUOUS
 10
195.0
 20
133.5
 11
195.0
 21
-133.5
  0
LINE
  8
型材断面
  6
CONTINUOUS
 10
195.0
 20
-133.5
 11
-185.0
 21
-133.5
  0
LINE
  8
型材断面
  6
CONTINUOUS
 10
-185.0
 20
-133.5
 11
-185.0
 21
133.5
  0
LINE
  8
型材断面
  6
CONTINUOUS
 10
195.0
 20
133.5
 11
-185.0
 21
133.5
  0
LINE
  8
型材断面
  6
CONTINUOUS
 10
145.0
 20
-133.5
 11
145.0
 21
-118.5
  0
LINE
  8
型材断面
  6
CONTINUOUS
 10
195.0
 20
-118.5
 11
145.0
 21
-118.5
  0
ENDBLK
  0
BLOCK
  2
*DIM_0002
 70
    65
 10
0.0
 20
0.0
  0
LINE
  8
寸法
  6
BYBLOCK
 62
     0
 10
46.224393
 20
-13.121378
 11
-87.10894
 21
-13.121378
  0
POINT
  8
寸法
 62
     0
 10
46.224393
 20
-13.121378
  0
POINT
  8
寸法
 62
     0
 10
-87.10894
 20
-13.121378
  0
TEXT
  7
TextStyle03
  8
寸法
  6
CONTINUOUS
 62
     0
 10
-32.16875
 20
-12.75
  1
呼称寸法　4000
 40
3.0
 72
     5
 11
-8.73125
 21
-12.75
  0
ENDBLK
  0
BLOCK
  2
*DIM_0003
 70
    65
 10
0.0
 20
0.0
  0
LINE
  8
寸法
  6
BYBLOCK
 62
     0
 10
-70.442273
 20
19.183902
 11
-70.442273
 21
14.13158
  0
LINE
  8
寸法
  6
BYBLOCK
 62
     0
 10
29.557723
 20
19.183902
 11
29.557723
 21
14.13158
  0
LINE
  8
寸法
  6
BYBLOCK
 62
     0
 10
-70.442273
 20
14.13158
 11
29.557723
 21
14.13158
  0
POINT
  8
寸法
 62
     0
 10
-70.442273
 20
14.13158
  0
POINT
  8
寸法
 62
     0
 10
29.557723
 20
14.13158
  0
TEXT
  7
TextStyle03
  8
寸法
  6
CONTINUOUS
 62
     0
 10
-23.73125
 20
14.5
  1
3000
 40
3.0
 72
     5
 11
-17.16875
 21
14.5
  0
ENDBLK
  0
BLOCK
  2
*DIM_0004
 70
    65
 10
0.0
 20
0.0
  0
LINE
  8
寸法
  6
BYBLOCK
 62
     0
 10
49.22444
 20
-69.576397
 11
49.22444
 21
-13.121378
  0
LINE
  8
寸法
  6
BYBLOCK
 62
     0
 10
46.224393
 20
-13.121378
 11
49.22444
 21
-13.121378
  0
POINT
  8
寸法
 62
     0
 10
46.224393
 20
-13.121378
  0
POINT
  8
寸法
 62
     0
 10
49.22444
 20
-13.121378
  0
TEXT
  7
TextStyle03
  8
寸法
  6
CONTINUOUS
 62
     0
 10
46.10625
 20
-12.75
  1
90
 40
3.0
 72
     5
 11
49.29375
 21
-12.75
  0
ENDBLK
  0
BLOCK
  2
*DIM_0005
 70
    65
 10
0.0
 20
0.0
  0
LINE
  8
寸法
  6
BYBLOCK
 62
     0
 10
-90.10899
 20
-69.576397
 11
-90.10899
 21
-13.121378
  0
LINE
  8
寸法
  6
BYBLOCK
 62
     0
 10
-87.108943
 20
-13.121378
 11
-90.10899
 21
-13.121378
  0
POINT
  8
寸法
 62
     0
 10
-87.108943
 20
-13.121378
  0
POINT
  8
寸法
 62
     0
 10
-90.10899
 20
-13.121378
  0
TEXT
  7
TextStyle03
  8
寸法
  6
CONTINUOUS
 62
     0
 10
-90.21875
 20
-12.75
  1
90
 40
3.0
 72
     5
 11
-87.03125
 21
-12.75
  0
ENDBLK
  0
BLOCK
  2
*DIM_0006
 70
    65
 10
0.0
 20
0.0
  0
LINE
  8
寸法
  6
BYBLOCK
 62
     0
 10
142.310947
 20
-63.785395
 11
150.422478
 21
-63.785395
  0
LINE
  8
寸法
  6
BYBLOCK
 62
     0
 10
142.310947
 20
-83.118728
 11
150.422478
 21
-83.118728
  0
LINE
  8
寸法
  6
BYBLOCK
 62
     0
 10
150.422478
 20
-63.785395
 11
150.422478
 21
-83.118728
  0
POINT
  8
寸法
 62
     0
 10
150.422478
 20
-63.785395
  0
POINT
  8
寸法
 62
     0
 10
150.422478
 20
-83.118728
  0
TEXT
  7
TextStyle03
  8
寸法
  6
CONTINUOUS
 62
     0
 10
150.025
 20
-75.9125
  1
580
 40
3.0
 50
90.0
 72
     5
 11
150.025
 21
-71.0375
  0
ENDBLK
  0
BLOCK
  2
*DIM_0007
 70
    65
 10
0.0
 20
0.0
  0
LINE
  8
寸法
  6
BYBLOCK
 62
     0
 10
-90.10894
 20
39.4807
 11
-103.401778
 21
39.4807
  0
LINE
  8
寸法
  6
BYBLOCK
 62
     0
 10
-90.10894
 20
26.147365
 11
-103.401778
 21
26.147365
  0
LINE
  8
寸法
  6
BYBLOCK
 62
     0
 10
-103.401778
 20
39.4807
 11
-103.401778
 21
26.147365
  0
POINT
  8
寸法
 62
     0
 10
-103.401778
 20
39.4807
  0
POINT
  8
寸法
 62
     0
 10
-103.401778
 20
26.147365
  0
TEXT
  7
TextStyle03
  8
寸法
  6
CONTINUOUS
 62
     0
 10
-103.825
 20
30.3625
  1
400
 40
3.0
 50
90.0
 72
     5
 11
-103.825
 21
35.2375
  0
ENDBLK
  0
BLOCK
  2
*DIM_0008
 70
    65
 10
0.0
 20
0.0
  0
LINE
  8
寸法
  6
BYBLOCK
 62
     0
 10
-78.775608
 20
45.814033
 11
-78.775608
 21
74.922105
  0
LINE
  8
寸法
  6
BYBLOCK
 62
     0
 10
-55.442275
 20
45.814033
 11
-55.442275
 21
74.922105
  0
LINE
  8
寸法
  6
BYBLOCK
 62
     0
 10
-78.775608
 20
74.922105
 11
-55.442275
 21
74.922105
  0
POINT
  8
寸法
 62
     0
 10
-78.775608
 20
74.922105
  0
POINT
  8
寸法
 62
     0
 10
-55.442275
 20
74.922105
  0
TEXT
  7
TextStyle03
  8
寸法
  6
CONTINUOUS
 62
     0
 10
-69.5625
 20
75.3
  1
700
 40
3.0
 72
     5
 11
-64.6875
 21
75.3
  0
ENDBLK
  0
BLOCK
  2
*DIM_0009
 70
    65
 10
0.0
 20
0.0
  0
LINE
  8
寸法
  6
BYBLOCK
 62
     0
 10
-32.108943
 20
45.814033
 11
-32.108943
 21
74.922105
  0
LINE
  8
寸法
  6
BYBLOCK
 62
     0
 10
-55.442275
 20
74.922105
 11
-32.108943
 21
74.922105
  0
POINT
  8
寸法
 62
     0
 10
-32.108943
 20
74.922105
  0
TEXT
  7
TextStyle03
  8
寸法
  6
CONTINUOUS
 62
     0
 10
-46.2375
 20
75.3
  1
700
 40
3.0
 72
     5
 11
-41.3625
 21
75.3
  0
ENDBLK
  0
BLOCK
  2
*DIM_0010
 70
    65
 10
0.0
 20
0.0
  0
LINE
  8
寸法
  6
BYBLOCK
 62
     0
 10
-8.775608
 20
45.814033
 11
-8.775608
 21
74.922105
  0
LINE
  8
寸法
  6
BYBLOCK
 62
     0
 10
-32.108943
 20
74.922105
 11
-8.775608
 21
74.922105
  0
POINT
  8
寸法
 62
     0
 10
-8.775608
 20
74.922105
  0
TEXT
  7
TextStyle03
  8
寸法
  6
CONTINUOUS
 62
     0
 10
-22.9125
 20
75.3
  1
700
 40
3.0
 72
     5
 11
-18.0375
 21
75.3
  0
ENDBLK
  0
BLOCK
  2
*DIM_0011
 70
    65
 10
0.0
 20
0.0
  0
LINE
  8
寸法
  6
BYBLOCK
 62
     0
 10
14.557725
 20
45.814033
 11
14.557725
 21
74.922105
  0
LINE
  8
寸法
  6
BYBLOCK
 62
     0
 10
-8.775608
 20
74.922105
 11
14.557725
 21
74.922105
  0
POINT
  8
寸法
 62
     0
 10
14.557725
 20
74.922105
  0
TEXT
  7
TextStyle03
  8
寸法
  6
CONTINUOUS
 62
     0
 10
0.4375
 20
75.3
  1
700
 40
3.0
 72
     5
 11
5.3125
 21
75.3
  0
ENDBLK
  0
BLOCK
  2
*DIM_0012
 70
    65
 10
0.0
 20
0.0
  0
LINE
  8
寸法
  6
BYBLOCK
 62
     0
 10
37.891057
 20
45.814033
 11
37.891057
 21
74.922105
  0
LINE
  8
寸法
  6
BYBLOCK
 62
     0
 10
14.557725
 20
74.922105
 11
37.891057
 21
74.922105
  0
POINT
  8
寸法
 62
     0
 10
37.891057
 20
74.922105
  0
TEXT
  7
TextStyle03
  8
寸法
  6
CONTINUOUS
 62
     0
 10
23.7625
 20
75.3
  1
700
 40
3.0
 72
     5
 11
28.6375
 21
75.3
  0
ENDBLK
  0
BLOCK
  2
*DIM_0013
 70
    65
 10
0.0
 20
0.0
  0
LINE
  8
寸法
  6
CONTINUOUS
 10
112.276043
 20
56.453242
 11
115.59271
 21
56.453242
  0
POINT
  8
寸法
 10
112.276043
 20
56.453242
  0
POINT
  8
寸法
 10
115.59271
 20
56.453242
  0
TEXT
  7
TextStyle03
  8
寸法
  6
CONTINUOUS
 10
110.51875
 20
56.625
  1
99.5
 40
3.0
 72
     5
 11
117.08125
 21
56.625
  0
ENDBLK
  0
BLOCK
  2
*DIM_0014
 70
    65
 10
0.0
 20
0.0
  0
LINE
  8
寸法
  6
CONTINUOUS
 10
59.8636
 20
-68.621625
 11
59.8636
 21
-71.938295
  0
POINT
  8
寸法
 10
59.8636
 20
-68.621625
  0
POINT
  8
寸法
 10
59.8636
 20
-71.938295
  0
TEXT
  7
TextStyle03
  8
寸法
  6
CONTINUOUS
 10
63.0
 20
-73.45625
  1
99.5
 40
3.0
 50
90.0
 72
     5
 11
63.0
 21
-66.89375
  0
ENDBLK
  0
BLOCK
  2
*DIM_0015
 70
    65
 10
0.0
 20
0.0
  0
LINE
  8
寸法
  6
CONTINUOUS
 10
141.310947
 20
-55.296478
 11
109.017615
 21
-55.296478
  0
POINT
  8
寸法
 10
141.310947
 20
-55.296478
  0
POINT
  8
寸法
 10
109.017615
 20
-55.296478
  0
TEXT
  7
TextStyle03
  8
寸法
  6
CONTINUOUS
 10
121.025
 20
-54.95
  1
968.8
 40
3.0
 72
     5
 11
129.275
 21
-54.95
  0
ENDBLK
  0
ENDSEC
  0
SECTION
  2
ENTITIES
  0
POLYLINE
  8
通り芯
  6
CONTINUOUS
 66
     1
 70
     1
  0
VERTEX
  8
通り芯
 10
-210.0
 20
-148.5
  0
VERTEX
  8
通り芯
 10
210.0
 20
-148.5
  0
VERTEX
  8
通り芯
 10
210.0
 20
148.5
  0
VERTEX
  8
通り芯
 10
-210.0
 20
148.5
  0
SEQEND
  0
INSERT
  2
*GRP_0001
  8
型材断面
  6
CONTINUOUS
 10
0.0
 20
0.0
  0
LINE
  8
型材断面
  6
DASHDOT
 10
46.224393
 20
-77.836442
 11
46.224393
 21
42.814033
  0
LINE
  8
型材断面
  6
DASHDOT
 10
-20.442275
 20
-77.836442
 11
-20.442275
 21
42.814033
  0
LINE
  8
型材断面
  6
DASHDOT
 10
-87.10894
 20
-77.836442
 11
-87.10894
 21
42.814033
  0
LINE
  8
型材断面
  6
DASHDOT
 10
-20.442275
 20
22.814033
 11
-20.442275
 21
42.814033
  0
LINE
  8
型材断面
  6
CONTINUOUS
 10
-70.442273
 20
45.444162
 11
-71.937903
 21
48.03467
  0
LINE
  8
型材断面
  6
CONTINUOUS
 10
-70.442273
 20
45.444162
 11
-68.946642
 21
48.03467
  0
LINE
  8
型材断面
  6
CONTINUOUS
 10
-68.946642
 20
48.03467
 11
-71.937903
 21
48.03467
  0
LINE
  8
型材断面
  6
CONTINUOUS
 10
-127.961147
 20
87.32138
 11
-129.456778
 21
84.730873
  0
LINE
  8
型材断面
  6
CONTINUOUS
 10
-127.961147
 20
87.32138
 11
-126.465517
 21
84.730873
  0
LINE
  8
型材断面
  6
CONTINUOUS
 10
-126.465517
 20
84.730873
 11
-129.456778
 21
84.730873
  0
LINE
  8
型材断面
  6
CONTINUOUS
 10
-133.983735
 20
83.792277
 11
-87.741957
 21
83.792277
  0
LINE
  8
型材断面
  6
CONTINUOUS
 10
-89.73907
 20
32.814033
 11
-92.329577
 21
34.309663
  0
LINE
  8
型材断面
  6
CONTINUOUS
 10
-89.73907
 20
32.814033
 11
-92.329577
 21
31.318403
  0
LINE
  8
型材断面
  6
CONTINUOUS
 10
-92.329577
 20
31.318403
 11
-92.329577
 21
34.309663
  0
LINE
  8
型材断面
  6
CONTINUOUS
 10
-70.442273
 20
20.183902
 11
-71.937903
 21
17.593395
  0
LINE
  8
型材断面
  6
CONTINUOUS
 10
-70.442273
 20
20.183902
 11
-68.946642
 21
17.593395
  0
LINE
  8
型材断面
  6
CONTINUOUS
 10
-68.946642
 20
17.593395
 11
-71.937903
 21
17.593395
  0
LINE
  8
型材断面
  6
CONTINUOUS
 10
29.557723
 20
45.444162
 11
31.053353
 21
48.03467
  0
LINE
  8
型材断面
  6
CONTINUOUS
 10
29.557723
 20
45.444162
 11
28.062092
 21
48.03467
  0
LINE
  8
型材断面
  6
CONTINUOUS
 10
28.062092
 20
48.03467
 11
31.053353
 21
48.03467
  0
LINE
  8
型材断面
  6
CONTINUOUS
 10
48.85452
 20
32.814033
 11
51.445027
 21
34.309663
  0
LINE
  8
型材断面
  6
CONTINUOUS
 10
48.85452
 20
32.814033
 11
51.445027
 21
31.318403
  0
LINE
  8
型材断面
  6
CONTINUOUS
 10
51.445027
 20
31.318403
 11
51.445027
 21
34.309663
  0
LINE
  8
型材断面
  6
CONTINUOUS
 10
29.557723
 20
20.183902
 11
31.053353
 21
17.593395
  0
LINE
  8
型材断面
  6
CONTINUOUS
 10
29.557723
 20
20.183902
 11
28.062092
 21
17.593395
  0
LINE
  8
型材断面
  6
CONTINUOUS
 10
28.062092
 20
17.593395
 11
31.053353
 21
17.593395
  0
LINE
  8
型材断面
  6
CONTINUOUS
 10
-133.983735
 20
76.82362
 11
-87.741957
 21
76.82362
  0
LINE
  8
型材断面
  6
CONTINUOUS
 10
-90.108987
 20
19.81399
 11
-20.442275
 21
19.81399
  0
LINE
  8
型材断面
  6
CONTINUOUS
 10
-90.108987
 20
45.814075
 11
-20.442275
 21
45.814075
  0
LINE
  8
型材断面
  6
CONTINUOUS
 10
49.224438
 20
45.814075
 11
-20.442275
 21
45.814075
  0
LINE
  8
型材断面
  6
CONTINUOUS
 10
49.224438
 20
19.81399
 11
-20.442275
 21
19.81399
  0
LINE
  8
型材断面
  6
CONTINUOUS
 10
116.09271
 20
20.313977
 11
116.09271
 21
32.814033
  0
CIRCLE
  8
型材断面
  6
CONTINUOUS
 62
    47
 10
115.092713
 20
19.814042
 40
0.011113
  0
LINE
  8
型材断面
  6
CONTINUOUS
 62
    47
 10
115.59271
 20
20.314033
 11
115.59271
 21
19.814042
  0
LINE
  8
型材断面
  6
CONTINUOUS
 62
    47
 10
115.59271
 20
19.814042
 11
115.092713
 21
19.814042
  0
LINE
  8
型材断面
  6
CONTINUOUS
 62
    47
 10
115.092713
 20
19.814042
 11
114.595533
 21
22.747372
  0
LINE
  8
型材断面
  6
CONTINUOUS
 62
    47
 10
115.59271
 20
20.314033
 11
116.09271
 21
20.314033
  0
LINE
  8
型材断面
  6
CONTINUOUS
 10
114.595533
 20
22.74732
 11
114.595533
 21
32.814033
  0
LINE
  8
型材断面
  6
CONTINUOUS
 62
    47
 10
113.94271
 20
21.324093
 11
113.94271
 21
32.814033
  0
LINE
  8
型材断面
  6
CONTINUOUS
 62
    47
 10
112.44271
 20
21.167572
 11
112.44271
 21
32.814033
  0
LINE
  8
型材断面
  6
CONTINUOUS
 62
    47
 10
112.276043
 20
21.324093
 11
112.276043
 21
32.814033
  0
LINE
  8
型材断面
  6
CONTINUOUS
 10
115.092715
 20
19.813988
 11
115.092715
 21
32.814033
  0
LINE
  8
型材断面
  6
CONTINUOUS
 62
    47
 10
115.59271
 20
19.813988
 11
115.59271
 21
32.814033
  0
LINE
  8
型材断面
  6
CONTINUOUS
 62
    47
 10
114.595533
 20
22.747372
 11
113.94271
 21
22.747372
  0
LINE
  8
型材断面
  6
CONTINUOUS
 10
116.09271
 20
45.314087
 11
116.09271
 21
32.814033
  0
CIRCLE
  8
型材断面
  6
CONTINUOUS
 62
    47
 10
115.092713
 20
45.814025
 40
0.011113
  0
LINE
  8
型材断面
  6
CONTINUOUS
 62
    47
 10
115.59271
 20
45.314033
 11
115.59271
 21
45.814025
  0
LINE
  8
型材断面
  6
CONTINUOUS
 62
    47
 10
115.59271
 20
45.814025
 11
115.092713
 21
45.814025
  0
LINE
  8
型材断面
  6
CONTINUOUS
 62
    47
 10
115.092713
 20
45.814025
 11
114.595533
 21
42.880693
  0
LINE
  8
型材断面
  6
CONTINUOUS
 62
    47
 10
115.59271
 20
45.314033
 11
116.09271
 21
45.314033
  0
LINE
  8
型材断面
  6
CONTINUOUS
 10
114.595533
 20
42.880747
 11
114.595533
 21
32.814033
  0
LINE
  8
型材断面
  6
CONTINUOUS
 62
    47
 10
113.94271
 20
44.303973
 11
113.94271
 21
32.814033
  0
LINE
  8
型材断面
  6
CONTINUOUS
 62
    47
 10
112.44271
 20
44.460495
 11
112.44271
 21
32.814033
  0
LINE
  8
型材断面
  6
CONTINUOUS
 62
    47
 10
112.276043
 20
44.303973
 11
112.276043
 21
32.814033
  0
LINE
  8
型材断面
  6
CONTINUOUS
 10
115.092715
 20
45.814077
 11
115.092715
 21
32.814033
  0
LINE
  8
型材断面
  6
CONTINUOUS
 62
    47
 10
115.59271
 20
45.814077
 11
115.59271
 21
32.814033
  0
LINE
  8
型材断面
  6
CONTINUOUS
 62
    47
 10
114.595533
 20
42.880693
 11
113.94271
 21
42.880693
  0
LINE
  8
型材断面
  6
DASHDOT
 10
123.06872
 20
22.814033
 11
-87.10894
 21
22.814033
  0
LINE
  8
型材断面
  6
DASHDOT
 10
123.06872
 20
42.814033
 11
-87.10894
 21
42.814033
  0
LINE
  8
型材断面
  6
DASHDOT
 10
-87.10894
 20
32.814033
 11
123.06872
 21
32.814033
  0
CIRCLE
  8
型材断面
  6
CONTINUOUS
 62
    47
 10
-90.108932
 20
-71.438295
 40
0.011113
  0
LINE
  8
型材断面
  6
CONTINUOUS
 62
    47
 10
-89.60894
 20
-71.938295
 11
-90.108932
 21
-71.938295
  0
LINE
  8
型材断面
  6
CONTINUOUS
 62
    47
 10
-90.108932
 20
-71.938295
 11
-90.108932
 21
-71.438295
  0
LINE
  8
型材断面
  6
CONTINUOUS
 62
    47
 10
-90.108932
 20
-71.438295
 11
-87.1756
 21
-70.941115
  0
LINE
  8
型材断面
  6
CONTINUOUS
 62
    47
 10
-89.60894
 20
-71.938295
 11
-89.60894
 21
-72.438295
  0
LINE
  8
型材断面
  6
CONTINUOUS
 62
    47
 10
-87.1756
 20
-70.941115
 11
-87.1756
 21
-70.288292
  0
CIRCLE
  8
型材断面
  6
CONTINUOUS
 62
    47
 10
49.224385
 20
-71.438295
 40
0.011113
  0
LINE
  8
型材断面
  6
CONTINUOUS
 62
    47
 10
48.724393
 20
-71.938295
 11
49.224385
 21
-71.938295
  0
LINE
  8
型材断面
  6
CONTINUOUS
 62
    47
 10
49.224385
 20
-71.938295
 11
49.224385
 21
-71.438295
  0
LINE
  8
型材断面
  6
CONTINUOUS
 62
    47
 10
49.224385
 20
-71.438295
 11
46.291052
 21
-70.941115
  0
LINE
  8
型材断面
  6
CONTINUOUS
 62
    47
 10
48.724393
 20
-71.938295
 11
48.724393
 21
-72.438295
  0
LINE
  8
型材断面
  6
CONTINUOUS
 62
    47
 10
46.291052
 20
-70.941115
 11
46.291052
 21
-70.288292
  0
LINE
  8
型材断面
  6
CONTINUOUS
 62
    47
 10
-88.59888
 20
-70.288292
 11
-20.442275
 21
-70.288292
  0
LINE
  8
型材断面
  6
CONTINUOUS
 62
    47
 10
-88.59888
 20
-68.621625
 11
-20.442275
 21
-68.621625
  0
LINE
  8
型材断面
  6
CONTINUOUS
 62
    47
 10
-88.755403
 20
-68.788292
 11
-20.442275
 21
-68.788292
  0
LINE
  8
型材断面
  6
CONTINUOUS
 10
-87.175655
 20
-70.941115
 11
-20.442275
 21
-70.941115
  0
LINE
  8
型材断面
  6
CONTINUOUS
 62
    47
 10
-90.108985
 20
-71.938295
 11
-20.442275
 21
-71.938295
  0
LINE
  8
型材断面
  6
CONTINUOUS
 10
-90.108985
 20
-71.438298
 11
-20.442275
 21
-71.438298
  0
LINE
  8
型材断面
  6
CONTINUOUS
 10
-89.608995
 20
-72.438295
 11
-20.442275
 21
-72.438295
  0
LINE
  8
型材断面
  6
CONTINUOUS
 10
48.724447
 20
-72.438295
 11
-20.442275
 21
-72.438295
  0
LINE
  8
型材断面
  6
CONTINUOUS
 62
    47
 10
49.224438
 20
-71.938295
 11
-20.442275
 21
-71.938295
  0
LINE
  8
型材断面
  6
CONTINUOUS
 62
    47
 10
47.870855
 20
-68.788292
 11
-20.442275
 21
-68.788292
  0
LINE
  8
型材断面
  6
CONTINUOUS
 62
    47
 10
47.714332
 20
-68.621625
 11
-20.442275
 21
-68.621625
  0
LINE
  8
型材断面
  6
CONTINUOUS
 62
    47
 10
47.714332
 20
-70.288292
 11
-20.442275
 21
-70.288292
  0
LINE
  8
型材断面
  6
CONTINUOUS
 10
46.291105
 20
-70.941115
 11
-20.442275
 21
-70.941115
  0
LINE
  8
型材断面
  6
CONTINUOUS
 10
49.224438
 20
-71.438298
 11
-20.442275
 21
-71.438298
  0
LINE
  8
型材断面
  6
DASHDOT
 10
-53.900605
 20
22.814033
 11
-53.900605
 21
42.814033
  0
LINE
  8
型材断面
  6
DASHDOT
 10
13.016055
 20
22.814033
 11
13.016055
 21
42.814033
  0
LINE
  8
型材断面
  6
CONTINUOUS
 10
30.036893
 20
23.66757
 11
30.036893
 21
21.16757
  0
LINE
  8
型材断面
  6
CONTINUOUS
 10
29.203557
 20
23.66757
 11
29.203557
 21
21.16757
  0
LINE
  8
型材断面
  6
CONTINUOUS
 10
-3.296443
 20
23.66757
 11
-3.296443
 21
21.16757
  0
LINE
  8
型材断面
  6
CONTINUOUS
 10
-4.129778
 20
23.66757
 11
-4.129778
 21
21.16757
  0
LINE
  8
型材断面
  6
CONTINUOUS
 10
-70.921443
 20
23.66757
 11
-70.921443
 21
21.16757
  0
LINE
  8
型材断面
  6
CONTINUOUS
 10
-70.088108
 20
23.66757
 11
-70.088108
 21
21.16757
  0
LINE
  8
型材断面
  6
CONTINUOUS
 10
-37.588108
 20
23.66757
 11
-37.588108
 21
21.16757
  0
LINE
  8
型材断面
  6
CONTINUOUS
 10
-36.754773
 20
23.66757
 11
-36.754773
 21
21.16757
  0
LINE
  8
型材断面
  6
CONTINUOUS
 10
30.036893
 20
41.960495
 11
30.036893
 21
44.460495
  0
LINE
  8
型材断面
  6
CONTINUOUS
 10
29.203557
 20
41.960495
 11
29.203557
 21
44.460495
  0
LINE
  8
型材断面
  6
CONTINUOUS
 10
-3.296443
 20
41.960495
 11
-3.296443
 21
44.460495
  0
LINE
  8
型材断面
  6
CONTINUOUS
 10
-4.129778
 20
41.960495
 11
-4.129778
 21
44.460495
  0
LINE
  8
型材断面
  6
CONTINUOUS
 10
-70.921443
 20
41.960495
 11
-70.921443
 21
44.460495
  0
LINE
  8
型材断面
  6
CONTINUOUS
 10
-70.088108
 20
41.960495
 11
-70.088108
 21
44.460495
  0
LINE
  8
型材断面
  6
CONTINUOUS
 10
-37.588108
 20
41.960495
 11
-37.588108
 21
44.460495
  0
LINE
  8
型材断面
  6
CONTINUOUS
 10
-36.754773
 20
41.960495
 11
-36.754773
 21
44.460495
  0
LINE
  8
型材断面
  6
CONTINUOUS
 10
-3.296443
 20
23.66757
 11
29.203557
 21
23.66757
  0
LINE
  8
型材断面
  6
CONTINUOUS
 10
-3.296443
 20
41.960495
 11
29.203557
 21
41.960495
  0
LINE
  8
型材断面
  6
CONTINUOUS
 10
-36.754773
 20
41.960495
 11
-4.129778
 21
41.960495
  0
LINE
  8
型材断面
  6
CONTINUOUS
 10
-36.754773
 20
23.66757
 11
-4.129778
 21
23.66757
  0
LINE
  8
型材断面
  6
CONTINUOUS
 10
-70.088108
 20
23.66757
 11
-37.588108
 21
23.66757
  0
LINE
  8
型材断面
  6
CONTINUOUS
 10
-70.088108
 20
41.960495
 11
-37.588108
 21
41.960495
  0
LINE
  8
型材断面
  6
CONTINUOUS
 10
14.266055
 20
24.500902
 11
11.766055
 21
24.500902
  0
LINE
  8
型材断面
  6
CONTINUOUS
 10
14.266055
 20
24.500902
 11
14.266055
 21
41.127162
  0
LINE
  8
型材断面
  6
CONTINUOUS
 10
11.766055
 20
24.500902
 11
11.766055
 21
41.127162
  0
LINE
  8
型材断面
  6
CONTINUOUS
 10
14.266055
 20
41.127162
 11
11.766055
 21
41.127162
  0
LINE
  8
型材断面
  6
CONTINUOUS
 10
-19.192275
 20
24.500902
 11
-21.692275
 21
24.500902
  0
LINE
  8
型材断面
  6
CONTINUOUS
 10
-19.192275
 20
24.500902
 11
-19.192275
 21
41.127162
  0
LINE
  8
型材断面
  6
CONTINUOUS
 10
-21.692275
 20
24.500902
 11
-21.692275
 21
41.127162
  0
LINE
  8
型材断面
  6
CONTINUOUS
 10
-19.192275
 20
41.127162
 11
-21.692275
 21
41.127162
  0
LINE
  8
型材断面
  6
CONTINUOUS
 10
-52.650605
 20
24.500902
 11
-55.150605
 21
24.500902
  0
LINE
  8
型材断面
  6
CONTINUOUS
 10
-52.650605
 20
24.500902
 11
-52.650605
 21
41.127162
  0
LINE
  8
型材断面
  6
CONTINUOUS
 10
-55.150605
 20
24.500902
 11
-55.150605
 21
41.127162
  0
LINE
  8
型材断面
  6
CONTINUOUS
 10
-52.650605
 20
41.127162
 11
-55.150605
 21
41.127162
  0
LINE
  8
型材断面
  6
CONTINUOUS
 10
49.22444
 20
45.814075
 11
49.22444
 21
32.81403
  0
LINE
  8
型材断面
  6
CONTINUOUS
 10
49.22444
 20
19.81399
 11
49.22444
 21
32.814035
  0
LINE
  8
型材断面
  6
CONTINUOUS
 10
45.370852
 20
32.397365
 11
47.870852
 21
32.397365
  0
LINE
  8
型材断面
  6
CONTINUOUS
 10
45.370852
 20
33.2307
 11
47.870852
 21
33.2307
  0
LINE
  8
型材断面
  6
CONTINUOUS
 10
47.635155
 20
21.16752
 11
47.870855
 21
21.40322
  0
LINE
  8
型材断面
  6
CONTINUOUS
 10
49.22444
 20
19.81399
 11
47.753032
 21
21.285397
  0
LINE
  8
型材断面
  6
CONTINUOUS
 10
45.135155
 20
23.66752
 11
45.370855
 21
23.90322
  0
LINE
  8
型材断面
  6
CONTINUOUS
 10
45.135155
 20
23.66752
 11
47.635105
 21
21.16757
  0
LINE
  8
型材断面
  6
CONTINUOUS
 10
45.370855
 20
23.90322
 11
47.870852
 21
21.403223
  0
LINE
  8
型材断面
  6
CONTINUOUS
 10
45.370852
 20
32.397365
 11
45.370852
 21
23.903218
  0
LINE
  8
型材断面
  6
CONTINUOUS
 10
47.635155
 20
44.460545
 11
47.870855
 21
44.224845
  0
LINE
  8
型材断面
  6
CONTINUOUS
 10
49.22444
 20
45.814075
 11
47.753032
 21
44.342668
  0
LINE
  8
型材断面
  6
CONTINUOUS
 10
45.135155
 20
41.960545
 11
45.370855
 21
41.724845
  0
LINE
  8
型材断面
  6
CONTINUOUS
 10
45.135155
 20
41.960545
 11
47.635105
 21
44.460495
  0
LINE
  8
型材断面
  6
CONTINUOUS
 10
45.370855
 20
41.724845
 11
47.870852
 21
44.224842
  0
LINE
  8
型材断面
  6
CONTINUOUS
 10
47.870852
 20
21.403223
 11
47.870852
 21
44.224842
  0
LINE
  8
型材断面
  6
CONTINUOUS
 10
45.370852
 20
33.2307
 11
45.370852
 21
41.724848
  0
LINE
  8
型材断面
  6
CONTINUOUS
 10
30.036893
 20
41.960495
 11
45.135105
 21
41.960495
  0
LINE
  8
型材断面
  6
CONTINUOUS
 10
30.036893
 20
23.66757
 11
45.135105
 21
23.66757
  0
LINE
  8
型材断面
  6
CONTINUOUS
 10
-90.10899
 20
45.814075
 11
-90.10899
 21
32.81403
  0
LINE
  8
型材断面
  6
CONTINUOUS
 10
-90.10899
 20
19.81399
 11
-90.10899
 21
32.814035
  0
LINE
  8
型材断面
  6
CONTINUOUS
 10
-86.255403
 20
32.397365
 11
-88.755403
 21
32.397365
  0
LINE
  8
型材断面
  6
CONTINUOUS
 10
-86.255403
 20
33.2307
 11
-88.755403
 21
33.2307
  0
LINE
  8
型材断面
  6
CONTINUOUS
 10
-88.519705
 20
21.16752
 11
-88.755405
 21
21.40322
  0
LINE
  8
型材断面
  6
CONTINUOUS
 10
-90.10899
 20
19.81399
 11
-88.637583
 21
21.285397
  0
LINE
  8
型材断面
  6
CONTINUOUS
 10
-86.019705
 20
23.66752
 11
-86.255405
 21
23.90322
  0
LINE
  8
型材断面
  6
CONTINUOUS
 10
-86.019705
 20
23.66752
 11
-88.519655
 21
21.16757
  0
LINE
  8
型材断面
  6
CONTINUOUS
 10
-86.255405
 20
23.90322
 11
-88.755403
 21
21.403223
  0
LINE
  8
型材断面
  6
CONTINUOUS
 10
-86.255403
 20
32.397365
 11
-86.255403
 21
23.903218
  0
LINE
  8
型材断面
  6
CONTINUOUS
 10
-88.519705
 20
44.460545
 11
-88.755405
 21
44.224845
  0
LINE
  8
型材断面
  6
CONTINUOUS
 10
-90.10899
 20
45.814075
 11
-88.637583
 21
44.342668
  0
LINE
  8
型材断面
  6
CONTINUOUS
 10
-86.019705
 20
41.960545
 11
-86.255405
 21
41.724845
  0
LINE
  8
型材断面
  6
CONTINUOUS
 10
-86.019705
 20
41.960545
 11
-88.519655
 21
44.460495
  0
LINE
  8
型材断面
  6
CONTINUOUS
 10
-86.255405
 20
41.724845
 11
-88.755403
 21
44.224842
  0
LINE
  8
型材断面
  6
CONTINUOUS
 10
-88.755403
 20
21.403223
 11
-88.755403
 21
44.224842
  0
LINE
  8
型材断面
  6
CONTINUOUS
 10
-86.255403
 20
33.2307
 11
-86.255403
 21
41.724848
  0
LINE
  8
型材断面
  6
CONTINUOUS
 10
-70.921443
 20
23.66757
 11
-86.019655
 21
23.66757
  0
LINE
  8
型材断面
  6
CONTINUOUS
 10
47.635105
 20
21.16757
 11
-88.519655
 21
21.16757
  0
LINE
  8
型材断面
  6
CONTINUOUS
 10
-70.921443
 20
41.960495
 11
-86.019655
 21
41.960495
  0
LINE
  8
型材断面
  6
CONTINUOUS
 10
47.635105
 20
44.460495
 11
-88.519655
 21
44.460495
  0
TEXT
  7
TextStyle03
  8
文字
  6
CONTINUOUS
 10
-125.15
 20
84.95
  1
は排水穴位置を示す
 40
3.0
 72
     5
 11
-95.15
 21
84.95
  0
TEXT
  7
TextStyle03
  8
文字
  6
CONTINUOUS
 10
62.075
 20
104.525
  1
ＮＳコード：ＮＳＦＫＺ
 40
5.0
 72
     5
 11
123.325
 21
104.525
  0
TEXT
  7
TextStyle03
  8
文字
  6
CONTINUOUS
 10
122.775
 20
-76.7
  1
網入り6.8t
 40
3.0
 72
     5
 11
139.4625
 21
-76.7
  0
TEXT
  7
TextStyle03
  8
文字
  6
CONTINUOUS
 10
129.45
 20
-81.375
  1
×４枚
 40
3.0
 72
     5
 11
139.2
 21
-81.375
  0
TEXT
  7
TextStyle03
  8
文字
  6
CONTINUOUS
 10
-108.175
 20
11.275
  1
アンカーピッチ
 40
3.0
 50
90.0
 72
     5
 11
-108.175
 21
34.525
  0
TEXT
  7
TextStyle03
  8
文字
  6
CONTINUOUS
 10
-79.025
 20
80.85
  1
アンカーピッチ
 40
3.0
 72
     5
 11
-55.775
 21
80.85
  0
TEXT
  7
TextStyle03
  8
文字
  6
CONTINUOUS
 10
-128.875
 20
77.75
  1
アンカー数量　１６ヶ所
 40
3.0
 72
     5
 11
-92.125
 21
77.75
  0
LINE
  8
文字
  6
CONTINUOUS
 10
112.276043
 20
56.453242
 11
112.276043
 21
47.100085
  0
LINE
  8
文字
  6
CONTINUOUS
 10
115.59271
 20
56.453242
 11
115.59271
 21
47.165438
  0
LINE
  8
文字
  6
CONTINUOUS
 10
59.8636
 20
-68.621625
 11
50.510445
 21
-68.621625
  0
LINE
  8
文字
  6
CONTINUOUS
 10
59.8636
 20
-71.938295
 11
50.575798
 21
-71.938295
  0
LINE
  8
文字
  6
CONTINUOUS
 10
141.310947
 20
-55.296478
 11
141.310947
 21
-62.358832
  0
LINE
  8
文字
  6
CONTINUOUS
 10
109.017615
 20
-55.296478
 11
109.017615
 21
-62.358832
  0
TEXT
  7
TextStyle03
  8
文字
  6
CONTINUOUS
 10
61.925
 20
125.25
  1
シリーズ：ＴＦ２ＦＫＬ
 40
5.0
 72
     5
 11
123.175
 21
125.25
  0
TEXT
  7
TextStyle03
  8
文字
  6
CONTINUOUS
 10
61.925
 20
119.625
  1
　　　　　（固定）600×4000タイプ
 40
5.0
 72
     5
 11
154.1125
 21
119.625
  0
TEXT
  7
TextStyle03
  8
文字
  6
CONTINUOUS
 10
61.925
 20
114.0
  1
図面名　：外観姿図
 40
5.0
 72
     5
 11
111.925
 21
114.0
  0
TEXT
  7
TextStyle03
  8
文字
  6
CONTINUOUS
 10
61.925
 20
108.375
  1
　　　　　　
 40
5.0
 72
     5
 11
95.05
 21
108.375
  0
INSERT
  2
*DIM_0002
  8
寸法
  6
CONTINUOUS
 10
0.0
 20
0.0
  0
INSERT
  2
*DIM_0003
  8
寸法
  6
CONTINUOUS
 10
0.0
 20
0.0
  0
INSERT
  2
*DIM_0004
  8
寸法
  6
CONTINUOUS
 10
0.0
 20
0.0
  0
INSERT
  2
*DIM_0005
  8
寸法
  6
CONTINUOUS
 10
0.0
 20
0.0
  0
INSERT
  2
*DIM_0006
  8
寸法
  6
CONTINUOUS
 10
0.0
 20
0.0
  0
INSERT
  2
*DIM_0007
  8
寸法
  6
CONTINUOUS
 10
0.0
 20
0.0
  0
INSERT
  2
*DIM_0008
  8
寸法
  6
CONTINUOUS
 10
0.0
 20
0.0
  0
INSERT
  2
*DIM_0009
  8
寸法
  6
CONTINUOUS
 10
0.0
 20
0.0
  0
INSERT
  2
*DIM_0010
  8
寸法
  6
CONTINUOUS
 10
0.0
 20
0.0
  0
INSERT
  2
*DIM_0011
  8
寸法
  6
CONTINUOUS
 10
0.0
 20
0.0
  0
INSERT
  2
*DIM_0012
  8
寸法
  6
CONTINUOUS
 10
0.0
 20
0.0
  0
INSERT
  2
*DIM_0013
  8
寸法
  6
CONTINUOUS
 10
0.0
 20
0.0
  0
INSERT
  2
*DIM_0014
  8
寸法
  6
CONTINUOUS
 10
0.0
 20
0.0
  0
INSERT
  2
*DIM_0015
  8
寸法
  6
CONTINUOUS
 10
0.0
 20
0.0
  0
LINE
  8
別途部材
  6
CONTINUOUS
 62
    47
 10
112.376043
 20
21.167572
 11
112.44271
 21
21.167572
  0
ARC
  8
別途部材
  6
CONTINUOUS
 62
    47
 10
112.376041
 20
21.267571
 40
0.1
 50
180.0
 51
270.0
  0
LINE
  8
別途部材
  6
CONTINUOUS
 62
    47
 10
112.276043
 20
21.267572
 11
112.276043
 21
21.324093
  0
LINE
  8
別途部材
  6
CONTINUOUS
 62
    47
 10
113.94271
 20
21.324093
 11
112.44271
 21
21.324093
  0
LINE
  8
別途部材
  6
CONTINUOUS
 62
    47
 10
112.376043
 20
44.460495
 11
112.44271
 21
44.460495
  0
ARC
  8
別途部材
  6
CONTINUOUS
 62
    47
 10
112.376041
 20
44.360495
 40
0.1
 50
90.0
 51
180.0
  0
LINE
  8
別途部材
  6
CONTINUOUS
 62
    47
 10
112.276043
 20
44.360495
 11
112.276043
 21
44.303973
  0
LINE
  8
別途部材
  6
CONTINUOUS
 62
    47
 10
113.94271
 20
44.303973
 11
112.44271
 21
44.303973
  0
LINE
  8
別途部材
  6
CONTINUOUS
 62
    47
 10
-88.755403
 20
-68.721625
 11
-88.755403
 21
-68.788292
  0
ARC
  8
別途部材
  6
CONTINUOUS
 62
    47
 10
-88.655404
 20
-68.721622
 40
0.1
 50
90.0
 51
180.0
  0
LINE
  8
別途部材
  6
CONTINUOUS
 62
    47
 10
-88.655403
 20
-68.621625
 11
-88.59888
 21
-68.621625
  0
LINE
  8
別途部材
  6
CONTINUOUS
 62
    47
 10
-88.59888
 20
-70.288292
 11
-88.59888
 21
-68.788292
  0
LINE
  8
別途部材
  6
CONTINUOUS
 62
    47
 10
47.870855
 20
-68.721625
 11
47.870855
 21
-68.788292
  0
ARC
  8
別途部材
  6
CONTINUOUS
 62
    47
 10
47.770853
 20
-68.721622
 40
0.1
 50
0.0
 51
90.0
  0
LINE
  8
別途部材
  6
CONTINUOUS
 62
    47
 10
47.770855
 20
-68.621625
 11
47.714332
 21
-68.621625
  0
LINE
  8
別途部材
  6
CONTINUOUS
 62
    47
 10
47.714332
 20
-70.288292
 11
47.714332
 21
-68.788292
  0
LINE
  8
曲げ物
  6
CONTINUOUS
 10
30.950122
 20
34.739582
 11
27.25481
 21
31.04427
  0
LINE
  8
曲げ物
  6
CONTINUOUS
 10
30.246652
 20
33.203472
 11
28.790922
 21
31.747742
  0
LINE
  8
曲げ物
  6
CONTINUOUS
 10
29.414012
 20
34.036112
 11
27.958282
 21
32.580383
  0
LINE
  8
曲げ物
  6
CONTINUOUS
 10
-1.234188
 20
34.739582
 11
-4.9295
 21
31.04427
  0
LINE
  8
曲げ物
  6
CONTINUOUS
 10
-1.937658
 20
33.203472
 11
-3.393387
 21
31.747742
  0
LINE
  8
曲げ物
  6
CONTINUOUS
 10
-2.770298
 20
34.036112
 11
-4.226027
 21
32.580383
  0
LINE
  8
曲げ物
  6
CONTINUOUS
 10
-35.336132
 20
34.739582
 11
-39.031445
 21
31.04427
  0
LINE
  8
曲げ物
  6
CONTINUOUS
 10
-36.039603
 20
33.203472
 11
-37.495333
 21
31.747742
  0
LINE
  8
曲げ物
  6
CONTINUOUS
 10
-36.872242
 20
34.036112
 11
-38.327973
 21
32.580383
  0
LINE
  8
曲げ物
  6
CONTINUOUS
 10
-68.859188
 20
34.739582
 11
-72.5545
 21
31.04427
  0
LINE
  8
曲げ物
  6
CONTINUOUS
 10
-69.562658
 20
33.203472
 11
-71.018387
 21
31.747742
  0
LINE
  8
曲げ物
  6
CONTINUOUS
 10
-70.395298
 20
34.036112
 11
-71.851027
 21
32.580383
  0
LINE
  8
曲げ物
  6
CONTINUOUS
 10
141.310947
 20
-83.118728
 11
141.310947
 21
-63.785395
  0
LINE
  8
曲げ物
  6
CONTINUOUS
 10
109.017615
 20
-83.118728
 11
109.017615
 21
-63.785395
  0
LINE
  8
曲げ物
  6
CONTINUOUS
 10
141.310947
 20
-63.785395
 11
109.017615
 21
-63.785395
  0
LINE
  8
曲げ物
  6
CONTINUOUS
 10
141.310947
 20
-83.118728
 11
109.017615
 21
-83.118728
  0
CIRCLE
  8
LAYER010
  6
CONTINUOUS
 62
    47
 10
115.092713
 20
19.814042
 40
0.011113
  0
CIRCLE
  8
LAYER010
  6
CONTINUOUS
 62
    47
 10
115.092713
 20
45.814025
 40
0.011113
  0
CIRCLE
  8
LAYER010
  6
CONTINUOUS
 62
    47
 10
-90.108932
 20
-71.438295
 40
0.011113
  0
CIRCLE
  8
LAYER010
  6
CONTINUOUS
 62
    47
 10
49.224385
 20
-71.438295
 40
0.011113
  0
ENDSEC
  0
EOF
