  0
SECTION
  2
HEADER
  9
$EXTMIN
 10
-210.0
 20
-148.5
  9
$EXTMAX
 10
210.0
 20
148.5
  9
$PDMODE
 70
    32
  9
$PDSIZE
 40
1.5
  9
$LTSCALE
 40
10.0
  0
ENDSEC
  0
SECTION
  2
TABLES
  0
TABLE
  2
LTYPE
 70
    15
  0
LTYPE
  2
CONTINUOUS
 70
    64
  3
実線
 72
    65
 73
     0
 40
0.0
  0
LTYPE
  2
DASHED
 70
    64
  3
破線A
 72
    65
 73
     2
 40
0.6
 49
0.4
 49
-0.2
  0
LTYPE
  2
DASHEDX2
 70
    64
  3
破線B
 72
    65
 73
     2
 40
1.3
 49
0.9
 49
-0.4
  0
LTYPE
  2
DASHDOT
 70
    64
  3
１点鎖線A
 72
    65
 73
     4
 40
0.5375
 49
0.375
 49
-0.05
 49
0.0625
 49
-0.05
  0
LTYPE
  2
DASHDOTX2
 70
    64
  3
１点鎖線B
 72
    65
 73
     4
 40
1.075
 49
0.75
 49
-0.1
 49
0.125
 49
-0.1
  0
LTYPE
  2
DIVIDE2
 70
    64
  3
２点鎖線A
 72
    65
 73
     6
 40
0.5125
 49
0.3
 49
-0.0375
 49
0.05
 49
-0.0375
 49
0.05
 49
-0.0375
  0
LTYPE
  2
DIVIDE
 70
    64
  3
２点鎖線B
 72
    65
 73
     6
 40
1.05
 49
0.55
 49
-0.1
 49
0.1
 49
-0.1
 49
0.1
 49
-0.1
  0
LTYPE
  2
DOT
 70
    64
  3
点線A
 72
    65
 73
     2
 40
0.1125
 49
0.0625
 49
-0.05
  0
LTYPE
  2
DOTX2
 70
    64
  3
点線B
 72
    65
 73
     2
 40
0.275
 49
0.15
 49
-0.125
  0
LTYPE
  2
CONTINUOUS
 70
    64
  3
実線
 72
    65
 73
     0
 40
0.0
  0
LTYPE
  2
CONTINUOUS
 70
    64
  3
実線
 72
    65
 73
     0
 40
0.0
  0
LTYPE
  2
CONTINUOUS
 70
    64
  3
実線
 72
    65
 73
     0
 40
0.0
  0
LTYPE
  2
CONTINUOUS
 70
    64
  3
実線
 72
    65
 73
     0
 40
0.0
  0
LTYPE
  2
CONTINUOUS
 70
    64
  3
実線
 72
    65
 73
     0
 40
0.0
  0
LTYPE
  2
CONTINUOUS
 70
    64
  3
実線
 72
    65
 73
     0
 40
0.0
  0
ENDTAB
  0
TABLE
  2
LAYER
 70
    35
  0
LAYER
  2
通り芯
 70
     0
 62
    15
  6
CONTINUOUS
  0
LAYER
  2
補助線
 70
     0
 62
    16
  6
DOT
  0
LAYER
  2
躯体
 70
     0
 62
    31
  6
CONTINUOUS
  0
LAYER
  2
型材
 70
     0
 62
    32
  6
CONTINUOUS
  0
LAYER
  2
型材断面
 70
     0
 62
    47
  6
CONTINUOUS
  0
LAYER
  2
ガラス
 70
     0
 62
    48
  6
CONTINUOUS
  0
LAYER
  2
ゴム等
 70
     0
 62
    63
  6
CONTINUOUS
  0
LAYER
  2
ボルト／ビス
 70
     0
 62
    64
  6
CONTINUOUS
  0
LAYER
  2
文字
 70
     0
 62
    79
  6
CONTINUOUS
  0
LAYER
  2
寸法
 70
     0
 62
    80
  6
CONTINUOUS
  0
LAYER
  2
ﾊｯﾁﾝｸﾞ
 70
     0
 62
    95
  6
CONTINUOUS
  0
LAYER
  2
別途部材
 70
     0
 62
    96
  6
CONTINUOUS
  0
LAYER
  2
曲げ物
 70
     0
 62
   111
  6
CONTINUOUS
  0
LAYER
  2
鉄骨等
 70
     0
 62
   112
  6
CONTINUOUS
  0
LAYER
  2
St
 70
     0
 62
   127
  6
CONTINUOUS
  0
LAYER
  2
その他部品等
 70
     0
 62
   128
  6
CONTINUOUS
  0
LAYER
  2
ｶﾞｽｹｯﾄ
 70
     0
 62
   143
  6
CONTINUOUS
  0
LAYER
  2
ｽｹｯﾁ
 70
     0
 62
    14
  6
CONTINUOUS
  0
LAYER
  2
0
 70
     0
 62
    17
  6
CONTINUOUS
  0
LAYER
  2
1
 70
     0
 62
    30
  6
CONTINUOUS
  0
LAYER
  2
4
 70
     0
 62
    33
  6
CONTINUOUS
  0
LAYER
  2
ﾚｲﾔ3
 70
     0
 62
    46
  6
CONTINUOUS
  0
LAYER
  2
外形線
 70
     0
 62
    49
  6
CONTINUOUS
  0
LAYER
  2
部品
 70
     0
 62
    14
  6
CONTINUOUS
  0
LAYER
  2
サッシ芯
 70
     0
 62
    17
  6
DASHDOTX2
  0
LAYER
  2
寸法線
 70
     0
 62
    62
  6
CONTINUOUS
  0
LAYER
  2
姿図外形線
 70
     0
 62
    65
  6
CONTINUOUS
  0
LAYER
  2
姿補助線
 70
     0
 62
    30
  6
CONTINUOUS
  0
LAYER
  2
透視線
 70
     0
 62
    78
  6
DOT
  0
LAYER
  2
用紙
 70
     0
 62
    81
  6
CONTINUOUS
  0
LAYER
  2
実線図枠
 70
     0
 62
    94
  6
CONTINUOUS
  0
LAYER
  2
補助図枠
 70
     0
 62
    97
  6
CONTINUOUS
  0
LAYER
  2
建具記号
 70
     0
 62
   110
  6
CONTINUOUS
  0
LAYER
  2
補助文字
 70
     0
 62
   113
  6
CONTINUOUS
  0
LAYER
  2
LAYER010
 70
     0
 62
    11
  6
CONTINUOUS
  0
ENDTAB
  0
TABLE
  2
STYLE
 70
    10
  0
STYLE
  2
STANDARD
 70
     0
 40
1.0
 41
1.0
 42
1.0
 50
0.0
 71
     0
  3
TXT
  4
BIGFONT
  0
STYLE
  2
TATE
 70
     4
 40
1.0
 41
1.0
 42
1.0
 50
0.0
 71
     0
  3
TXT
  4
BIGFONT
  0
STYLE
  2
TextStyle03
 70
     0
 40
1.0
 41
1.0
 42
1.0
 50
0.0
 71
     0
  3
MONOTXT
  4
BIGFONT
  0
STYLE
  2
TextStyle04
 70
     0
 40
1.0
 41
1.0
 42
1.0
 50
0.0
 71
     0
  3
MONOTXT
  4
BIGFONT
  0
STYLE
  2
TextStyle05
 70
     0
 40
1.0
 41
1.0
 42
1.0
 50
0.0
 71
     0
  3
MONOTXT
  4
BIGFONT
  0
STYLE
  2
TextStyle06
 70
     0
 40
1.0
 41
1.0
 42
1.0
 50
0.0
 71
     0
  3
MONOTXT
  4
BIGFONT
  0
STYLE
  2
TextStyle07
 70
     0
 40
1.0
 41
1.0
 42
1.0
 50
0.0
 71
     0
  3
MONOTXT
  4
BIGFONT
  0
STYLE
  2
TextStyle08
 70
     0
 40
1.0
 41
1.0
 42
1.0
 50
0.0
 71
     0
  3
MONOTXT
  4
BIGFONT
  0
STYLE
  2
TextStyle09
 70
     0
 40
1.0
 41
1.0
 42
1.0
 50
0.0
 71
     0
  3
MONOTXT
  4
BIGFONT
  0
STYLE
  2
TextStyle10
 70
     0
 40
1.0
 41
1.0
 42
1.0
 50
0.0
 71
     0
  3
MONOTXT
  4
BIGFONT
  0
ENDTAB
  0
ENDSEC
  0
SECTION
  2
BLOCKS
  0
BLOCK
  2
*GRP_0001
 70
    65
 10
0.0
 20
0.0
  0
LINE
  8
型材断面
  6
CONTINUOUS
 10
195.0
 20
133.5
 11
195.0
 21
-133.5
  0
LINE
  8
型材断面
  6
CONTINUOUS
 10
195.0
 20
-133.5
 11
-185.0
 21
-133.5
  0
LINE
  8
型材断面
  6
CONTINUOUS
 10
-185.0
 20
-133.5
 11
-185.0
 21
133.5
  0
LINE
  8
型材断面
  6
CONTINUOUS
 10
195.0
 20
133.5
 11
-185.0
 21
133.5
  0
LINE
  8
型材断面
  6
CONTINUOUS
 10
145.0
 20
-133.5
 11
145.0
 21
-118.5
  0
LINE
  8
型材断面
  6
CONTINUOUS
 10
195.0
 20
-118.5
 11
145.0
 21
-118.5
  0
ENDBLK
  0
BLOCK
  2
*DIM_0002
 70
    65
 10
0.0
 20
0.0
  0
LINE
  8
寸法
  6
BYBLOCK
 62
     0
 10
-128.742993
 20
-22.207025
 11
-128.742993
 21
-22.536362
  0
LINE
  8
寸法
  6
BYBLOCK
 62
     0
 10
71.257007
 20
-22.207025
 11
71.257007
 21
-22.536362
  0
LINE
  8
寸法
  6
BYBLOCK
 62
     0
 10
-128.742993
 20
-22.536362
 11
71.257007
 21
-22.536362
  0
POINT
  8
寸法
 62
     0
 10
-128.742993
 20
-22.536362
  0
POINT
  8
寸法
 62
     0
 10
71.257007
 20
-22.536362
  0
TEXT
  7
TextStyle03
  8
寸法
  6
CONTINUOUS
 62
     0
 10
-40.46875
 20
-22.175
  1
呼称寸法　6000
 40
3.0
 72
     5
 11
-17.03125
 21
-22.175
  0
ENDBLK
  0
BLOCK
  2
*DIM_0003
 70
    65
 10
0.0
 20
0.0
  0
LINE
  8
寸法
  6
BYBLOCK
 62
     0
 10
-112.076325
 20
9.76892
 11
-112.076325
 21
4.684867
  0
LINE
  8
寸法
  6
BYBLOCK
 62
     0
 10
-28.742993
 20
9.76892
 11
-28.742993
 21
4.684867
  0
LINE
  8
寸法
  6
BYBLOCK
 62
     0
 10
-112.076325
 20
4.684867
 11
-28.742993
 21
4.684867
  0
POINT
  8
寸法
 62
     0
 10
-112.076325
 20
4.684867
  0
POINT
  8
寸法
 62
     0
 10
-28.742993
 20
4.684867
  0
TEXT
  7
TextStyle03
  8
寸法
  6
CONTINUOUS
 62
     0
 10
-73.70625
 20
5.05
  1
2500
 40
3.0
 72
     5
 11
-67.14375
 21
5.05
  0
ENDBLK
  0
BLOCK
  2
*DIM_0004
 70
    65
 10
0.0
 20
0.0
  0
LINE
  8
寸法
  6
BYBLOCK
 62
     0
 10
54.59034
 20
9.76892
 11
54.59034
 21
4.684867
  0
LINE
  8
寸法
  6
BYBLOCK
 62
     0
 10
-28.742993
 20
4.684867
 11
54.59034
 21
4.684867
  0
POINT
  8
寸法
 62
     0
 10
54.59034
 20
4.684867
  0
TEXT
  7
TextStyle03
  8
寸法
  6
CONTINUOUS
 62
     0
 10
9.61875
 20
5.05
  1
2500
 40
3.0
 72
     5
 11
16.18125
 21
5.05
  0
ENDBLK
  0
BLOCK
  2
*DIM_0005
 70
    65
 10
0.0
 20
0.0
  0
LINE
  8
寸法
  6
BYBLOCK
 62
     0
 10
74.257052
 20
-78.991382
 11
74.257052
 21
-22.536362
  0
LINE
  8
寸法
  6
BYBLOCK
 62
     0
 10
71.257007
 20
-22.536362
 11
74.257052
 21
-22.536362
  0
POINT
  8
寸法
 62
     0
 10
71.257007
 20
-22.536362
  0
POINT
  8
寸法
 62
     0
 10
74.257052
 20
-22.536362
  0
TEXT
  7
TextStyle03
  8
寸法
  6
CONTINUOUS
 62
     0
 10
71.13125
 20
-22.175
  1
90
 40
3.0
 72
     5
 11
74.31875
 21
-22.175
  0
ENDBLK
  0
BLOCK
  2
*DIM_0006
 70
    65
 10
0.0
 20
0.0
  0
LINE
  8
寸法
  6
BYBLOCK
 62
     0
 10
-131.743037
 20
-78.991382
 11
-131.743037
 21
-22.536362
  0
LINE
  8
寸法
  6
BYBLOCK
 62
     0
 10
-128.742993
 20
-22.536362
 11
-131.743037
 21
-22.536362
  0
POINT
  8
寸法
 62
     0
 10
-128.742993
 20
-22.536362
  0
POINT
  8
寸法
 62
     0
 10
-131.743037
 20
-22.536362
  0
TEXT
  7
TextStyle03
  8
寸法
  6
CONTINUOUS
 62
     0
 10
-131.84375
 20
-22.175
  1
90
 40
3.0
 72
     5
 11
-128.65625
 21
-22.175
  0
ENDBLK
  0
BLOCK
  2
*DIM_0007
 70
    65
 10
0.0
 20
0.0
  0
LINE
  8
寸法
  6
BYBLOCK
 62
     0
 10
167.343563
 20
-49.867045
 11
175.77841
 21
-49.867045
  0
LINE
  8
寸法
  6
BYBLOCK
 62
     0
 10
167.343563
 20
-92.533713
 11
175.77841
 21
-92.533713
  0
LINE
  8
寸法
  6
BYBLOCK
 62
     0
 10
175.77841
 20
-49.867045
 11
175.77841
 21
-92.533713
  0
POINT
  8
寸法
 62
     0
 10
175.77841
 20
-49.867045
  0
POINT
  8
寸法
 62
     0
 10
175.77841
 20
-92.533713
  0
TEXT
  7
TextStyle03
  8
寸法
  6
CONTINUOUS
 62
     0
 10
175.4
 20
-74.48125
  1
1280
 40
3.0
 50
90.0
 72
     5
 11
175.4
 21
-67.91875
  0
ENDBLK
  0
BLOCK
  2
*DIM_0008
 70
    65
 10
0.0
 20
0.0
  0
LINE
  8
寸法
  6
BYBLOCK
 62
     0
 10
-131.742993
 20
23.399048
 11
-160.688158
 21
23.399048
  0
LINE
  8
寸法
  6
BYBLOCK
 62
     0
 10
-131.742993
 20
46.732382
 11
-160.688158
 21
46.732382
  0
LINE
  8
寸法
  6
BYBLOCK
 62
     0
 10
-160.688158
 20
23.399048
 11
-160.688158
 21
46.732382
  0
POINT
  8
寸法
 62
     0
 10
-160.688158
 20
23.399048
  0
POINT
  8
寸法
 62
     0
 10
-160.688158
 20
46.732382
  0
TEXT
  7
TextStyle03
  8
寸法
  6
CONTINUOUS
 62
     0
 10
-161.0
 20
32.6125
  1
700
 40
3.0
 50
90.0
 72
     5
 11
-161.0
 21
37.4875
  0
ENDBLK
  0
BLOCK
  2
*DIM_0009
 70
    65
 10
0.0
 20
0.0
  0
LINE
  8
寸法
  6
BYBLOCK
 62
     0
 10
-122.076325
 20
59.73238
 11
-122.076325
 21
88.840452
  0
LINE
  8
寸法
  6
BYBLOCK
 62
     0
 10
-98.742993
 20
59.73238
 11
-98.742993
 21
88.840452
  0
LINE
  8
寸法
  6
BYBLOCK
 62
     0
 10
-122.076325
 20
88.840452
 11
-98.742993
 21
88.840452
  0
POINT
  8
寸法
 62
     0
 10
-122.076325
 20
88.840452
  0
POINT
  8
寸法
 62
     0
 10
-98.742993
 20
88.840452
  0
TEXT
  7
TextStyle03
  8
寸法
  6
CONTINUOUS
 62
     0
 10
-112.8625
 20
89.2
  1
700
 40
3.0
 72
     5
 11
-107.9875
 21
89.2
  0
ENDBLK
  0
BLOCK
  2
*DIM_0010
 70
    65
 10
0.0
 20
0.0
  0
LINE
  8
寸法
  6
BYBLOCK
 62
     0
 10
-75.40966
 20
59.73238
 11
-75.40966
 21
88.840452
  0
LINE
  8
寸法
  6
BYBLOCK
 62
     0
 10
-98.742993
 20
88.840452
 11
-75.40966
 21
88.840452
  0
POINT
  8
寸法
 62
     0
 10
-75.40966
 20
88.840452
  0
TEXT
  7
TextStyle03
  8
寸法
  6
CONTINUOUS
 62
     0
 10
-89.5375
 20
89.2
  1
700
 40
3.0
 72
     5
 11
-84.6625
 21
89.2
  0
ENDBLK
  0
BLOCK
  2
*DIM_0011
 70
    65
 10
0.0
 20
0.0
  0
LINE
  8
寸法
  6
BYBLOCK
 62
     0
 10
-52.076325
 20
59.73238
 11
-52.076325
 21
88.840452
  0
LINE
  8
寸法
  6
BYBLOCK
 62
     0
 10
-75.40966
 20
88.840452
 11
-52.076325
 21
88.840452
  0
POINT
  8
寸法
 62
     0
 10
-52.076325
 20
88.840452
  0
TEXT
  7
TextStyle03
  8
寸法
  6
CONTINUOUS
 62
     0
 10
-66.1875
 20
89.2
  1
700
 40
3.0
 72
     5
 11
-61.3125
 21
89.2
  0
ENDBLK
  0
BLOCK
  2
*DIM_0012
 70
    65
 10
0.0
 20
0.0
  0
LINE
  8
寸法
  6
BYBLOCK
 62
     0
 10
-28.742993
 20
59.73238
 11
-28.742993
 21
88.840452
  0
LINE
  8
寸法
  6
BYBLOCK
 62
     0
 10
-52.076325
 20
88.840452
 11
-28.742993
 21
88.840452
  0
POINT
  8
寸法
 62
     0
 10
-28.742993
 20
88.840452
  0
TEXT
  7
TextStyle03
  8
寸法
  6
CONTINUOUS
 62
     0
 10
-42.8625
 20
89.2
  1
700
 40
3.0
 72
     5
 11
-37.9875
 21
89.2
  0
ENDBLK
  0
BLOCK
  2
*DIM_0013
 70
    65
 10
0.0
 20
0.0
  0
LINE
  8
寸法
  6
BYBLOCK
 62
     0
 10
-5.40966
 20
59.73238
 11
-5.40966
 21
88.840452
  0
LINE
  8
寸法
  6
BYBLOCK
 62
     0
 10
-28.742993
 20
88.840452
 11
-5.40966
 21
88.840452
  0
POINT
  8
寸法
 62
     0
 10
-5.40966
 20
88.840452
  0
TEXT
  7
TextStyle03
  8
寸法
  6
CONTINUOUS
 62
     0
 10
-19.5375
 20
89.2
  1
700
 40
3.0
 72
     5
 11
-14.6625
 21
89.2
  0
ENDBLK
  0
BLOCK
  2
*DIM_0014
 70
    65
 10
0.0
 20
0.0
  0
LINE
  8
寸法
  6
BYBLOCK
 62
     0
 10
17.923675
 20
59.73238
 11
17.923675
 21
88.840452
  0
LINE
  8
寸法
  6
BYBLOCK
 62
     0
 10
-5.40966
 20
88.840452
 11
17.923675
 21
88.840452
  0
POINT
  8
寸法
 62
     0
 10
17.923675
 20
88.840452
  0
TEXT
  7
TextStyle03
  8
寸法
  6
CONTINUOUS
 62
     0
 10
3.8125
 20
89.2
  1
700
 40
3.0
 72
     5
 11
8.6875
 21
89.2
  0
ENDBLK
  0
BLOCK
  2
*DIM_0015
 70
    65
 10
0.0
 20
0.0
  0
LINE
  8
寸法
  6
BYBLOCK
 62
     0
 10
41.257007
 20
59.73238
 11
41.257007
 21
88.840452
  0
LINE
  8
寸法
  6
BYBLOCK
 62
     0
 10
17.923675
 20
88.840452
 11
41.257007
 21
88.840452
  0
POINT
  8
寸法
 62
     0
 10
41.257007
 20
88.840452
  0
TEXT
  7
TextStyle03
  8
寸法
  6
CONTINUOUS
 62
     0
 10
27.1375
 20
89.2
  1
700
 40
3.0
 72
     5
 11
32.0125
 21
89.2
  0
ENDBLK
  0
BLOCK
  2
*DIM_0016
 70
    65
 10
0.0
 20
0.0
  0
LINE
  8
寸法
  6
BYBLOCK
 62
     0
 10
64.59034
 20
59.73238
 11
64.59034
 21
88.840452
  0
LINE
  8
寸法
  6
BYBLOCK
 62
     0
 10
41.257007
 20
88.840452
 11
64.59034
 21
88.840452
  0
POINT
  8
寸法
 62
     0
 10
64.59034
 20
88.840452
  0
TEXT
  7
TextStyle03
  8
寸法
  6
CONTINUOUS
 62
     0
 10
50.4625
 20
89.2
  1
700
 40
3.0
 72
     5
 11
55.3375
 21
89.2
  0
ENDBLK
  0
BLOCK
  2
*DIM_0017
 70
    65
 10
0.0
 20
0.0
  0
LINE
  8
寸法
  6
CONTINUOUS
 10
121.559375
 20
70.37154
 11
124.876043
 21
70.37154
  0
POINT
  8
寸法
 10
121.559375
 20
70.37154
  0
POINT
  8
寸法
 10
124.876043
 20
70.37154
  0
TEXT
  7
TextStyle03
  8
寸法
  6
CONTINUOUS
 10
119.69375
 20
70.55
  1
99.5
 40
3.0
 72
     5
 11
126.25625
 21
70.55
  0
ENDBLK
  0
BLOCK
  2
*DIM_0018
 70
    65
 10
0.0
 20
0.0
  0
LINE
  8
寸法
  6
CONTINUOUS
 10
84.896215
 20
-77.93858
 11
84.896215
 21
-81.255248
  0
POINT
  8
寸法
 10
84.896215
 20
-77.93858
  0
POINT
  8
寸法
 10
84.896215
 20
-81.255248
  0
TEXT
  7
TextStyle03
  8
寸法
  6
CONTINUOUS
 10
88.05
 20
-82.83125
  1
99.5
 40
3.0
 50
90.0
 72
     5
 11
88.05
 21
-76.26875
  0
ENDBLK
  0
BLOCK
  2
*DIM_0019
 70
    65
 10
0.0
 20
0.0
  0
LINE
  8
寸法
  6
CONTINUOUS
 10
166.343563
 20
-41.496725
 11
134.093563
 21
-41.496725
  0
POINT
  8
寸法
 10
166.343563
 20
-41.496725
  0
POINT
  8
寸法
 10
134.093563
 20
-41.496725
  0
TEXT
  7
TextStyle03
  8
寸法
  6
CONTINUOUS
 10
146.075
 20
-41.15
  1
967.5
 40
3.0
 72
     5
 11
154.325
 21
-41.15
  0
ENDBLK
  0
ENDSEC
  0
SECTION
  2
ENTITIES
  0
POLYLINE
  8
通り芯
  6
CONTINUOUS
 66
     1
 70
     1
  0
VERTEX
  8
通り芯
 10
-210.0
 20
-148.5
  0
VERTEX
  8
通り芯
 10
210.0
 20
-148.5
  0
VERTEX
  8
通り芯
 10
210.0
 20
148.5
  0
VERTEX
  8
通り芯
 10
-210.0
 20
148.5
  0
SEQEND
  0
INSERT
  2
*GRP_0001
  8
型材断面
  6
CONTINUOUS
 10
0.0
 20
0.0
  0
LINE
  8
型材断面
  6
DASHDOT
 10
-128.742993
 20
-87.251428
 11
-128.742993
 21
56.73238
  0
LINE
  8
型材断面
  6
DASHDOT
 10
-28.742993
 20
-87.251428
 11
-28.742993
 21
56.73238
  0
LINE
  8
型材断面
  6
DASHDOT
 10
71.257007
 20
-87.251428
 11
71.257007
 21
56.73238
  0
LINE
  8
型材断面
  6
CONTINUOUS
 10
-131.373123
 20
35.065715
 11
-133.96363
 21
36.561345
  0
LINE
  8
型材断面
  6
CONTINUOUS
 10
-131.373123
 20
35.065715
 11
-133.96363
 21
33.570085
  0
LINE
  8
型材断面
  6
CONTINUOUS
 10
-133.96363
 20
33.570085
 11
-133.96363
 21
36.561345
  0
LINE
  8
型材断面
  6
CONTINUOUS
 10
-112.076325
 20
59.36251
 11
-113.571955
 21
61.953017
  0
LINE
  8
型材断面
  6
CONTINUOUS
 10
-112.076325
 20
59.36251
 11
-110.580695
 21
61.953017
  0
LINE
  8
型材断面
  6
CONTINUOUS
 10
-110.580695
 20
61.953017
 11
-113.571955
 21
61.953017
  0
LINE
  8
型材断面
  6
CONTINUOUS
 10
-28.742993
 20
59.36251
 11
-30.238623
 21
61.953017
  0
LINE
  8
型材断面
  6
CONTINUOUS
 10
-28.742993
 20
59.36251
 11
-27.247362
 21
61.953017
  0
LINE
  8
型材断面
  6
CONTINUOUS
 10
-27.247362
 20
61.953017
 11
-30.238623
 21
61.953017
  0
LINE
  8
型材断面
  6
CONTINUOUS
 10
54.59034
 20
59.36251
 11
53.09471
 21
61.953017
  0
LINE
  8
型材断面
  6
CONTINUOUS
 10
54.59034
 20
59.36251
 11
56.08597
 21
61.953017
  0
LINE
  8
型材断面
  6
CONTINUOUS
 10
56.08597
 20
61.953017
 11
53.09471
 21
61.953017
  0
LINE
  8
型材断面
  6
CONTINUOUS
 10
-169.5952
 20
101.239727
 11
-171.09083
 21
98.64922
  0
LINE
  8
型材断面
  6
CONTINUOUS
 10
-169.5952
 20
101.239727
 11
-168.09957
 21
98.64922
  0
LINE
  8
型材断面
  6
CONTINUOUS
 10
-168.09957
 20
98.64922
 11
-171.09083
 21
98.64922
  0
LINE
  8
型材断面
  6
CONTINUOUS
 10
-175.617788
 20
97.710625
 11
-129.37601
 21
97.710625
  0
LINE
  8
型材断面
  6
CONTINUOUS
 10
-112.076325
 20
10.76892
 11
-113.571955
 21
8.178413
  0
LINE
  8
型材断面
  6
CONTINUOUS
 10
-112.076325
 20
10.76892
 11
-110.580695
 21
8.178413
  0
LINE
  8
型材断面
  6
CONTINUOUS
 10
-110.580695
 20
8.178413
 11
-113.571955
 21
8.178413
  0
LINE
  8
型材断面
  6
CONTINUOUS
 10
-28.742993
 20
10.76892
 11
-30.238623
 21
8.178413
  0
LINE
  8
型材断面
  6
CONTINUOUS
 10
-28.742993
 20
10.76892
 11
-27.247362
 21
8.178413
  0
LINE
  8
型材断面
  6
CONTINUOUS
 10
-27.247362
 20
8.178413
 11
-30.238623
 21
8.178413
  0
LINE
  8
型材断面
  6
CONTINUOUS
 10
54.59034
 20
10.76892
 11
53.09471
 21
8.178413
  0
LINE
  8
型材断面
  6
CONTINUOUS
 10
54.59034
 20
10.76892
 11
56.08597
 21
8.178413
  0
LINE
  8
型材断面
  6
CONTINUOUS
 10
56.08597
 20
8.178413
 11
53.09471
 21
8.178413
  0
LINE
  8
型材断面
  6
CONTINUOUS
 10
73.887138
 20
35.065715
 11
76.477645
 21
36.561345
  0
LINE
  8
型材断面
  6
CONTINUOUS
 10
73.887138
 20
35.065715
 11
76.477645
 21
33.570085
  0
LINE
  8
型材断面
  6
CONTINUOUS
 10
76.477645
 20
33.570085
 11
76.477645
 21
36.561345
  0
LINE
  8
型材断面
  6
CONTINUOUS
 10
-175.617788
 20
91.744952
 11
-129.37601
 21
91.744952
  0
LINE
  8
型材断面
  6
CONTINUOUS
 10
-131.74304
 20
10.399007
 11
-28.742993
 21
10.399007
  0
LINE
  8
型材断面
  6
CONTINUOUS
 10
-131.74304
 20
59.732423
 11
-28.742993
 21
59.732423
  0
LINE
  8
型材断面
  6
CONTINUOUS
 10
74.257055
 20
35.06571
 11
74.257055
 21
59.732423
  0
LINE
  8
型材断面
  6
CONTINUOUS
 10
74.257055
 20
59.732423
 11
-28.742993
 21
59.732423
  0
LINE
  8
型材断面
  6
CONTINUOUS
 10
74.257055
 20
35.06572
 11
74.257055
 21
10.399007
  0
LINE
  8
型材断面
  6
CONTINUOUS
 10
74.257055
 20
10.399007
 11
-28.742993
 21
10.399007
  0
CIRCLE
  8
型材断面
  6
CONTINUOUS
 62
    47
 10
124.376045
 20
59.732323
 40
0.011113
  0
LINE
  8
型材断面
  6
CONTINUOUS
 62
    47
 10
124.876043
 20
59.232332
 11
124.876043
 21
59.732323
  0
LINE
  8
型材断面
  6
CONTINUOUS
 62
    47
 10
124.876043
 20
59.732323
 11
124.376045
 21
59.732323
  0
LINE
  8
型材断面
  6
CONTINUOUS
 62
    47
 10
124.376045
 20
59.732323
 11
123.878865
 21
56.798992
  0
LINE
  8
型材断面
  6
CONTINUOUS
 62
    47
 10
124.876043
 20
59.232332
 11
125.376043
 21
59.232332
  0
LINE
  8
型材断面
  6
CONTINUOUS
 62
    47
 10
123.878865
 20
56.798992
 11
123.226043
 21
56.798992
  0
CIRCLE
  8
型材断面
  6
CONTINUOUS
 62
    47
 10
124.376045
 20
10.399007
 40
0.011113
  0
LINE
  8
型材断面
  6
CONTINUOUS
 62
    47
 10
124.876043
 20
10.898998
 11
124.876043
 21
10.399007
  0
LINE
  8
型材断面
  6
CONTINUOUS
 62
    47
 10
124.876043
 20
10.399007
 11
124.376045
 21
10.399007
  0
LINE
  8
型材断面
  6
CONTINUOUS
 62
    47
 10
124.376045
 20
10.399007
 11
123.878865
 21
13.332337
  0
LINE
  8
型材断面
  6
CONTINUOUS
 62
    47
 10
124.876043
 20
10.898998
 11
125.376043
 21
10.898998
  0
LINE
  8
型材断面
  6
CONTINUOUS
 62
    47
 10
123.878865
 20
13.332337
 11
123.226043
 21
13.332337
  0
LINE
  8
型材断面
  6
CONTINUOUS
 62
    47
 10
121.726043
 20
11.752537
 11
121.726043
 21
35.065665
  0
LINE
  8
型材断面
  6
CONTINUOUS
 62
    47
 10
121.559375
 20
11.909058
 11
121.559375
 21
35.065665
  0
LINE
  8
型材断面
  6
CONTINUOUS
 62
    47
 10
123.226043
 20
11.909058
 11
123.226043
 21
35.065665
  0
LINE
  8
型材断面
  6
CONTINUOUS
 10
123.878865
 20
13.332285
 11
123.878865
 21
35.065665
  0
LINE
  8
型材断面
  6
CONTINUOUS
 10
124.376047
 20
10.398953
 11
124.376047
 21
35.065665
  0
LINE
  8
型材断面
  6
CONTINUOUS
 62
    47
 10
124.876043
 20
10.398953
 11
124.876043
 21
35.065665
  0
LINE
  8
型材断面
  6
CONTINUOUS
 10
125.376043
 20
10.898942
 11
125.376043
 21
35.065665
  0
LINE
  8
型材断面
  6
CONTINUOUS
 62
    47
 10
124.876043
 20
59.732378
 11
124.876043
 21
35.065665
  0
LINE
  8
型材断面
  6
CONTINUOUS
 10
123.878865
 20
56.799045
 11
123.878865
 21
35.065665
  0
LINE
  8
型材断面
  6
CONTINUOUS
 62
    47
 10
121.726043
 20
58.378793
 11
121.726043
 21
35.065665
  0
LINE
  8
型材断面
  6
CONTINUOUS
 62
    47
 10
121.559375
 20
58.222272
 11
121.559375
 21
35.065665
  0
LINE
  8
型材断面
  6
CONTINUOUS
 62
    47
 10
123.226043
 20
58.222272
 11
123.226043
 21
35.065665
  0
LINE
  8
型材断面
  6
CONTINUOUS
 10
124.376047
 20
59.732378
 11
124.376047
 21
35.065665
  0
LINE
  8
型材断面
  6
CONTINUOUS
 10
125.376043
 20
59.232388
 11
125.376043
 21
35.065665
  0
CIRCLE
  8
型材断面
  6
CONTINUOUS
 62
    47
 10
-131.742985
 20
-80.75525
 40
0.011113
  0
LINE
  8
型材断面
  6
CONTINUOUS
 62
    47
 10
-131.242993
 20
-81.255248
 11
-131.742985
 21
-81.255248
  0
LINE
  8
型材断面
  6
CONTINUOUS
 62
    47
 10
-131.742985
 20
-81.255248
 11
-131.742985
 21
-80.75525
  0
LINE
  8
型材断面
  6
CONTINUOUS
 62
    47
 10
-131.742985
 20
-80.75525
 11
-128.809653
 21
-80.25807
  0
LINE
  8
型材断面
  6
CONTINUOUS
 62
    47
 10
-131.242993
 20
-81.255248
 11
-131.242993
 21
-81.755248
  0
LINE
  8
型材断面
  6
CONTINUOUS
 62
    47
 10
-128.809653
 20
-80.25807
 11
-128.809653
 21
-79.605248
  0
CIRCLE
  8
型材断面
  6
CONTINUOUS
 62
    47
 10
74.257
 20
-80.75525
 40
0.011113
  0
LINE
  8
型材断面
  6
CONTINUOUS
 62
    47
 10
73.757007
 20
-81.255248
 11
74.257
 21
-81.255248
  0
LINE
  8
型材断面
  6
CONTINUOUS
 62
    47
 10
74.257
 20
-81.255248
 11
74.257
 21
-80.75525
  0
LINE
  8
型材断面
  6
CONTINUOUS
 62
    47
 10
74.257
 20
-80.75525
 11
71.323668
 21
-80.25807
  0
LINE
  8
型材断面
  6
CONTINUOUS
 62
    47
 10
73.757007
 20
-81.255248
 11
73.757007
 21
-81.755248
  0
LINE
  8
型材断面
  6
CONTINUOUS
 62
    47
 10
71.323668
 20
-80.25807
 11
71.323668
 21
-79.605248
  0
LINE
  8
型材断面
  6
CONTINUOUS
 10
-128.809705
 20
-80.25807
 11
-28.742993
 21
-80.25807
  0
LINE
  8
型材断面
  6
CONTINUOUS
 62
    47
 10
-130.232932
 20
-77.93858
 11
-28.742993
 21
-77.93858
  0
LINE
  8
型材断面
  6
CONTINUOUS
 62
    47
 10
-130.389455
 20
-78.105248
 11
-28.742993
 21
-78.105248
  0
LINE
  8
型材断面
  6
CONTINUOUS
 62
    47
 10
-130.232932
 20
-79.605248
 11
-28.742993
 21
-79.605248
  0
LINE
  8
型材断面
  6
CONTINUOUS
 10
-131.243048
 20
-81.755248
 11
-28.742993
 21
-81.755248
  0
LINE
  8
型材断面
  6
CONTINUOUS
 10
-131.743037
 20
-80.755253
 11
-28.742993
 21
-80.755253
  0
LINE
  8
型材断面
  6
CONTINUOUS
 62
    47
 10
-131.743037
 20
-81.255248
 11
-28.742993
 21
-81.255248
  0
LINE
  8
型材断面
  6
CONTINUOUS
 62
    47
 10
72.746947
 20
-79.605248
 11
-28.742993
 21
-79.605248
  0
LINE
  8
型材断面
  6
CONTINUOUS
 62
    47
 10
72.746947
 20
-77.93858
 11
-28.742993
 21
-77.93858
  0
LINE
  8
型材断面
  6
CONTINUOUS
 62
    47
 10
72.90347
 20
-78.105248
 11
-28.742993
 21
-78.105248
  0
LINE
  8
型材断面
  6
CONTINUOUS
 10
71.32372
 20
-80.25807
 11
-28.742993
 21
-80.25807
  0
LINE
  8
型材断面
  6
CONTINUOUS
 10
74.257052
 20
-80.755253
 11
-28.742993
 21
-80.755253
  0
LINE
  8
型材断面
  6
CONTINUOUS
 10
73.757063
 20
-81.755248
 11
-28.742993
 21
-81.755248
  0
LINE
  8
型材断面
  6
CONTINUOUS
 62
    47
 10
74.257052
 20
-81.255248
 11
-28.742993
 21
-81.255248
  0
LINE
  8
型材断面
  6
DASHDOT
 10
-128.742993
 20
35.065715
 11
132.352052
 21
35.065715
  0
LINE
  8
型材断面
  6
DASHDOT
 10
132.352052
 20
13.398998
 11
-128.742993
 21
13.398998
  0
LINE
  8
型材断面
  6
DASHDOT
 10
132.352052
 20
56.732332
 11
-128.742993
 21
56.732332
  0
LINE
  8
型材断面
  6
DASHDOT
 10
-95.576325
 20
13.399048
 11
-95.576325
 21
56.73238
  0
LINE
  8
型材断面
  6
DASHDOT
 10
-62.159657
 20
13.399048
 11
-62.159657
 21
56.73238
  0
LINE
  8
型材断面
  6
DASHDOT
 10
38.09034
 20
13.399048
 11
38.09034
 21
56.73238
  0
LINE
  8
型材断面
  6
DASHDOT
 10
4.673673
 20
13.399048
 11
4.673673
 21
56.73238
  0
LINE
  8
型材断面
  6
CONTINUOUS
 10
21.798673
 20
14.252537
 11
54.257007
 21
14.252537
  0
LINE
  8
型材断面
  6
CONTINUOUS
 10
21.798673
 20
55.878893
 11
54.257007
 21
55.878893
  0
LINE
  8
型材断面
  6
CONTINUOUS
 10
-11.617995
 20
55.878893
 11
20.965337
 21
55.878893
  0
LINE
  8
型材断面
  6
CONTINUOUS
 10
-11.617995
 20
14.252537
 11
20.965337
 21
14.252537
  0
LINE
  8
型材断面
  6
CONTINUOUS
 10
-45.034655
 20
14.252537
 11
-12.45133
 21
14.252537
  0
LINE
  8
型材断面
  6
CONTINUOUS
 10
-45.034655
 20
55.878893
 11
-12.45133
 21
55.878893
  0
LINE
  8
型材断面
  6
CONTINUOUS
 10
-78.451322
 20
55.878893
 11
-45.86799
 21
55.878893
  0
LINE
  8
型材断面
  6
CONTINUOUS
 10
-78.451322
 20
14.252537
 11
-45.86799
 21
14.252537
  0
LINE
  8
型材断面
  6
CONTINUOUS
 10
-111.742993
 20
14.252537
 11
-79.284657
 21
14.252537
  0
LINE
  8
型材断面
  6
CONTINUOUS
 10
-111.742993
 20
55.878893
 11
-79.284657
 21
55.878893
  0
LINE
  8
型材断面
  6
CONTINUOUS
 10
72.66777
 20
11.752537
 11
72.90347
 21
11.988237
  0
LINE
  8
型材断面
  6
CONTINUOUS
 10
74.257055
 20
10.399007
 11
72.785648
 21
11.870415
  0
LINE
  8
型材断面
  6
CONTINUOUS
 10
72.90347
 20
11.988237
 11
70.40347
 21
14.488237
  0
LINE
  8
型材断面
  6
CONTINUOUS
 10
72.66777
 20
11.752537
 11
70.16777
 21
14.252537
  0
LINE
  8
型材断面
  6
CONTINUOUS
 10
70.16777
 20
14.252537
 11
70.40347
 21
14.488237
  0
LINE
  8
型材断面
  6
CONTINUOUS
 10
70.40347
 20
34.649048
 11
70.40347
 21
14.488237
  0
LINE
  8
型材断面
  6
CONTINUOUS
 10
55.090343
 20
14.252537
 11
70.16777
 21
14.252537
  0
LINE
  8
型材断面
  6
CONTINUOUS
 10
72.66777
 20
58.378893
 11
72.90347
 21
58.143193
  0
LINE
  8
型材断面
  6
CONTINUOUS
 10
74.257055
 20
59.732423
 11
72.785648
 21
58.261015
  0
LINE
  8
型材断面
  6
CONTINUOUS
 10
72.66777
 20
58.378893
 11
70.16777
 21
55.878893
  0
LINE
  8
型材断面
  6
CONTINUOUS
 10
70.16777
 20
55.878893
 11
70.40347
 21
55.643193
  0
LINE
  8
型材断面
  6
CONTINUOUS
 10
70.40347
 20
55.643193
 11
72.90347
 21
58.143193
  0
LINE
  8
型材断面
  6
CONTINUOUS
 10
72.90347
 20
11.988237
 11
72.90347
 21
58.143193
  0
LINE
  8
型材断面
  6
CONTINUOUS
 10
70.40347
 20
35.482382
 11
70.40347
 21
55.643193
  0
LINE
  8
型材断面
  6
CONTINUOUS
 10
55.090343
 20
55.878893
 11
70.16777
 21
55.878893
  0
LINE
  8
型材断面
  6
CONTINUOUS
 10
-131.74304
 20
35.06571
 11
-131.74304
 21
59.732423
  0
LINE
  8
型材断面
  6
CONTINUOUS
 10
-131.74304
 20
35.06572
 11
-131.74304
 21
10.399007
  0
LINE
  8
型材断面
  6
CONTINUOUS
 10
-130.153755
 20
11.752537
 11
-130.389455
 21
11.988237
  0
LINE
  8
型材断面
  6
CONTINUOUS
 10
-131.74304
 20
10.399007
 11
-130.271633
 21
11.870415
  0
LINE
  8
型材断面
  6
CONTINUOUS
 10
-130.389455
 20
11.988237
 11
-127.889455
 21
14.488237
  0
LINE
  8
型材断面
  6
CONTINUOUS
 10
-130.153755
 20
11.752537
 11
-127.653755
 21
14.252537
  0
LINE
  8
型材断面
  6
CONTINUOUS
 10
-127.653755
 20
14.252537
 11
-127.889455
 21
14.488237
  0
LINE
  8
型材断面
  6
CONTINUOUS
 10
-127.889455
 20
34.649048
 11
-127.889455
 21
14.488237
  0
LINE
  8
型材断面
  6
CONTINUOUS
 10
-130.153755
 20
58.378893
 11
-130.389455
 21
58.143193
  0
LINE
  8
型材断面
  6
CONTINUOUS
 10
-131.74304
 20
59.732423
 11
-130.271633
 21
58.261015
  0
LINE
  8
型材断面
  6
CONTINUOUS
 10
-130.153755
 20
58.378893
 11
-127.653755
 21
55.878893
  0
LINE
  8
型材断面
  6
CONTINUOUS
 10
-127.653755
 20
55.878893
 11
-127.889455
 21
55.643193
  0
LINE
  8
型材断面
  6
CONTINUOUS
 10
-127.889455
 20
55.643193
 11
-130.389455
 21
58.143193
  0
LINE
  8
型材断面
  6
CONTINUOUS
 10
-130.389455
 20
11.988237
 11
-130.389455
 21
58.143193
  0
LINE
  8
型材断面
  6
CONTINUOUS
 10
-127.889455
 20
35.482382
 11
-127.889455
 21
55.643193
  0
LINE
  8
型材断面
  6
CONTINUOUS
 10
-112.576328
 20
14.252537
 11
-127.653755
 21
14.252537
  0
LINE
  8
型材断面
  6
CONTINUOUS
 10
72.66777
 20
11.752537
 11
-130.153755
 21
11.752537
  0
LINE
  8
型材断面
  6
CONTINUOUS
 10
-112.576328
 20
55.878893
 11
-127.653755
 21
55.878893
  0
LINE
  8
型材断面
  6
CONTINUOUS
 10
72.66777
 20
58.378893
 11
-130.153755
 21
58.378893
  0
LINE
  8
型材断面
  6
CONTINUOUS
 10
-96.826325
 20
55.04556
 11
-94.326325
 21
55.04556
  0
LINE
  8
型材断面
  6
CONTINUOUS
 10
-96.826325
 20
15.08587
 11
-94.326325
 21
15.08587
  0
LINE
  8
型材断面
  6
CONTINUOUS
 10
-94.326325
 20
55.04556
 11
-94.326325
 21
15.08587
  0
LINE
  8
型材断面
  6
CONTINUOUS
 10
-96.826325
 20
55.04556
 11
-96.826325
 21
15.08587
  0
LINE
  8
型材断面
  6
CONTINUOUS
 10
-63.409657
 20
55.04556
 11
-60.909657
 21
55.04556
  0
LINE
  8
型材断面
  6
CONTINUOUS
 10
-63.409657
 20
15.08587
 11
-60.909657
 21
15.08587
  0
LINE
  8
型材断面
  6
CONTINUOUS
 10
-60.909657
 20
55.04556
 11
-60.909657
 21
15.08587
  0
LINE
  8
型材断面
  6
CONTINUOUS
 10
-63.409657
 20
55.04556
 11
-63.409657
 21
15.08587
  0
LINE
  8
型材断面
  6
CONTINUOUS
 10
-29.992993
 20
55.04556
 11
-27.492993
 21
55.04556
  0
LINE
  8
型材断面
  6
CONTINUOUS
 10
-29.992993
 20
15.08587
 11
-27.492993
 21
15.08587
  0
LINE
  8
型材断面
  6
CONTINUOUS
 10
-27.492993
 20
55.04556
 11
-27.492993
 21
15.08587
  0
LINE
  8
型材断面
  6
CONTINUOUS
 10
-29.992993
 20
55.04556
 11
-29.992993
 21
15.08587
  0
LINE
  8
型材断面
  6
CONTINUOUS
 10
39.34034
 20
55.04556
 11
36.84034
 21
55.04556
  0
LINE
  8
型材断面
  6
CONTINUOUS
 10
39.34034
 20
15.08587
 11
36.84034
 21
15.08587
  0
LINE
  8
型材断面
  6
CONTINUOUS
 10
36.84034
 20
55.04556
 11
36.84034
 21
15.08587
  0
LINE
  8
型材断面
  6
CONTINUOUS
 10
39.34034
 20
55.04556
 11
39.34034
 21
15.08587
  0
LINE
  8
型材断面
  6
CONTINUOUS
 10
5.923673
 20
55.04556
 11
3.423673
 21
55.04556
  0
LINE
  8
型材断面
  6
CONTINUOUS
 10
5.923673
 20
15.08587
 11
3.423673
 21
15.08587
  0
LINE
  8
型材断面
  6
CONTINUOUS
 10
3.423673
 20
55.04556
 11
3.423673
 21
15.08587
  0
LINE
  8
型材断面
  6
CONTINUOUS
 10
5.923673
 20
55.04556
 11
5.923673
 21
15.08587
  0
TEXT
  7
TextStyle03
  8
文字
  6
CONTINUOUS
 10
-166.775
 20
98.85
  1
は排水穴位置を示す
 40
3.0
 72
     5
 11
-136.775
 21
98.85
  0
TEXT
  7
TextStyle03
  8
文字
  6
CONTINUOUS
 10
59.9
 20
104.525
  1
ＮＳコード：ＮＳＦＫＺ
 40
5.0
 72
     5
 11
121.15
 21
104.525
  0
TEXT
  7
TextStyle03
  8
文字
  6
CONTINUOUS
 10
147.775
 20
-86.1
  1
網入り6.8t
 40
3.0
 72
     5
 11
164.4625
 21
-86.1
  0
TEXT
  7
TextStyle03
  8
文字
  6
CONTINUOUS
 10
154.45
 20
-90.775
  1
×６枚
 40
3.0
 72
     5
 11
164.2
 21
-90.775
  0
TEXT
  7
TextStyle03
  8
文字
  6
CONTINUOUS
 10
-166.2
 20
23.975
  1
アンカーピッチ
 40
3.0
 50
90.0
 72
     5
 11
-166.2
 21
47.225
  0
TEXT
  7
TextStyle03
  8
文字
  6
CONTINUOUS
 10
-115.3
 20
93.875
  1
アンカーピッチ
 40
3.0
 72
     5
 11
-92.05
 21
93.875
  0
TEXT
  7
TextStyle03
  8
文字
  6
CONTINUOUS
 10
-170.5
 20
92.65
  1
アンカー数量　２２ヶ所
 40
3.0
 72
     5
 11
-133.75
 21
92.65
  0
LINE
  8
文字
  6
CONTINUOUS
 10
121.559375
 20
70.37154
 11
121.559375
 21
61.018383
  0
LINE
  8
文字
  6
CONTINUOUS
 10
124.876043
 20
70.37154
 11
124.876043
 21
61.083737
  0
LINE
  8
文字
  6
CONTINUOUS
 10
84.896215
 20
-77.93858
 11
75.54306
 21
-77.93858
  0
LINE
  8
文字
  6
CONTINUOUS
 10
84.896215
 20
-81.255248
 11
75.608412
 21
-81.255248
  0
LINE
  8
文字
  6
CONTINUOUS
 10
166.343563
 20
-41.496725
 11
166.343563
 21
-48.546947
  0
LINE
  8
文字
  6
CONTINUOUS
 10
134.093563
 20
-41.496725
 11
134.093563
 21
-48.546947
  0
TEXT
  7
TextStyle03
  8
文字
  6
CONTINUOUS
 10
59.75
 20
125.25
  1
シリーズ：ＴＦ２ＦＫＬ
 40
5.0
 72
     5
 11
121.0
 21
125.25
  0
TEXT
  7
TextStyle03
  8
文字
  6
CONTINUOUS
 10
59.75
 20
119.625
  1
　　　　　（固定）1300×6000タイプ
 40
5.0
 72
     5
 11
154.75
 21
119.625
  0
TEXT
  7
TextStyle03
  8
文字
  6
CONTINUOUS
 10
59.75
 20
114.0
  1
図面名　：外観姿図
 40
5.0
 72
     5
 11
109.75
 21
114.0
  0
TEXT
  7
TextStyle03
  8
文字
  6
CONTINUOUS
 10
59.75
 20
108.375
  1
　　　　　　
 40
5.0
 72
     5
 11
92.875
 21
108.375
  0
LINE
  8
文字
  6
CONTINUOUS
 10
55.090343
 20
14.252537
 11
55.090343
 21
11.752537
  0
LINE
  8
文字
  6
CONTINUOUS
 10
54.257007
 20
14.252537
 11
54.257007
 21
11.752537
  0
LINE
  8
文字
  6
CONTINUOUS
 10
21.798673
 20
14.252537
 11
21.798673
 21
11.752537
  0
LINE
  8
文字
  6
CONTINUOUS
 10
20.965337
 20
14.252537
 11
20.965337
 21
11.752537
  0
LINE
  8
文字
  6
CONTINUOUS
 10
-11.617995
 20
14.252537
 11
-11.617995
 21
11.752537
  0
LINE
  8
文字
  6
CONTINUOUS
 10
-12.45133
 20
14.252537
 11
-12.45133
 21
11.752537
  0
LINE
  8
文字
  6
CONTINUOUS
 10
-112.576328
 20
14.252537
 11
-112.576328
 21
11.752537
  0
LINE
  8
文字
  6
CONTINUOUS
 10
-111.742993
 20
14.252537
 11
-111.742993
 21
11.752537
  0
LINE
  8
文字
  6
CONTINUOUS
 10
-79.284657
 20
14.252537
 11
-79.284657
 21
11.752537
  0
LINE
  8
文字
  6
CONTINUOUS
 10
-78.451322
 20
14.252537
 11
-78.451322
 21
11.752537
  0
LINE
  8
文字
  6
CONTINUOUS
 10
-45.86799
 20
14.252537
 11
-45.86799
 21
11.752537
  0
LINE
  8
文字
  6
CONTINUOUS
 10
-45.034655
 20
14.252537
 11
-45.034655
 21
11.752537
  0
LINE
  8
文字
  6
CONTINUOUS
 10
55.090343
 20
55.878893
 11
55.090343
 21
58.378893
  0
LINE
  8
文字
  6
CONTINUOUS
 10
54.257007
 20
55.878893
 11
54.257007
 21
58.378893
  0
LINE
  8
文字
  6
CONTINUOUS
 10
21.798673
 20
55.878893
 11
21.798673
 21
58.378893
  0
LINE
  8
文字
  6
CONTINUOUS
 10
20.965337
 20
55.878893
 11
20.965337
 21
58.378893
  0
LINE
  8
文字
  6
CONTINUOUS
 10
-11.617995
 20
55.878893
 11
-11.617995
 21
58.378893
  0
LINE
  8
文字
  6
CONTINUOUS
 10
-12.45133
 20
55.878893
 11
-12.45133
 21
58.378893
  0
LINE
  8
文字
  6
CONTINUOUS
 10
-112.576328
 20
55.878893
 11
-112.576328
 21
58.378893
  0
LINE
  8
文字
  6
CONTINUOUS
 10
-111.742993
 20
55.878893
 11
-111.742993
 21
58.378893
  0
LINE
  8
文字
  6
CONTINUOUS
 10
-79.284657
 20
55.878893
 11
-79.284657
 21
58.378893
  0
LINE
  8
文字
  6
CONTINUOUS
 10
-78.451322
 20
55.878893
 11
-78.451322
 21
58.378893
  0
LINE
  8
文字
  6
CONTINUOUS
 10
-45.86799
 20
55.878893
 11
-45.86799
 21
58.378893
  0
LINE
  8
文字
  6
CONTINUOUS
 10
-45.034655
 20
55.878893
 11
-45.034655
 21
58.378893
  0
LINE
  8
文字
  6
CONTINUOUS
 10
70.40347
 20
34.649048
 11
72.90347
 21
34.649048
  0
LINE
  8
文字
  6
CONTINUOUS
 10
70.40347
 20
35.482382
 11
72.90347
 21
35.482382
  0
LINE
  8
文字
  6
CONTINUOUS
 10
-127.889455
 20
34.649048
 11
-130.389455
 21
34.649048
  0
LINE
  8
文字
  6
CONTINUOUS
 10
-127.889455
 20
35.482382
 11
-130.389455
 21
35.482382
  0
INSERT
  2
*DIM_0002
  8
寸法
  6
CONTINUOUS
 10
0.0
 20
0.0
  0
INSERT
  2
*DIM_0003
  8
寸法
  6
CONTINUOUS
 10
0.0
 20
0.0
  0
INSERT
  2
*DIM_0004
  8
寸法
  6
CONTINUOUS
 10
0.0
 20
0.0
  0
INSERT
  2
*DIM_0005
  8
寸法
  6
CONTINUOUS
 10
0.0
 20
0.0
  0
INSERT
  2
*DIM_0006
  8
寸法
  6
CONTINUOUS
 10
0.0
 20
0.0
  0
INSERT
  2
*DIM_0007
  8
寸法
  6
CONTINUOUS
 10
0.0
 20
0.0
  0
INSERT
  2
*DIM_0008
  8
寸法
  6
CONTINUOUS
 10
0.0
 20
0.0
  0
INSERT
  2
*DIM_0009
  8
寸法
  6
CONTINUOUS
 10
0.0
 20
0.0
  0
INSERT
  2
*DIM_0010
  8
寸法
  6
CONTINUOUS
 10
0.0
 20
0.0
  0
INSERT
  2
*DIM_0011
  8
寸法
  6
CONTINUOUS
 10
0.0
 20
0.0
  0
INSERT
  2
*DIM_0012
  8
寸法
  6
CONTINUOUS
 10
0.0
 20
0.0
  0
INSERT
  2
*DIM_0013
  8
寸法
  6
CONTINUOUS
 10
0.0
 20
0.0
  0
INSERT
  2
*DIM_0014
  8
寸法
  6
CONTINUOUS
 10
0.0
 20
0.0
  0
INSERT
  2
*DIM_0015
  8
寸法
  6
CONTINUOUS
 10
0.0
 20
0.0
  0
INSERT
  2
*DIM_0016
  8
寸法
  6
CONTINUOUS
 10
0.0
 20
0.0
  0
INSERT
  2
*DIM_0017
  8
寸法
  6
CONTINUOUS
 10
0.0
 20
0.0
  0
INSERT
  2
*DIM_0018
  8
寸法
  6
CONTINUOUS
 10
0.0
 20
0.0
  0
INSERT
  2
*DIM_0019
  8
寸法
  6
CONTINUOUS
 10
0.0
 20
0.0
  0
LINE
  8
別途部材
  6
CONTINUOUS
 62
    47
 10
121.659375
 20
58.378793
 11
121.726043
 21
58.378793
  0
ARC
  8
別途部材
  6
CONTINUOUS
 62
    47
 10
121.659372
 20
58.278794
 40
0.1
 50
90.0
 51
180.0
  0
LINE
  8
別途部材
  6
CONTINUOUS
 62
    47
 10
121.559375
 20
58.278793
 11
121.559375
 21
58.222272
  0
LINE
  8
別途部材
  6
CONTINUOUS
 62
    47
 10
123.226043
 20
58.222272
 11
121.726043
 21
58.222272
  0
LINE
  8
別途部材
  6
CONTINUOUS
 62
    47
 10
121.659375
 20
11.752537
 11
121.726043
 21
11.752537
  0
ARC
  8
別途部材
  6
CONTINUOUS
 62
    47
 10
121.659372
 20
11.852536
 40
0.1
 50
180.0
 51
270.0
  0
LINE
  8
別途部材
  6
CONTINUOUS
 62
    47
 10
121.559375
 20
11.852537
 11
121.559375
 21
11.909058
  0
LINE
  8
別途部材
  6
CONTINUOUS
 62
    47
 10
123.226043
 20
11.909058
 11
121.726043
 21
11.909058
  0
LINE
  8
別途部材
  6
CONTINUOUS
 62
    47
 10
-130.389455
 20
-78.03858
 11
-130.389455
 21
-78.105248
  0
ARC
  8
別途部材
  6
CONTINUOUS
 62
    47
 10
-130.289456
 20
-78.038576
 40
0.1
 50
90.0
 51
180.0
  0
LINE
  8
別途部材
  6
CONTINUOUS
 62
    47
 10
-130.289455
 20
-77.93858
 11
-130.232932
 21
-77.93858
  0
LINE
  8
別途部材
  6
CONTINUOUS
 62
    47
 10
-130.232932
 20
-79.605248
 11
-130.232932
 21
-78.105248
  0
LINE
  8
別途部材
  6
CONTINUOUS
 62
    47
 10
72.90347
 20
-78.03858
 11
72.90347
 21
-78.105248
  0
ARC
  8
別途部材
  6
CONTINUOUS
 62
    47
 10
72.803468
 20
-78.038576
 40
0.1
 50
0.0
 51
90.0
  0
LINE
  8
別途部材
  6
CONTINUOUS
 62
    47
 10
72.80347
 20
-77.93858
 11
72.746947
 21
-77.93858
  0
LINE
  8
別途部材
  6
CONTINUOUS
 62
    47
 10
72.746947
 20
-79.605248
 11
72.746947
 21
-78.105248
  0
LINE
  8
曲げ物
  6
CONTINUOUS
 10
55.982738
 20
37.022003
 11
52.287425
 21
33.32669
  0
LINE
  8
曲げ物
  6
CONTINUOUS
 10
55.279268
 20
35.485893
 11
53.823538
 21
34.030163
  0
LINE
  8
曲げ物
  6
CONTINUOUS
 10
54.446628
 20
36.318533
 11
52.990898
 21
34.862803
  0
LINE
  8
曲げ物
  6
CONTINUOUS
 10
23.701115
 20
37.022003
 11
20.005803
 21
33.32669
  0
LINE
  8
曲げ物
  6
CONTINUOUS
 10
22.997645
 20
35.485893
 11
21.541915
 21
34.030163
  0
LINE
  8
曲げ物
  6
CONTINUOUS
 10
22.165005
 20
36.318533
 11
20.709275
 21
34.862803
  0
LINE
  8
曲げ物
  6
CONTINUOUS
 10
-9.110125
 20
37.022003
 11
-12.805437
 21
33.32669
  0
LINE
  8
曲げ物
  6
CONTINUOUS
 10
-9.813595
 20
35.485893
 11
-11.269325
 21
34.030163
  0
LINE
  8
曲げ物
  6
CONTINUOUS
 10
-10.646235
 20
36.318533
 11
-12.101965
 21
34.862803
  0
LINE
  8
曲げ物
  6
CONTINUOUS
 10
-42.918483
 20
37.022003
 11
-46.613795
 21
33.32669
  0
LINE
  8
曲げ物
  6
CONTINUOUS
 10
-43.621953
 20
35.485893
 11
-45.077682
 21
34.030163
  0
LINE
  8
曲げ物
  6
CONTINUOUS
 10
-44.454593
 20
36.318533
 11
-45.910322
 21
34.862803
  0
LINE
  8
曲げ物
  6
CONTINUOUS
 10
-76.439232
 20
37.022003
 11
-80.134545
 21
33.32669
  0
LINE
  8
曲げ物
  6
CONTINUOUS
 10
-77.142702
 20
35.485893
 11
-78.598433
 21
34.030163
  0
LINE
  8
曲げ物
  6
CONTINUOUS
 10
-77.975342
 20
36.318533
 11
-79.431073
 21
34.862803
  0
LINE
  8
曲げ物
  6
CONTINUOUS
 10
-110.960845
 20
37.022003
 11
-114.656157
 21
33.32669
  0
LINE
  8
曲げ物
  6
CONTINUOUS
 10
-111.664315
 20
35.485893
 11
-113.120045
 21
34.030163
  0
LINE
  8
曲げ物
  6
CONTINUOUS
 10
-112.496955
 20
36.318533
 11
-113.952685
 21
34.862803
  0
LINE
  8
曲げ物
  6
CONTINUOUS
 10
166.343563
 20
-92.533713
 11
166.343563
 21
-49.867045
  0
LINE
  8
曲げ物
  6
CONTINUOUS
 10
134.093563
 20
-49.867045
 11
134.093563
 21
-92.533713
  0
LINE
  8
曲げ物
  6
CONTINUOUS
 10
166.343563
 20
-49.867045
 11
134.093563
 21
-49.867045
  0
LINE
  8
曲げ物
  6
CONTINUOUS
 10
166.343563
 20
-92.533713
 11
134.093563
 21
-92.533713
  0
CIRCLE
  8
LAYER010
  6
CONTINUOUS
 62
    47
 10
124.376045
 20
59.732323
 40
0.011113
  0
CIRCLE
  8
LAYER010
  6
CONTINUOUS
 62
    47
 10
124.376045
 20
10.399007
 40
0.011113
  0
CIRCLE
  8
LAYER010
  6
CONTINUOUS
 62
    47
 10
-131.742985
 20
-80.75525
 40
0.011113
  0
CIRCLE
  8
LAYER010
  6
CONTINUOUS
 62
    47
 10
74.257
 20
-80.75525
 40
0.011113
  0
ENDSEC
  0
EOF
