  0
SECTION
  2
HEADER
  9
$EXTMIN
 10
-210.0
 20
-148.5
  9
$EXTMAX
 10
210.0
 20
148.5
  9
$PDMODE
 70
    32
  9
$PDSIZE
 40
1.5
  9
$LTSCALE
 40
10.0
  0
ENDSEC
  0
SECTION
  2
TABLES
  0
TABLE
  2
LTYPE
 70
    15
  0
LTYPE
  2
CONTINUOUS
 70
    64
  3
実線
 72
    65
 73
     0
 40
0.0
  0
LTYPE
  2
DASHED
 70
    64
  3
破線A
 72
    65
 73
     2
 40
0.6
 49
0.4
 49
-0.2
  0
LTYPE
  2
DASHEDX2
 70
    64
  3
破線B
 72
    65
 73
     2
 40
1.3
 49
0.9
 49
-0.4
  0
LTYPE
  2
DASHDOT
 70
    64
  3
１点鎖線A
 72
    65
 73
     4
 40
0.5375
 49
0.375
 49
-0.05
 49
0.0625
 49
-0.05
  0
LTYPE
  2
DASHDOTX2
 70
    64
  3
１点鎖線B
 72
    65
 73
     4
 40
1.075
 49
0.75
 49
-0.1
 49
0.125
 49
-0.1
  0
LTYPE
  2
DIVIDE2
 70
    64
  3
２点鎖線A
 72
    65
 73
     6
 40
0.5125
 49
0.3
 49
-0.0375
 49
0.05
 49
-0.0375
 49
0.05
 49
-0.0375
  0
LTYPE
  2
DIVIDE
 70
    64
  3
２点鎖線B
 72
    65
 73
     6
 40
1.05
 49
0.55
 49
-0.1
 49
0.1
 49
-0.1
 49
0.1
 49
-0.1
  0
LTYPE
  2
DOT
 70
    64
  3
点線A
 72
    65
 73
     2
 40
0.1125
 49
0.0625
 49
-0.05
  0
LTYPE
  2
DOTX2
 70
    64
  3
点線B
 72
    65
 73
     2
 40
0.275
 49
0.15
 49
-0.125
  0
LTYPE
  2
CONTINUOUS
 70
    64
  3
実線
 72
    65
 73
     0
 40
0.0
  0
LTYPE
  2
CONTINUOUS
 70
    64
  3
実線
 72
    65
 73
     0
 40
0.0
  0
LTYPE
  2
CONTINUOUS
 70
    64
  3
実線
 72
    65
 73
     0
 40
0.0
  0
LTYPE
  2
CONTINUOUS
 70
    64
  3
実線
 72
    65
 73
     0
 40
0.0
  0
LTYPE
  2
CONTINUOUS
 70
    64
  3
実線
 72
    65
 73
     0
 40
0.0
  0
LTYPE
  2
CONTINUOUS
 70
    64
  3
実線
 72
    65
 73
     0
 40
0.0
  0
ENDTAB
  0
TABLE
  2
LAYER
 70
    35
  0
LAYER
  2
通り芯
 70
     0
 62
    15
  6
CONTINUOUS
  0
LAYER
  2
補助線
 70
     0
 62
    16
  6
DOT
  0
LAYER
  2
躯体
 70
     0
 62
    31
  6
CONTINUOUS
  0
LAYER
  2
型材
 70
     0
 62
    32
  6
CONTINUOUS
  0
LAYER
  2
型材断面
 70
     0
 62
    47
  6
CONTINUOUS
  0
LAYER
  2
ガラス
 70
     0
 62
    48
  6
CONTINUOUS
  0
LAYER
  2
ゴム等
 70
     0
 62
    63
  6
CONTINUOUS
  0
LAYER
  2
ボルト／ビス
 70
     0
 62
    64
  6
CONTINUOUS
  0
LAYER
  2
文字
 70
     0
 62
    79
  6
CONTINUOUS
  0
LAYER
  2
寸法
 70
     0
 62
    80
  6
CONTINUOUS
  0
LAYER
  2
ﾊｯﾁﾝｸﾞ
 70
     0
 62
    95
  6
CONTINUOUS
  0
LAYER
  2
別途部材
 70
     0
 62
    96
  6
CONTINUOUS
  0
LAYER
  2
曲げ物
 70
     0
 62
   111
  6
CONTINUOUS
  0
LAYER
  2
鉄骨等
 70
     0
 62
   112
  6
CONTINUOUS
  0
LAYER
  2
St
 70
     0
 62
   127
  6
CONTINUOUS
  0
LAYER
  2
その他部品等
 70
     0
 62
   128
  6
CONTINUOUS
  0
LAYER
  2
ｶﾞｽｹｯﾄ
 70
     0
 62
   143
  6
CONTINUOUS
  0
LAYER
  2
ｽｹｯﾁ
 70
     0
 62
    14
  6
CONTINUOUS
  0
LAYER
  2
0
 70
     0
 62
    17
  6
CONTINUOUS
  0
LAYER
  2
1
 70
     0
 62
    30
  6
CONTINUOUS
  0
LAYER
  2
4
 70
     0
 62
    33
  6
CONTINUOUS
  0
LAYER
  2
ﾚｲﾔ3
 70
     0
 62
    46
  6
CONTINUOUS
  0
LAYER
  2
外形線
 70
     0
 62
    49
  6
CONTINUOUS
  0
LAYER
  2
部品
 70
     0
 62
    14
  6
CONTINUOUS
  0
LAYER
  2
サッシ芯
 70
     0
 62
    17
  6
DASHDOTX2
  0
LAYER
  2
寸法線
 70
     0
 62
    62
  6
CONTINUOUS
  0
LAYER
  2
姿図外形線
 70
     0
 62
    65
  6
CONTINUOUS
  0
LAYER
  2
姿補助線
 70
     0
 62
    30
  6
CONTINUOUS
  0
LAYER
  2
透視線
 70
     0
 62
    78
  6
DOT
  0
LAYER
  2
用紙
 70
     0
 62
    81
  6
CONTINUOUS
  0
LAYER
  2
実線図枠
 70
     0
 62
    94
  6
CONTINUOUS
  0
LAYER
  2
補助図枠
 70
     0
 62
    97
  6
CONTINUOUS
  0
LAYER
  2
建具記号
 70
     0
 62
   110
  6
CONTINUOUS
  0
LAYER
  2
補助文字
 70
     0
 62
   113
  6
CONTINUOUS
  0
LAYER
  2
LAYER010
 70
     0
 62
    11
  6
CONTINUOUS
  0
ENDTAB
  0
TABLE
  2
STYLE
 70
    10
  0
STYLE
  2
STANDARD
 70
     0
 40
1.0
 41
1.0
 42
1.0
 50
0.0
 71
     0
  3
TXT
  4
BIGFONT
  0
STYLE
  2
TATE
 70
     4
 40
1.0
 41
1.0
 42
1.0
 50
0.0
 71
     0
  3
TXT
  4
BIGFONT
  0
STYLE
  2
TextStyle03
 70
     0
 40
1.0
 41
1.0
 42
1.0
 50
0.0
 71
     0
  3
MONOTXT
  4
BIGFONT
  0
STYLE
  2
TextStyle04
 70
     0
 40
1.0
 41
1.0
 42
1.0
 50
0.0
 71
     0
  3
MONOTXT
  4
BIGFONT
  0
STYLE
  2
TextStyle05
 70
     0
 40
1.0
 41
1.0
 42
1.0
 50
0.0
 71
     0
  3
MONOTXT
  4
BIGFONT
  0
STYLE
  2
TextStyle06
 70
     0
 40
1.0
 41
1.0
 42
1.0
 50
0.0
 71
     0
  3
MONOTXT
  4
BIGFONT
  0
STYLE
  2
TextStyle07
 70
     0
 40
1.0
 41
1.0
 42
1.0
 50
0.0
 71
     0
  3
MONOTXT
  4
BIGFONT
  0
STYLE
  2
TextStyle08
 70
     0
 40
1.0
 41
1.0
 42
1.0
 50
0.0
 71
     0
  3
MONOTXT
  4
BIGFONT
  0
STYLE
  2
TextStyle09
 70
     0
 40
1.0
 41
1.0
 42
1.0
 50
0.0
 71
     0
  3
MONOTXT
  4
BIGFONT
  0
STYLE
  2
TextStyle10
 70
     0
 40
1.0
 41
1.0
 42
1.0
 50
0.0
 71
     0
  3
MONOTXT
  4
BIGFONT
  0
ENDTAB
  0
ENDSEC
  0
SECTION
  2
BLOCKS
  0
BLOCK
  2
*GRP_0001
 70
    65
 10
0.0
 20
0.0
  0
LINE
  8
型材断面
  6
CONTINUOUS
 10
195.0
 20
133.5
 11
195.0
 21
-133.5
  0
LINE
  8
型材断面
  6
CONTINUOUS
 10
195.0
 20
-133.5
 11
-185.0
 21
-133.5
  0
LINE
  8
型材断面
  6
CONTINUOUS
 10
-185.0
 20
-133.5
 11
-185.0
 21
133.5
  0
LINE
  8
型材断面
  6
CONTINUOUS
 10
195.0
 20
133.5
 11
-185.0
 21
133.5
  0
LINE
  8
型材断面
  6
CONTINUOUS
 10
145.0
 20
-133.5
 11
145.0
 21
-118.5
  0
LINE
  8
型材断面
  6
CONTINUOUS
 10
195.0
 20
-118.5
 11
145.0
 21
-118.5
  0
ENDBLK
  0
BLOCK
  2
*DIM_0002
 70
    65
 10
0.0
 20
0.0
  0
LINE
  8
寸法
  6
BYBLOCK
 62
     0
 10
53.282945
 20
-22.536362
 11
-113.383723
 21
-22.536362
  0
POINT
  8
寸法
 62
     0
 10
53.282945
 20
-22.536362
  0
POINT
  8
寸法
 62
     0
 10
-113.383723
 20
-22.536362
  0
TEXT
  7
TextStyle03
  8
寸法
  6
CONTINUOUS
 62
     0
 10
-41.76875
 20
-22.175
  1
呼称寸法　5000
 40
3.0
 72
     5
 11
-18.33125
 21
-22.175
  0
ENDBLK
  0
BLOCK
  2
*DIM_0003
 70
    65
 10
0.0
 20
0.0
  0
LINE
  8
寸法
  6
BYBLOCK
 62
     0
 10
-96.717055
 20
9.76892
 11
-96.717055
 21
4.857895
  0
LINE
  8
寸法
  6
BYBLOCK
 62
     0
 10
-30.050388
 20
9.76892
 11
-30.050388
 21
4.857895
  0
LINE
  8
寸法
  6
BYBLOCK
 62
     0
 10
-96.717055
 20
4.857895
 11
-30.050388
 21
4.857895
  0
POINT
  8
寸法
 62
     0
 10
-96.717055
 20
4.857895
  0
POINT
  8
寸法
 62
     0
 10
-30.050388
 20
4.857895
  0
TEXT
  7
TextStyle03
  8
寸法
  6
CONTINUOUS
 62
     0
 10
-66.68125
 20
5.225
  1
2000
 40
3.0
 72
     5
 11
-60.11875
 21
5.225
  0
ENDBLK
  0
BLOCK
  2
*DIM_0004
 70
    65
 10
0.0
 20
0.0
  0
LINE
  8
寸法
  6
BYBLOCK
 62
     0
 10
36.61628
 20
9.76892
 11
36.61628
 21
4.857895
  0
LINE
  8
寸法
  6
BYBLOCK
 62
     0
 10
-30.050388
 20
4.857895
 11
36.61628
 21
4.857895
  0
POINT
  8
寸法
 62
     0
 10
36.61628
 20
4.857895
  0
TEXT
  7
TextStyle03
  8
寸法
  6
CONTINUOUS
 62
     0
 10
-0.00625
 20
5.225
  1
2000
 40
3.0
 72
     5
 11
6.55625
 21
5.225
  0
ENDBLK
  0
BLOCK
  2
*DIM_0005
 70
    65
 10
0.0
 20
0.0
  0
LINE
  8
寸法
  6
BYBLOCK
 62
     0
 10
56.28299
 20
-78.991382
 11
56.28299
 21
-22.536362
  0
LINE
  8
寸法
  6
BYBLOCK
 62
     0
 10
53.282945
 20
-22.536362
 11
56.28299
 21
-22.536362
  0
POINT
  8
寸法
 62
     0
 10
53.282945
 20
-22.536362
  0
POINT
  8
寸法
 62
     0
 10
56.28299
 20
-22.536362
  0
TEXT
  7
TextStyle03
  8
寸法
  6
CONTINUOUS
 62
     0
 10
53.15625
 20
-22.175
  1
90
 40
3.0
 72
     5
 11
56.34375
 21
-22.175
  0
ENDBLK
  0
BLOCK
  2
*DIM_0006
 70
    65
 10
0.0
 20
0.0
  0
LINE
  8
寸法
  6
BYBLOCK
 62
     0
 10
-116.383765
 20
-78.991382
 11
-116.383765
 21
-22.536362
  0
LINE
  8
寸法
  6
BYBLOCK
 62
     0
 10
-113.38372
 20
-22.536362
 11
-116.383765
 21
-22.536362
  0
POINT
  8
寸法
 62
     0
 10
-113.38372
 20
-22.536362
  0
POINT
  8
寸法
 62
     0
 10
-116.383765
 20
-22.536362
  0
TEXT
  7
TextStyle03
  8
寸法
  6
CONTINUOUS
 62
     0
 10
-116.49375
 20
-22.175
  1
90
 40
3.0
 72
     5
 11
-113.30625
 21
-22.175
  0
ENDBLK
  0
BLOCK
  2
*DIM_0007
 70
    65
 10
0.0
 20
0.0
  0
LINE
  8
寸法
  6
BYBLOCK
 62
     0
 10
149.3695
 20
-49.867045
 11
157.804348
 21
-49.867045
  0
LINE
  8
寸法
  6
BYBLOCK
 62
     0
 10
149.3695
 20
-92.533713
 11
157.804348
 21
-92.533713
  0
LINE
  8
寸法
  6
BYBLOCK
 62
     0
 10
157.804348
 20
-49.867045
 11
157.804348
 21
-92.533713
  0
POINT
  8
寸法
 62
     0
 10
157.804348
 20
-49.867045
  0
POINT
  8
寸法
 62
     0
 10
157.804348
 20
-92.533713
  0
TEXT
  7
TextStyle03
  8
寸法
  6
CONTINUOUS
 62
     0
 10
157.45
 20
-74.48125
  1
1280
 40
3.0
 50
90.0
 72
     5
 11
157.45
 21
-67.91875
  0
ENDBLK
  0
BLOCK
  2
*DIM_0008
 70
    65
 10
0.0
 20
0.0
  0
LINE
  8
寸法
  6
BYBLOCK
 62
     0
 10
-116.383723
 20
23.399048
 11
-145.328888
 21
23.399048
  0
LINE
  8
寸法
  6
BYBLOCK
 62
     0
 10
-116.383723
 20
46.732382
 11
-145.328888
 21
46.732382
  0
LINE
  8
寸法
  6
BYBLOCK
 62
     0
 10
-145.328888
 20
23.399048
 11
-145.328888
 21
46.732382
  0
POINT
  8
寸法
 62
     0
 10
-145.328888
 20
23.399048
  0
POINT
  8
寸法
 62
     0
 10
-145.328888
 20
46.732382
  0
TEXT
  7
TextStyle03
  8
寸法
  6
CONTINUOUS
 62
     0
 10
-145.65
 20
32.6125
  1
700
 40
3.0
 50
90.0
 72
     5
 11
-145.65
 21
37.4875
  0
ENDBLK
  0
BLOCK
  2
*DIM_0009
 70
    65
 10
0.0
 20
0.0
  0
LINE
  8
寸法
  6
BYBLOCK
 62
     0
 10
-105.050388
 20
59.73238
 11
-105.050388
 21
88.840452
  0
LINE
  8
寸法
  6
BYBLOCK
 62
     0
 10
-80.050388
 20
59.73238
 11
-80.050388
 21
88.840452
  0
LINE
  8
寸法
  6
BYBLOCK
 62
     0
 10
-105.050388
 20
88.840452
 11
-80.050388
 21
88.840452
  0
POINT
  8
寸法
 62
     0
 10
-105.050388
 20
88.840452
  0
POINT
  8
寸法
 62
     0
 10
-80.050388
 20
88.840452
  0
TEXT
  7
TextStyle03
  8
寸法
  6
CONTINUOUS
 62
     0
 10
-95.0125
 20
89.2
  1
750
 40
3.0
 72
     5
 11
-90.1375
 21
89.2
  0
ENDBLK
  0
BLOCK
  2
*DIM_0010
 70
    65
 10
0.0
 20
0.0
  0
LINE
  8
寸法
  6
BYBLOCK
 62
     0
 10
-55.050388
 20
59.73238
 11
-55.050388
 21
88.840452
  0
LINE
  8
寸法
  6
BYBLOCK
 62
     0
 10
-80.050388
 20
88.840452
 11
-55.050388
 21
88.840452
  0
POINT
  8
寸法
 62
     0
 10
-55.050388
 20
88.840452
  0
TEXT
  7
TextStyle03
  8
寸法
  6
CONTINUOUS
 62
     0
 10
-70.0125
 20
89.2
  1
750
 40
3.0
 72
     5
 11
-65.1375
 21
89.2
  0
ENDBLK
  0
BLOCK
  2
*DIM_0011
 70
    65
 10
0.0
 20
0.0
  0
LINE
  8
寸法
  6
BYBLOCK
 62
     0
 10
-30.050388
 20
59.73238
 11
-30.050388
 21
88.840452
  0
LINE
  8
寸法
  6
BYBLOCK
 62
     0
 10
-55.050388
 20
88.840452
 11
-30.050388
 21
88.840452
  0
POINT
  8
寸法
 62
     0
 10
-30.050388
 20
88.840452
  0
TEXT
  7
TextStyle03
  8
寸法
  6
CONTINUOUS
 62
     0
 10
-45.0125
 20
89.2
  1
750
 40
3.0
 72
     5
 11
-40.1375
 21
89.2
  0
ENDBLK
  0
BLOCK
  2
*DIM_0012
 70
    65
 10
0.0
 20
0.0
  0
LINE
  8
寸法
  6
BYBLOCK
 62
     0
 10
-5.050388
 20
59.73238
 11
-5.050388
 21
88.840452
  0
LINE
  8
寸法
  6
BYBLOCK
 62
     0
 10
-30.050388
 20
88.840452
 11
-5.050388
 21
88.840452
  0
POINT
  8
寸法
 62
     0
 10
-5.050388
 20
88.840452
  0
TEXT
  7
TextStyle03
  8
寸法
  6
CONTINUOUS
 62
     0
 10
-20.0125
 20
89.2
  1
750
 40
3.0
 72
     5
 11
-15.1375
 21
89.2
  0
ENDBLK
  0
BLOCK
  2
*DIM_0013
 70
    65
 10
0.0
 20
0.0
  0
LINE
  8
寸法
  6
BYBLOCK
 62
     0
 10
19.949612
 20
59.73238
 11
19.949612
 21
88.840452
  0
LINE
  8
寸法
  6
BYBLOCK
 62
     0
 10
-5.050388
 20
88.840452
 11
19.949612
 21
88.840452
  0
POINT
  8
寸法
 62
     0
 10
19.949612
 20
88.840452
  0
TEXT
  7
TextStyle03
  8
寸法
  6
CONTINUOUS
 62
     0
 10
4.9875
 20
89.2
  1
750
 40
3.0
 72
     5
 11
9.8625
 21
89.2
  0
ENDBLK
  0
BLOCK
  2
*DIM_0014
 70
    65
 10
0.0
 20
0.0
  0
LINE
  8
寸法
  6
BYBLOCK
 62
     0
 10
44.949612
 20
59.73238
 11
44.949612
 21
88.840452
  0
LINE
  8
寸法
  6
BYBLOCK
 62
     0
 10
19.949612
 20
88.840452
 11
44.949612
 21
88.840452
  0
POINT
  8
寸法
 62
     0
 10
44.949612
 20
88.840452
  0
TEXT
  7
TextStyle03
  8
寸法
  6
CONTINUOUS
 62
     0
 10
29.9875
 20
89.2
  1
750
 40
3.0
 72
     5
 11
34.8625
 21
89.2
  0
ENDBLK
  0
BLOCK
  2
*DIM_0015
 70
    65
 10
0.0
 20
0.0
  0
LINE
  8
寸法
  6
CONTINUOUS
 10
118.084165
 20
70.37154
 11
121.400833
 21
70.37154
  0
POINT
  8
寸法
 10
118.084165
 20
70.37154
  0
POINT
  8
寸法
 10
121.400833
 20
70.37154
  0
TEXT
  7
TextStyle03
  8
寸法
  6
CONTINUOUS
 10
116.21875
 20
70.55
  1
99.5
 40
3.0
 72
     5
 11
122.78125
 21
70.55
  0
ENDBLK
  0
BLOCK
  2
*DIM_0016
 70
    65
 10
0.0
 20
0.0
  0
LINE
  8
寸法
  6
CONTINUOUS
 10
66.922153
 20
-77.81264
 11
66.922153
 21
-81.129307
  0
POINT
  8
寸法
 10
66.922153
 20
-77.81264
  0
POINT
  8
寸法
 10
66.922153
 20
-81.129307
  0
TEXT
  7
TextStyle03
  8
寸法
  6
CONTINUOUS
 10
70.075
 20
-82.68125
  1
99.5
 40
3.0
 50
90.0
 72
     5
 11
70.075
 21
-76.11875
  0
ENDBLK
  0
BLOCK
  2
*DIM_0017
 70
    65
 10
0.0
 20
0.0
  0
LINE
  8
寸法
  6
CONTINUOUS
 10
148.3695
 20
-41.256435
 11
116.102832
 21
-41.256435
  0
POINT
  8
寸法
 10
148.3695
 20
-41.256435
  0
POINT
  8
寸法
 10
116.102832
 20
-41.256435
  0
TEXT
  7
TextStyle03
  8
寸法
  6
CONTINUOUS
 10
129.7875
 20
-40.9
  1
968
 40
3.0
 72
     5
 11
134.6625
 21
-40.9
  0
ENDBLK
  0
ENDSEC
  0
SECTION
  2
ENTITIES
  0
POLYLINE
  8
通り芯
  6
CONTINUOUS
 66
     1
 70
     1
  0
VERTEX
  8
通り芯
 10
-210.0
 20
-148.5
  0
VERTEX
  8
通り芯
 10
210.0
 20
-148.5
  0
VERTEX
  8
通り芯
 10
210.0
 20
148.5
  0
VERTEX
  8
通り芯
 10
-210.0
 20
148.5
  0
SEQEND
  0
INSERT
  2
*GRP_0001
  8
型材断面
  6
CONTINUOUS
 10
0.0
 20
0.0
  0
LINE
  8
型材断面
  6
DASHDOT
 10
53.282945
 20
-87.251428
 11
53.282945
 21
56.73238
  0
LINE
  8
型材断面
  6
DASHDOT
 10
-30.050388
 20
-87.251428
 11
-30.050388
 21
56.73238
  0
LINE
  8
型材断面
  6
DASHDOT
 10
-113.383723
 20
-87.251428
 11
-113.383723
 21
56.73238
  0
LINE
  8
型材断面
  6
CONTINUOUS
 10
-116.013853
 20
35.065715
 11
-118.60436
 21
36.561345
  0
LINE
  8
型材断面
  6
CONTINUOUS
 10
-116.013853
 20
35.065715
 11
-118.60436
 21
33.570085
  0
LINE
  8
型材断面
  6
CONTINUOUS
 10
-118.60436
 20
33.570085
 11
-118.60436
 21
36.561345
  0
LINE
  8
型材断面
  6
CONTINUOUS
 10
-96.717055
 20
59.36251
 11
-98.212685
 21
61.953017
  0
LINE
  8
型材断面
  6
CONTINUOUS
 10
-96.717055
 20
59.36251
 11
-95.221425
 21
61.953017
  0
LINE
  8
型材断面
  6
CONTINUOUS
 10
-95.221425
 20
61.953017
 11
-98.212685
 21
61.953017
  0
LINE
  8
型材断面
  6
CONTINUOUS
 10
-154.23593
 20
101.239727
 11
-155.73156
 21
98.64922
  0
LINE
  8
型材断面
  6
CONTINUOUS
 10
-154.23593
 20
101.239727
 11
-152.7403
 21
98.64922
  0
LINE
  8
型材断面
  6
CONTINUOUS
 10
-152.7403
 20
98.64922
 11
-155.73156
 21
98.64922
  0
LINE
  8
型材断面
  6
CONTINUOUS
 10
-160.258518
 20
97.710625
 11
-114.01674
 21
97.710625
  0
LINE
  8
型材断面
  6
CONTINUOUS
 10
-96.717055
 20
10.76892
 11
-98.212685
 21
8.178413
  0
LINE
  8
型材断面
  6
CONTINUOUS
 10
-96.717055
 20
10.76892
 11
-95.221425
 21
8.178413
  0
LINE
  8
型材断面
  6
CONTINUOUS
 10
-95.221425
 20
8.178413
 11
-98.212685
 21
8.178413
  0
LINE
  8
型材断面
  6
CONTINUOUS
 10
55.913077
 20
35.065715
 11
58.503585
 21
36.561345
  0
LINE
  8
型材断面
  6
CONTINUOUS
 10
55.913077
 20
35.065715
 11
58.503585
 21
33.570085
  0
LINE
  8
型材断面
  6
CONTINUOUS
 10
58.503585
 20
33.570085
 11
58.503585
 21
36.561345
  0
LINE
  8
型材断面
  6
CONTINUOUS
 10
36.61628
 20
59.36251
 11
38.11191
 21
61.953017
  0
LINE
  8
型材断面
  6
CONTINUOUS
 10
36.61628
 20
59.36251
 11
35.12065
 21
61.953017
  0
LINE
  8
型材断面
  6
CONTINUOUS
 10
35.12065
 20
61.953017
 11
38.11191
 21
61.953017
  0
LINE
  8
型材断面
  6
CONTINUOUS
 10
36.61628
 20
10.76892
 11
38.11191
 21
8.178413
  0
LINE
  8
型材断面
  6
CONTINUOUS
 10
36.61628
 20
10.76892
 11
35.12065
 21
8.178413
  0
LINE
  8
型材断面
  6
CONTINUOUS
 10
35.12065
 20
8.178413
 11
38.11191
 21
8.178413
  0
LINE
  8
型材断面
  6
CONTINUOUS
 10
-30.050388
 20
59.36251
 11
-31.546018
 21
61.953017
  0
LINE
  8
型材断面
  6
CONTINUOUS
 10
-30.050388
 20
59.36251
 11
-28.554757
 21
61.953017
  0
LINE
  8
型材断面
  6
CONTINUOUS
 10
-28.554757
 20
61.953017
 11
-31.546018
 21
61.953017
  0
LINE
  8
型材断面
  6
CONTINUOUS
 10
-30.050388
 20
10.76892
 11
-31.546018
 21
8.178413
  0
LINE
  8
型材断面
  6
CONTINUOUS
 10
-30.050388
 20
10.76892
 11
-28.554757
 21
8.178413
  0
LINE
  8
型材断面
  6
CONTINUOUS
 10
-28.554757
 20
8.178413
 11
-31.546018
 21
8.178413
  0
LINE
  8
型材断面
  6
CONTINUOUS
 10
-160.258518
 20
91.607975
 11
-114.01674
 21
91.607975
  0
LINE
  8
型材断面
  6
CONTINUOUS
 10
-116.38377
 20
10.399007
 11
-30.050388
 21
10.399007
  0
LINE
  8
型材断面
  6
CONTINUOUS
 10
-116.38377
 20
59.732423
 11
-30.050388
 21
59.732423
  0
LINE
  8
型材断面
  6
CONTINUOUS
 10
56.282995
 20
59.732423
 11
-30.050388
 21
59.732423
  0
LINE
  8
型材断面
  6
CONTINUOUS
 10
56.282995
 20
10.399007
 11
-30.050388
 21
10.399007
  0
CIRCLE
  8
型材断面
  6
CONTINUOUS
 62
    47
 10
120.900835
 20
59.732323
 40
0.011113
  0
LINE
  8
型材断面
  6
CONTINUOUS
 62
    47
 10
121.400833
 20
59.232332
 11
121.400833
 21
59.732323
  0
LINE
  8
型材断面
  6
CONTINUOUS
 62
    47
 10
121.400833
 20
59.732323
 11
120.900835
 21
59.732323
  0
LINE
  8
型材断面
  6
CONTINUOUS
 62
    47
 10
120.900835
 20
59.732323
 11
120.403655
 21
56.798992
  0
LINE
  8
型材断面
  6
CONTINUOUS
 62
    47
 10
121.400833
 20
59.232332
 11
121.900833
 21
59.232332
  0
LINE
  8
型材断面
  6
CONTINUOUS
 62
    47
 10
120.403655
 20
56.798992
 11
119.750833
 21
56.798992
  0
CIRCLE
  8
型材断面
  6
CONTINUOUS
 62
    47
 10
120.900835
 20
10.399007
 40
0.011113
  0
LINE
  8
型材断面
  6
CONTINUOUS
 62
    47
 10
121.400833
 20
10.898998
 11
121.400833
 21
10.399007
  0
LINE
  8
型材断面
  6
CONTINUOUS
 62
    47
 10
121.400833
 20
10.399007
 11
120.900835
 21
10.399007
  0
LINE
  8
型材断面
  6
CONTINUOUS
 62
    47
 10
120.900835
 20
10.399007
 11
120.403655
 21
13.332337
  0
LINE
  8
型材断面
  6
CONTINUOUS
 62
    47
 10
121.400833
 20
10.898998
 11
121.900833
 21
10.898998
  0
LINE
  8
型材断面
  6
CONTINUOUS
 62
    47
 10
120.403655
 20
13.332337
 11
119.750833
 21
13.332337
  0
LINE
  8
型材断面
  6
CONTINUOUS
 62
    47
 10
118.250833
 20
11.752537
 11
118.250833
 21
35.065665
  0
LINE
  8
型材断面
  6
CONTINUOUS
 62
    47
 10
118.084165
 20
11.909058
 11
118.084165
 21
35.065665
  0
LINE
  8
型材断面
  6
CONTINUOUS
 62
    47
 10
119.750833
 20
11.909058
 11
119.750833
 21
35.065665
  0
LINE
  8
型材断面
  6
CONTINUOUS
 10
120.403655
 20
13.332285
 11
120.403655
 21
35.065665
  0
LINE
  8
型材断面
  6
CONTINUOUS
 10
120.900837
 20
10.398953
 11
120.900837
 21
35.065665
  0
LINE
  8
型材断面
  6
CONTINUOUS
 62
    47
 10
121.400833
 20
10.398953
 11
121.400833
 21
35.065665
  0
LINE
  8
型材断面
  6
CONTINUOUS
 10
121.900833
 20
10.898942
 11
121.900833
 21
35.065665
  0
LINE
  8
型材断面
  6
CONTINUOUS
 62
    47
 10
121.400833
 20
59.732378
 11
121.400833
 21
35.065665
  0
LINE
  8
型材断面
  6
CONTINUOUS
 10
120.403655
 20
56.799045
 11
120.403655
 21
35.065665
  0
LINE
  8
型材断面
  6
CONTINUOUS
 62
    47
 10
118.250833
 20
58.378793
 11
118.250833
 21
35.065665
  0
LINE
  8
型材断面
  6
CONTINUOUS
 62
    47
 10
118.084165
 20
58.222272
 11
118.084165
 21
35.065665
  0
LINE
  8
型材断面
  6
CONTINUOUS
 62
    47
 10
119.750833
 20
58.222272
 11
119.750833
 21
35.065665
  0
LINE
  8
型材断面
  6
CONTINUOUS
 10
120.900837
 20
59.732378
 11
120.900837
 21
35.065665
  0
LINE
  8
型材断面
  6
CONTINUOUS
 10
121.900833
 20
59.232388
 11
121.900833
 21
35.065665
  0
CIRCLE
  8
型材断面
  6
CONTINUOUS
 62
    47
 10
-116.383713
 20
-80.62931
 40
0.011113
  0
LINE
  8
型材断面
  6
CONTINUOUS
 62
    47
 10
-115.883723
 20
-81.129307
 11
-116.383713
 21
-81.129307
  0
LINE
  8
型材断面
  6
CONTINUOUS
 62
    47
 10
-116.383713
 20
-81.129307
 11
-116.383713
 21
-80.62931
  0
LINE
  8
型材断面
  6
CONTINUOUS
 62
    47
 10
-116.383713
 20
-80.62931
 11
-113.450382
 21
-80.13213
  0
LINE
  8
型材断面
  6
CONTINUOUS
 62
    47
 10
-115.883723
 20
-81.129307
 11
-115.883723
 21
-81.629307
  0
LINE
  8
型材断面
  6
CONTINUOUS
 62
    47
 10
-113.450382
 20
-80.13213
 11
-113.450382
 21
-79.479305
  0
CIRCLE
  8
型材断面
  6
CONTINUOUS
 62
    47
 10
56.282937
 20
-80.62931
 40
0.011113
  0
LINE
  8
型材断面
  6
CONTINUOUS
 62
    47
 10
55.782945
 20
-81.129307
 11
56.282937
 21
-81.129307
  0
LINE
  8
型材断面
  6
CONTINUOUS
 62
    47
 10
56.282937
 20
-81.129307
 11
56.282937
 21
-80.62931
  0
LINE
  8
型材断面
  6
CONTINUOUS
 62
    47
 10
56.282937
 20
-80.62931
 11
53.349605
 21
-80.13213
  0
LINE
  8
型材断面
  6
CONTINUOUS
 62
    47
 10
55.782945
 20
-81.129307
 11
55.782945
 21
-81.629307
  0
LINE
  8
型材断面
  6
CONTINUOUS
 62
    47
 10
53.349605
 20
-80.13213
 11
53.349605
 21
-79.479305
  0
LINE
  8
型材断面
  6
CONTINUOUS
 62
    47
 10
-116.383767
 20
-81.129307
 11
-30.050388
 21
-81.129307
  0
LINE
  8
型材断面
  6
CONTINUOUS
 10
-113.450435
 20
-80.13213
 11
-30.050388
 21
-80.13213
  0
LINE
  8
型材断面
  6
CONTINUOUS
 62
    47
 10
-114.873662
 20
-77.81264
 11
-30.050388
 21
-77.81264
  0
LINE
  8
型材断面
  6
CONTINUOUS
 62
    47
 10
-115.030182
 20
-77.979305
 11
-30.050388
 21
-77.979305
  0
LINE
  8
型材断面
  6
CONTINUOUS
 62
    47
 10
-114.873662
 20
-79.479305
 11
-30.050388
 21
-79.479305
  0
LINE
  8
型材断面
  6
CONTINUOUS
 10
-115.883777
 20
-81.629307
 11
-30.050388
 21
-81.629307
  0
LINE
  8
型材断面
  6
CONTINUOUS
 10
-116.383767
 20
-80.62931
 11
-30.050388
 21
-80.62931
  0
LINE
  8
型材断面
  6
CONTINUOUS
 62
    47
 10
56.28299
 20
-81.129307
 11
-30.050388
 21
-81.129307
  0
LINE
  8
型材断面
  6
CONTINUOUS
 10
56.28299
 20
-80.62931
 11
-30.050388
 21
-80.62931
  0
LINE
  8
型材断面
  6
CONTINUOUS
 62
    47
 10
54.772885
 20
-77.81264
 11
-30.050388
 21
-77.81264
  0
LINE
  8
型材断面
  6
CONTINUOUS
 62
    47
 10
54.929407
 20
-77.979305
 11
-30.050388
 21
-77.979305
  0
LINE
  8
型材断面
  6
CONTINUOUS
 62
    47
 10
54.772885
 20
-79.479305
 11
-30.050388
 21
-79.479305
  0
LINE
  8
型材断面
  6
CONTINUOUS
 10
55.783
 20
-81.629307
 11
-30.050388
 21
-81.629307
  0
LINE
  8
型材断面
  6
CONTINUOUS
 10
53.349657
 20
-80.13213
 11
-30.050388
 21
-80.13213
  0
LINE
  8
型材断面
  6
DASHDOT
 10
128.876843
 20
56.732332
 11
-113.383723
 21
56.732332
  0
LINE
  8
型材断面
  6
DASHDOT
 10
128.876843
 20
13.398998
 11
-113.383723
 21
13.398998
  0
LINE
  8
型材断面
  6
DASHDOT
 10
-113.383723
 20
35.065715
 11
128.876843
 21
35.065715
  0
LINE
  8
型材断面
  6
DASHDOT
 10
-80.200388
 20
13.399048
 11
-80.200388
 21
56.73238
  0
LINE
  8
型材断面
  6
DASHDOT
 10
-46.767053
 20
13.399048
 11
-46.767053
 21
56.73238
  0
LINE
  8
型材断面
  6
DASHDOT
 10
20.099612
 20
13.399048
 11
20.099612
 21
56.73238
  0
LINE
  8
型材断面
  6
DASHDOT
 10
-13.333723
 20
13.399048
 11
-13.333723
 21
56.73238
  0
LINE
  8
型材断面
  6
CONTINUOUS
 10
37.107948
 20
14.252537
 11
37.107948
 21
11.752537
  0
LINE
  8
型材断面
  6
CONTINUOUS
 10
36.274612
 20
14.252537
 11
36.274612
 21
11.752537
  0
LINE
  8
型材断面
  6
CONTINUOUS
 10
3.799612
 20
14.252537
 11
3.799612
 21
11.752537
  0
LINE
  8
型材断面
  6
CONTINUOUS
 10
2.966278
 20
14.252537
 11
2.966278
 21
11.752537
  0
LINE
  8
型材断面
  6
CONTINUOUS
 10
-29.63372
 20
14.252537
 11
-29.63372
 21
11.752537
  0
LINE
  8
型材断面
  6
CONTINUOUS
 10
-30.467055
 20
14.252537
 11
-30.467055
 21
11.752537
  0
LINE
  8
型材断面
  6
CONTINUOUS
 10
-97.208723
 20
14.252537
 11
-97.208723
 21
11.752537
  0
LINE
  8
型材断面
  6
CONTINUOUS
 10
-96.375388
 20
14.252537
 11
-96.375388
 21
11.752537
  0
LINE
  8
型材断面
  6
CONTINUOUS
 10
-63.900388
 20
14.252537
 11
-63.900388
 21
11.752537
  0
LINE
  8
型材断面
  6
CONTINUOUS
 10
-63.067053
 20
14.252537
 11
-63.067053
 21
11.752537
  0
LINE
  8
型材断面
  6
CONTINUOUS
 10
37.107948
 20
55.878893
 11
37.107948
 21
58.378893
  0
LINE
  8
型材断面
  6
CONTINUOUS
 10
36.274612
 20
55.878893
 11
36.274612
 21
58.378893
  0
LINE
  8
型材断面
  6
CONTINUOUS
 10
3.799612
 20
55.878893
 11
3.799612
 21
58.378893
  0
LINE
  8
型材断面
  6
CONTINUOUS
 10
2.966278
 20
55.878893
 11
2.966278
 21
58.378893
  0
LINE
  8
型材断面
  6
CONTINUOUS
 10
-29.63372
 20
55.878893
 11
-29.63372
 21
58.378893
  0
LINE
  8
型材断面
  6
CONTINUOUS
 10
-30.467055
 20
55.878893
 11
-30.467055
 21
58.378893
  0
LINE
  8
型材断面
  6
CONTINUOUS
 10
-97.208723
 20
55.878893
 11
-97.208723
 21
58.378893
  0
LINE
  8
型材断面
  6
CONTINUOUS
 10
-96.375388
 20
55.878893
 11
-96.375388
 21
58.378893
  0
LINE
  8
型材断面
  6
CONTINUOUS
 10
-63.900388
 20
55.878893
 11
-63.900388
 21
58.378893
  0
LINE
  8
型材断面
  6
CONTINUOUS
 10
-63.067053
 20
55.878893
 11
-63.067053
 21
58.378893
  0
LINE
  8
型材断面
  6
CONTINUOUS
 10
3.799612
 20
55.878893
 11
36.274612
 21
55.878893
  0
LINE
  8
型材断面
  6
CONTINUOUS
 10
3.799612
 20
14.252537
 11
36.274612
 21
14.252537
  0
LINE
  8
型材断面
  6
CONTINUOUS
 10
-29.63372
 20
14.252537
 11
2.966278
 21
14.252537
  0
LINE
  8
型材断面
  6
CONTINUOUS
 10
-29.63372
 20
55.878893
 11
2.966278
 21
55.878893
  0
LINE
  8
型材断面
  6
CONTINUOUS
 10
-63.067053
 20
55.878893
 11
-30.467055
 21
55.878893
  0
LINE
  8
型材断面
  6
CONTINUOUS
 10
-63.067053
 20
14.252537
 11
-30.467055
 21
14.252537
  0
LINE
  8
型材断面
  6
CONTINUOUS
 10
-96.375388
 20
14.252537
 11
-63.900388
 21
14.252537
  0
LINE
  8
型材断面
  6
CONTINUOUS
 10
-96.375388
 20
55.878893
 11
-63.900388
 21
55.878893
  0
LINE
  8
型材断面
  6
CONTINUOUS
 10
21.349612
 20
15.08587
 11
18.849612
 21
15.08587
  0
LINE
  8
型材断面
  6
CONTINUOUS
 10
21.349612
 20
55.04556
 11
18.849612
 21
55.04556
  0
LINE
  8
型材断面
  6
CONTINUOUS
 10
21.349612
 20
15.08587
 11
21.349612
 21
55.04556
  0
LINE
  8
型材断面
  6
CONTINUOUS
 10
18.849612
 20
15.08587
 11
18.849612
 21
55.04556
  0
LINE
  8
型材断面
  6
CONTINUOUS
 10
-12.083723
 20
15.08587
 11
-14.583723
 21
15.08587
  0
LINE
  8
型材断面
  6
CONTINUOUS
 10
-12.083723
 20
55.04556
 11
-14.583723
 21
55.04556
  0
LINE
  8
型材断面
  6
CONTINUOUS
 10
-12.083723
 20
15.08587
 11
-12.083723
 21
55.04556
  0
LINE
  8
型材断面
  6
CONTINUOUS
 10
-14.583723
 20
15.08587
 11
-14.583723
 21
55.04556
  0
LINE
  8
型材断面
  6
CONTINUOUS
 10
-81.450388
 20
15.08587
 11
-78.950388
 21
15.08587
  0
LINE
  8
型材断面
  6
CONTINUOUS
 10
-81.450388
 20
55.04556
 11
-78.950388
 21
55.04556
  0
LINE
  8
型材断面
  6
CONTINUOUS
 10
-81.450388
 20
15.08587
 11
-81.450388
 21
55.04556
  0
LINE
  8
型材断面
  6
CONTINUOUS
 10
-78.950388
 20
15.08587
 11
-78.950388
 21
55.04556
  0
LINE
  8
型材断面
  6
CONTINUOUS
 10
-48.017053
 20
15.08587
 11
-45.517053
 21
15.08587
  0
LINE
  8
型材断面
  6
CONTINUOUS
 10
-48.017053
 20
55.04556
 11
-45.517053
 21
55.04556
  0
LINE
  8
型材断面
  6
CONTINUOUS
 10
-48.017053
 20
15.08587
 11
-48.017053
 21
55.04556
  0
LINE
  8
型材断面
  6
CONTINUOUS
 10
-45.517053
 20
15.08587
 11
-45.517053
 21
55.04556
  0
LINE
  8
型材断面
  6
CONTINUOUS
 10
56.282992
 20
35.06571
 11
56.282992
 21
59.732423
  0
LINE
  8
型材断面
  6
CONTINUOUS
 10
56.282992
 20
35.06572
 11
56.282992
 21
10.399007
  0
LINE
  8
型材断面
  6
CONTINUOUS
 10
54.693707
 20
11.752537
 11
54.929407
 21
11.988237
  0
LINE
  8
型材断面
  6
CONTINUOUS
 10
56.282992
 20
10.399007
 11
54.811585
 21
11.870415
  0
LINE
  8
型材断面
  6
CONTINUOUS
 10
54.929407
 20
11.988237
 11
52.429407
 21
14.488237
  0
LINE
  8
型材断面
  6
CONTINUOUS
 10
54.693707
 20
11.752537
 11
52.193707
 21
14.252537
  0
LINE
  8
型材断面
  6
CONTINUOUS
 10
52.193707
 20
14.252537
 11
52.429407
 21
14.488237
  0
LINE
  8
型材断面
  6
CONTINUOUS
 10
52.429407
 20
34.649048
 11
52.429407
 21
14.488237
  0
LINE
  8
型材断面
  6
CONTINUOUS
 10
54.693707
 20
58.378893
 11
54.929407
 21
58.143193
  0
LINE
  8
型材断面
  6
CONTINUOUS
 10
56.282992
 20
59.732423
 11
54.811585
 21
58.261015
  0
LINE
  8
型材断面
  6
CONTINUOUS
 10
54.693707
 20
58.378893
 11
52.193707
 21
55.878893
  0
LINE
  8
型材断面
  6
CONTINUOUS
 10
52.193707
 20
55.878893
 11
52.429407
 21
55.643193
  0
LINE
  8
型材断面
  6
CONTINUOUS
 10
52.429407
 20
55.643193
 11
54.929407
 21
58.143193
  0
LINE
  8
型材断面
  6
CONTINUOUS
 10
54.929407
 20
11.988237
 11
54.929407
 21
58.143193
  0
LINE
  8
型材断面
  6
CONTINUOUS
 10
52.429407
 20
35.482382
 11
52.429407
 21
55.643193
  0
LINE
  8
型材断面
  6
CONTINUOUS
 10
-116.383767
 20
35.06571
 11
-116.383767
 21
59.732423
  0
LINE
  8
型材断面
  6
CONTINUOUS
 10
-116.383767
 20
35.06572
 11
-116.383767
 21
10.399007
  0
LINE
  8
型材断面
  6
CONTINUOUS
 10
-114.794482
 20
11.752537
 11
-115.030182
 21
11.988237
  0
LINE
  8
型材断面
  6
CONTINUOUS
 10
-116.383767
 20
10.399007
 11
-114.91236
 21
11.870415
  0
LINE
  8
型材断面
  6
CONTINUOUS
 10
-115.030182
 20
11.988237
 11
-112.530182
 21
14.488237
  0
LINE
  8
型材断面
  6
CONTINUOUS
 10
-114.794482
 20
11.752537
 11
-112.294482
 21
14.252537
  0
LINE
  8
型材断面
  6
CONTINUOUS
 10
-112.294482
 20
14.252537
 11
-112.530182
 21
14.488237
  0
LINE
  8
型材断面
  6
CONTINUOUS
 10
-112.530182
 20
34.649048
 11
-112.530182
 21
14.488237
  0
LINE
  8
型材断面
  6
CONTINUOUS
 10
-114.794482
 20
58.378893
 11
-115.030182
 21
58.143193
  0
LINE
  8
型材断面
  6
CONTINUOUS
 10
-116.383767
 20
59.732423
 11
-114.91236
 21
58.261015
  0
LINE
  8
型材断面
  6
CONTINUOUS
 10
-114.794482
 20
58.378893
 11
-112.294482
 21
55.878893
  0
LINE
  8
型材断面
  6
CONTINUOUS
 10
-112.294482
 20
55.878893
 11
-112.530182
 21
55.643193
  0
LINE
  8
型材断面
  6
CONTINUOUS
 10
-112.530182
 20
55.643193
 11
-115.030182
 21
58.143193
  0
LINE
  8
型材断面
  6
CONTINUOUS
 10
-115.030182
 20
11.988237
 11
-115.030182
 21
58.143193
  0
LINE
  8
型材断面
  6
CONTINUOUS
 10
-112.530182
 20
35.482382
 11
-112.530182
 21
55.643193
  0
LINE
  8
型材断面
  6
CONTINUOUS
 10
-97.208723
 20
55.878893
 11
-112.294482
 21
55.878893
  0
LINE
  8
型材断面
  6
CONTINUOUS
 10
-97.208723
 20
14.252537
 11
-112.294482
 21
14.252537
  0
LINE
  8
型材断面
  6
CONTINUOUS
 10
37.107948
 20
14.252537
 11
52.193707
 21
14.252537
  0
LINE
  8
型材断面
  6
CONTINUOUS
 10
-114.794482
 20
11.752537
 11
54.693707
 21
11.752537
  0
LINE
  8
型材断面
  6
CONTINUOUS
 10
37.107948
 20
55.878893
 11
52.193707
 21
55.878893
  0
LINE
  8
型材断面
  6
CONTINUOUS
 10
-114.794482
 20
58.378893
 11
54.693707
 21
58.378893
  0
TEXT
  7
TextStyle03
  8
文字
  6
CONTINUOUS
 10
-151.425
 20
98.85
  1
は排水穴位置を示す
 40
3.0
 72
     5
 11
-121.425
 21
98.85
  0
TEXT
  7
TextStyle03
  8
文字
  6
CONTINUOUS
 10
60.45
 20
104.525
  1
ＮＳコード：ＮＳＦＫＺ
 40
5.0
 72
     5
 11
121.7
 21
104.525
  0
TEXT
  7
TextStyle03
  8
文字
  6
CONTINUOUS
 10
129.825
 20
-86.1
  1
網入り6.8t
 40
3.0
 72
     5
 11
146.5125
 21
-86.1
  0
TEXT
  7
TextStyle03
  8
文字
  6
CONTINUOUS
 10
136.5
 20
-90.775
  1
×５枚
 40
3.0
 72
     5
 11
146.25
 21
-90.775
  0
TEXT
  7
TextStyle03
  8
文字
  6
CONTINUOUS
 10
-150.85
 20
23.975
  1
アンカーピッチ
 40
3.0
 50
90.0
 72
     5
 11
-150.85
 21
47.225
  0
TEXT
  7
TextStyle03
  8
文字
  6
CONTINUOUS
 10
-102.65
 20
94.175
  1
アンカーピッチ
 40
3.0
 72
     5
 11
-79.4
 21
94.175
  0
TEXT
  7
TextStyle03
  8
文字
  6
CONTINUOUS
 10
-155.15
 20
92.525
  1
アンカー数量　１８ヶ所
 40
3.0
 72
     5
 11
-118.4
 21
92.525
  0
LINE
  8
文字
  6
CONTINUOUS
 10
118.084165
 20
70.37154
 11
118.084165
 21
61.018383
  0
LINE
  8
文字
  6
CONTINUOUS
 10
121.400833
 20
70.37154
 11
121.400833
 21
61.083737
  0
LINE
  8
文字
  6
CONTINUOUS
 10
66.922153
 20
-77.81264
 11
57.568997
 21
-77.81264
  0
LINE
  8
文字
  6
CONTINUOUS
 10
66.922153
 20
-81.129307
 11
57.63435
 21
-81.129307
  0
LINE
  8
文字
  6
CONTINUOUS
 10
148.3695
 20
-41.256435
 11
148.3695
 21
-48.63954
  0
LINE
  8
文字
  6
CONTINUOUS
 10
116.102832
 20
-41.256435
 11
116.102832
 21
-48.63954
  0
TEXT
  7
TextStyle03
  8
文字
  6
CONTINUOUS
 10
60.3
 20
125.25
  1
シリーズ：ＴＦ２ＦＫＬ
 40
5.0
 72
     5
 11
121.55
 21
125.25
  0
TEXT
  7
TextStyle03
  8
文字
  6
CONTINUOUS
 10
60.3
 20
119.625
  1
　　　　　（固定）1300×5000タイプ
 40
5.0
 72
     5
 11
155.3
 21
119.625
  0
TEXT
  7
TextStyle03
  8
文字
  6
CONTINUOUS
 10
60.3
 20
114.0
  1
図面名　：外観姿図
 40
5.0
 72
     5
 11
110.3
 21
114.0
  0
TEXT
  7
TextStyle03
  8
文字
  6
CONTINUOUS
 10
60.3
 20
108.375
  1
　　　　　　
 40
5.0
 72
     5
 11
93.425
 21
108.375
  0
LINE
  8
文字
  6
CONTINUOUS
 10
52.429407
 20
34.649048
 11
54.929407
 21
34.649048
  0
LINE
  8
文字
  6
CONTINUOUS
 10
52.429407
 20
35.482382
 11
54.929407
 21
35.482382
  0
LINE
  8
文字
  6
CONTINUOUS
 10
-112.530182
 20
34.649048
 11
-115.030182
 21
34.649048
  0
LINE
  8
文字
  6
CONTINUOUS
 10
-112.530182
 20
35.482382
 11
-115.030182
 21
35.482382
  0
INSERT
  2
*DIM_0002
  8
寸法
  6
CONTINUOUS
 10
0.0
 20
0.0
  0
INSERT
  2
*DIM_0003
  8
寸法
  6
CONTINUOUS
 10
0.0
 20
0.0
  0
INSERT
  2
*DIM_0004
  8
寸法
  6
CONTINUOUS
 10
0.0
 20
0.0
  0
INSERT
  2
*DIM_0005
  8
寸法
  6
CONTINUOUS
 10
0.0
 20
0.0
  0
INSERT
  2
*DIM_0006
  8
寸法
  6
CONTINUOUS
 10
0.0
 20
0.0
  0
INSERT
  2
*DIM_0007
  8
寸法
  6
CONTINUOUS
 10
0.0
 20
0.0
  0
INSERT
  2
*DIM_0008
  8
寸法
  6
CONTINUOUS
 10
0.0
 20
0.0
  0
INSERT
  2
*DIM_0009
  8
寸法
  6
CONTINUOUS
 10
0.0
 20
0.0
  0
INSERT
  2
*DIM_0010
  8
寸法
  6
CONTINUOUS
 10
0.0
 20
0.0
  0
INSERT
  2
*DIM_0011
  8
寸法
  6
CONTINUOUS
 10
0.0
 20
0.0
  0
INSERT
  2
*DIM_0012
  8
寸法
  6
CONTINUOUS
 10
0.0
 20
0.0
  0
INSERT
  2
*DIM_0013
  8
寸法
  6
CONTINUOUS
 10
0.0
 20
0.0
  0
INSERT
  2
*DIM_0014
  8
寸法
  6
CONTINUOUS
 10
0.0
 20
0.0
  0
INSERT
  2
*DIM_0015
  8
寸法
  6
CONTINUOUS
 10
0.0
 20
0.0
  0
INSERT
  2
*DIM_0016
  8
寸法
  6
CONTINUOUS
 10
0.0
 20
0.0
  0
INSERT
  2
*DIM_0017
  8
寸法
  6
CONTINUOUS
 10
0.0
 20
0.0
  0
LINE
  8
別途部材
  6
CONTINUOUS
 62
    47
 10
118.184165
 20
58.378793
 11
118.250833
 21
58.378793
  0
ARC
  8
別途部材
  6
CONTINUOUS
 62
    47
 10
118.18416
 20
58.278794
 40
0.1
 50
90.0
 51
180.0
  0
LINE
  8
別途部材
  6
CONTINUOUS
 62
    47
 10
118.084165
 20
58.278793
 11
118.084165
 21
58.222272
  0
LINE
  8
別途部材
  6
CONTINUOUS
 62
    47
 10
119.750833
 20
58.222272
 11
118.250833
 21
58.222272
  0
LINE
  8
別途部材
  6
CONTINUOUS
 62
    47
 10
118.184165
 20
11.752537
 11
118.250833
 21
11.752537
  0
ARC
  8
別途部材
  6
CONTINUOUS
 62
    47
 10
118.18416
 20
11.852536
 40
0.1
 50
180.0
 51
270.0
  0
LINE
  8
別途部材
  6
CONTINUOUS
 62
    47
 10
118.084165
 20
11.852537
 11
118.084165
 21
11.909058
  0
LINE
  8
別途部材
  6
CONTINUOUS
 62
    47
 10
119.750833
 20
11.909058
 11
118.250833
 21
11.909058
  0
LINE
  8
別途部材
  6
CONTINUOUS
 62
    47
 10
-115.030182
 20
-77.91264
 11
-115.030182
 21
-77.979305
  0
ARC
  8
別途部材
  6
CONTINUOUS
 62
    47
 10
-114.930185
 20
-77.912637
 40
0.1
 50
90.0
 51
180.0
  0
LINE
  8
別途部材
  6
CONTINUOUS
 62
    47
 10
-114.930182
 20
-77.81264
 11
-114.873662
 21
-77.81264
  0
LINE
  8
別途部材
  6
CONTINUOUS
 62
    47
 10
-114.873662
 20
-79.479305
 11
-114.873662
 21
-77.979305
  0
LINE
  8
別途部材
  6
CONTINUOUS
 62
    47
 10
54.929407
 20
-77.91264
 11
54.929407
 21
-77.979305
  0
ARC
  8
別途部材
  6
CONTINUOUS
 62
    47
 10
54.829406
 20
-77.912637
 40
0.1
 50
0.0
 51
90.0
  0
LINE
  8
別途部材
  6
CONTINUOUS
 62
    47
 10
54.829407
 20
-77.81264
 11
54.772885
 21
-77.81264
  0
LINE
  8
別途部材
  6
CONTINUOUS
 62
    47
 10
54.772885
 20
-79.479305
 11
54.772885
 21
-77.979305
  0
LINE
  8
曲げ物
  6
CONTINUOUS
 10
38.008675
 20
37.022003
 11
34.313363
 21
33.32669
  0
LINE
  8
曲げ物
  6
CONTINUOUS
 10
37.305205
 20
35.485893
 11
35.849475
 21
34.030163
  0
LINE
  8
曲げ物
  6
CONTINUOUS
 10
36.472565
 20
36.318533
 11
35.016835
 21
34.862803
  0
LINE
  8
曲げ物
  6
CONTINUOUS
 10
6.120495
 20
37.022003
 11
2.425182
 21
33.32669
  0
LINE
  8
曲げ物
  6
CONTINUOUS
 10
5.417025
 20
35.485893
 11
3.961295
 21
34.030163
  0
LINE
  8
曲げ物
  6
CONTINUOUS
 10
4.584385
 20
36.318533
 11
3.128655
 21
34.862803
  0
LINE
  8
曲げ物
  6
CONTINUOUS
 10
-27.973165
 20
37.022003
 11
-31.668477
 21
33.32669
  0
LINE
  8
曲げ物
  6
CONTINUOUS
 10
-28.676635
 20
35.485893
 11
-30.132365
 21
34.030163
  0
LINE
  8
曲げ物
  6
CONTINUOUS
 10
-29.509275
 20
36.318533
 11
-30.965005
 21
34.862803
  0
LINE
  8
曲げ物
  6
CONTINUOUS
 10
-61.774535
 20
37.022003
 11
-65.469848
 21
33.32669
  0
LINE
  8
曲げ物
  6
CONTINUOUS
 10
-62.478005
 20
35.485893
 11
-63.933735
 21
34.030163
  0
LINE
  8
曲げ物
  6
CONTINUOUS
 10
-63.310645
 20
36.318533
 11
-64.766375
 21
34.862803
  0
LINE
  8
曲げ物
  6
CONTINUOUS
 10
-95.297588
 20
37.022003
 11
-98.9929
 21
33.32669
  0
LINE
  8
曲げ物
  6
CONTINUOUS
 10
-96.001058
 20
35.485893
 11
-97.456787
 21
34.030163
  0
LINE
  8
曲げ物
  6
CONTINUOUS
 10
-96.833698
 20
36.318533
 11
-98.289427
 21
34.862803
  0
LINE
  8
曲げ物
  6
CONTINUOUS
 10
148.3695
 20
-92.533713
 11
148.3695
 21
-49.867045
  0
LINE
  8
曲げ物
  6
CONTINUOUS
 10
116.102832
 20
-92.533713
 11
116.102832
 21
-49.867045
  0
LINE
  8
曲げ物
  6
CONTINUOUS
 10
148.3695
 20
-49.867045
 11
116.102832
 21
-49.867045
  0
LINE
  8
曲げ物
  6
CONTINUOUS
 10
148.3695
 20
-92.533713
 11
116.102832
 21
-92.533713
  0
CIRCLE
  8
LAYER010
  6
CONTINUOUS
 62
    47
 10
120.900835
 20
59.732323
 40
0.011113
  0
CIRCLE
  8
LAYER010
  6
CONTINUOUS
 62
    47
 10
120.900835
 20
10.399007
 40
0.011113
  0
CIRCLE
  8
LAYER010
  6
CONTINUOUS
 62
    47
 10
-116.383713
 20
-80.62931
 40
0.011113
  0
CIRCLE
  8
LAYER010
  6
CONTINUOUS
 62
    47
 10
56.282937
 20
-80.62931
 40
0.011113
  0
ENDSEC
  0
EOF
