  0
SECTION
  2
HEADER
  9
$EXTMIN
 10
-210.0
 20
-148.5
  9
$EXTMAX
 10
210.0
 20
148.5
  9
$PDMODE
 70
    32
  9
$PDSIZE
 40
1.5
  9
$LTSCALE
 40
10.0
  0
ENDSEC
  0
SECTION
  2
TABLES
  0
TABLE
  2
LTYPE
 70
    15
  0
LTYPE
  2
CONTINUOUS
 70
    64
  3
実線
 72
    65
 73
     0
 40
0.0
  0
LTYPE
  2
DASHED
 70
    64
  3
破線A
 72
    65
 73
     2
 40
0.6
 49
0.4
 49
-0.2
  0
LTYPE
  2
DASHEDX2
 70
    64
  3
破線B
 72
    65
 73
     2
 40
1.3
 49
0.9
 49
-0.4
  0
LTYPE
  2
DASHDOT
 70
    64
  3
１点鎖線A
 72
    65
 73
     4
 40
0.5375
 49
0.375
 49
-0.05
 49
0.0625
 49
-0.05
  0
LTYPE
  2
DASHDOTX2
 70
    64
  3
１点鎖線B
 72
    65
 73
     4
 40
1.075
 49
0.75
 49
-0.1
 49
0.125
 49
-0.1
  0
LTYPE
  2
DIVIDE2
 70
    64
  3
２点鎖線A
 72
    65
 73
     6
 40
0.5125
 49
0.3
 49
-0.0375
 49
0.05
 49
-0.0375
 49
0.05
 49
-0.0375
  0
LTYPE
  2
DIVIDE
 70
    64
  3
２点鎖線B
 72
    65
 73
     6
 40
1.05
 49
0.55
 49
-0.1
 49
0.1
 49
-0.1
 49
0.1
 49
-0.1
  0
LTYPE
  2
DOT
 70
    64
  3
点線A
 72
    65
 73
     2
 40
0.1125
 49
0.0625
 49
-0.05
  0
LTYPE
  2
DOTX2
 70
    64
  3
点線B
 72
    65
 73
     2
 40
0.275
 49
0.15
 49
-0.125
  0
LTYPE
  2
CONTINUOUS
 70
    64
  3
実線
 72
    65
 73
     0
 40
0.0
  0
LTYPE
  2
CONTINUOUS
 70
    64
  3
実線
 72
    65
 73
     0
 40
0.0
  0
LTYPE
  2
CONTINUOUS
 70
    64
  3
実線
 72
    65
 73
     0
 40
0.0
  0
LTYPE
  2
CONTINUOUS
 70
    64
  3
実線
 72
    65
 73
     0
 40
0.0
  0
LTYPE
  2
CONTINUOUS
 70
    64
  3
実線
 72
    65
 73
     0
 40
0.0
  0
LTYPE
  2
CONTINUOUS
 70
    64
  3
実線
 72
    65
 73
     0
 40
0.0
  0
ENDTAB
  0
TABLE
  2
LAYER
 70
    35
  0
LAYER
  2
通り芯
 70
     0
 62
    15
  6
CONTINUOUS
  0
LAYER
  2
補助線
 70
     0
 62
    16
  6
DOT
  0
LAYER
  2
躯体
 70
     0
 62
    31
  6
CONTINUOUS
  0
LAYER
  2
型材
 70
     0
 62
    32
  6
CONTINUOUS
  0
LAYER
  2
型材断面
 70
     0
 62
    47
  6
CONTINUOUS
  0
LAYER
  2
ガラス
 70
     0
 62
    48
  6
CONTINUOUS
  0
LAYER
  2
ゴム等
 70
     0
 62
    63
  6
CONTINUOUS
  0
LAYER
  2
ボルト／ビス
 70
     0
 62
    64
  6
CONTINUOUS
  0
LAYER
  2
文字
 70
     0
 62
    79
  6
CONTINUOUS
  0
LAYER
  2
寸法
 70
     0
 62
    80
  6
CONTINUOUS
  0
LAYER
  2
ﾊｯﾁﾝｸﾞ
 70
     0
 62
    95
  6
CONTINUOUS
  0
LAYER
  2
別途部材
 70
     0
 62
    96
  6
CONTINUOUS
  0
LAYER
  2
曲げ物
 70
     0
 62
   111
  6
CONTINUOUS
  0
LAYER
  2
鉄骨等
 70
     0
 62
   112
  6
CONTINUOUS
  0
LAYER
  2
St
 70
     0
 62
   127
  6
CONTINUOUS
  0
LAYER
  2
その他部品等
 70
     0
 62
   128
  6
CONTINUOUS
  0
LAYER
  2
ｶﾞｽｹｯﾄ
 70
     0
 62
   143
  6
CONTINUOUS
  0
LAYER
  2
ｽｹｯﾁ
 70
     0
 62
    14
  6
CONTINUOUS
  0
LAYER
  2
0
 70
     0
 62
    17
  6
CONTINUOUS
  0
LAYER
  2
1
 70
     0
 62
    30
  6
CONTINUOUS
  0
LAYER
  2
4
 70
     0
 62
    33
  6
CONTINUOUS
  0
LAYER
  2
ﾚｲﾔ3
 70
     0
 62
    46
  6
CONTINUOUS
  0
LAYER
  2
外形線
 70
     0
 62
    49
  6
CONTINUOUS
  0
LAYER
  2
部品
 70
     0
 62
    14
  6
CONTINUOUS
  0
LAYER
  2
サッシ芯
 70
     0
 62
    17
  6
DASHDOTX2
  0
LAYER
  2
寸法線
 70
     0
 62
    62
  6
CONTINUOUS
  0
LAYER
  2
姿図外形線
 70
     0
 62
    65
  6
CONTINUOUS
  0
LAYER
  2
姿補助線
 70
     0
 62
    30
  6
CONTINUOUS
  0
LAYER
  2
透視線
 70
     0
 62
    78
  6
DOT
  0
LAYER
  2
用紙
 70
     0
 62
    81
  6
CONTINUOUS
  0
LAYER
  2
実線図枠
 70
     0
 62
    94
  6
CONTINUOUS
  0
LAYER
  2
補助図枠
 70
     0
 62
    97
  6
CONTINUOUS
  0
LAYER
  2
建具記号
 70
     0
 62
   110
  6
CONTINUOUS
  0
LAYER
  2
補助文字
 70
     0
 62
   113
  6
CONTINUOUS
  0
LAYER
  2
LAYER010
 70
     0
 62
    11
  6
CONTINUOUS
  0
ENDTAB
  0
TABLE
  2
STYLE
 70
    10
  0
STYLE
  2
STANDARD
 70
     0
 40
1.0
 41
1.0
 42
1.0
 50
0.0
 71
     0
  3
TXT
  4
BIGFONT
  0
STYLE
  2
TATE
 70
     4
 40
1.0
 41
1.0
 42
1.0
 50
0.0
 71
     0
  3
TXT
  4
BIGFONT
  0
STYLE
  2
TextStyle03
 70
     0
 40
1.0
 41
1.0
 42
1.0
 50
0.0
 71
     0
  3
MONOTXT
  4
BIGFONT
  0
STYLE
  2
TextStyle04
 70
     0
 40
1.0
 41
1.0
 42
1.0
 50
0.0
 71
     0
  3
MONOTXT
  4
BIGFONT
  0
STYLE
  2
TextStyle05
 70
     0
 40
1.0
 41
1.0
 42
1.0
 50
0.0
 71
     0
  3
MONOTXT
  4
BIGFONT
  0
STYLE
  2
TextStyle06
 70
     0
 40
1.0
 41
1.0
 42
1.0
 50
0.0
 71
     0
  3
MONOTXT
  4
BIGFONT
  0
STYLE
  2
TextStyle07
 70
     0
 40
1.0
 41
1.0
 42
1.0
 50
0.0
 71
     0
  3
MONOTXT
  4
BIGFONT
  0
STYLE
  2
TextStyle08
 70
     0
 40
1.0
 41
1.0
 42
1.0
 50
0.0
 71
     0
  3
MONOTXT
  4
BIGFONT
  0
STYLE
  2
TextStyle09
 70
     0
 40
1.0
 41
1.0
 42
1.0
 50
0.0
 71
     0
  3
MONOTXT
  4
BIGFONT
  0
STYLE
  2
TextStyle10
 70
     0
 40
1.0
 41
1.0
 42
1.0
 50
0.0
 71
     0
  3
MONOTXT
  4
BIGFONT
  0
ENDTAB
  0
ENDSEC
  0
SECTION
  2
BLOCKS
  0
BLOCK
  2
*GRP_0001
 70
    65
 10
0.0
 20
0.0
  0
LINE
  8
型材断面
  6
CONTINUOUS
 10
195.0
 20
133.5
 11
195.0
 21
-133.5
  0
LINE
  8
型材断面
  6
CONTINUOUS
 10
195.0
 20
-133.5
 11
-185.0
 21
-133.5
  0
LINE
  8
型材断面
  6
CONTINUOUS
 10
-185.0
 20
-133.5
 11
-185.0
 21
133.5
  0
LINE
  8
型材断面
  6
CONTINUOUS
 10
195.0
 20
133.5
 11
-185.0
 21
133.5
  0
LINE
  8
型材断面
  6
CONTINUOUS
 10
145.0
 20
-133.5
 11
145.0
 21
-118.5
  0
LINE
  8
型材断面
  6
CONTINUOUS
 10
195.0
 20
-118.5
 11
145.0
 21
-118.5
  0
ENDBLK
  0
BLOCK
  2
*DIM_0002
 70
    65
 10
0.0
 20
0.0
  0
LINE
  8
寸法
  6
BYBLOCK
 62
     0
 10
21.33489
 20
-22.536362
 11
-95.331778
 21
-22.536362
  0
POINT
  8
寸法
 62
     0
 10
21.33489
 20
-22.536362
  0
POINT
  8
寸法
 62
     0
 10
-95.331778
 20
-22.536362
  0
TEXT
  7
TextStyle03
  8
寸法
  6
CONTINUOUS
 62
     0
 10
-48.71875
 20
-22.175
  1
呼称寸法　3500
 40
3.0
 72
     5
 11
-25.28125
 21
-22.175
  0
ENDBLK
  0
BLOCK
  2
*DIM_0003
 70
    65
 10
0.0
 20
0.0
  0
LINE
  8
寸法
  6
BYBLOCK
 62
     0
 10
-78.66511
 20
9.76892
 11
-78.66511
 21
4.551973
  0
LINE
  8
寸法
  6
BYBLOCK
 62
     0
 10
4.668225
 20
9.76892
 11
4.668225
 21
4.551973
  0
LINE
  8
寸法
  6
BYBLOCK
 62
     0
 10
-78.66511
 20
4.551973
 11
4.668225
 21
4.551973
  0
POINT
  8
寸法
 62
     0
 10
-78.66511
 20
4.551973
  0
POINT
  8
寸法
 62
     0
 10
4.668225
 20
4.551973
  0
TEXT
  7
TextStyle03
  8
寸法
  6
CONTINUOUS
 62
     0
 10
-40.28125
 20
4.925
  1
2500
 40
3.0
 72
     5
 11
-33.71875
 21
4.925
  0
ENDBLK
  0
BLOCK
  2
*DIM_0004
 70
    65
 10
0.0
 20
0.0
  0
LINE
  8
寸法
  6
BYBLOCK
 62
     0
 10
24.334935
 20
-78.991382
 11
24.334935
 21
-22.536362
  0
LINE
  8
寸法
  6
BYBLOCK
 62
     0
 10
21.33489
 20
-22.536362
 11
24.334935
 21
-22.536362
  0
POINT
  8
寸法
 62
     0
 10
21.33489
 20
-22.536362
  0
POINT
  8
寸法
 62
     0
 10
24.334935
 20
-22.536362
  0
TEXT
  7
TextStyle03
  8
寸法
  6
CONTINUOUS
 62
     0
 10
21.23125
 20
-22.175
  1
90
 40
3.0
 72
     5
 11
24.41875
 21
-22.175
  0
ENDBLK
  0
BLOCK
  2
*DIM_0005
 70
    65
 10
0.0
 20
0.0
  0
LINE
  8
寸法
  6
BYBLOCK
 62
     0
 10
-98.33182
 20
-78.991382
 11
-98.33182
 21
-22.536362
  0
LINE
  8
寸法
  6
BYBLOCK
 62
     0
 10
-95.331775
 20
-22.536362
 11
-98.33182
 21
-22.536362
  0
POINT
  8
寸法
 62
     0
 10
-95.331775
 20
-22.536362
  0
POINT
  8
寸法
 62
     0
 10
-98.33182
 20
-22.536362
  0
TEXT
  7
TextStyle03
  8
寸法
  6
CONTINUOUS
 62
     0
 10
-98.44375
 20
-22.175
  1
90
 40
3.0
 72
     5
 11
-95.25625
 21
-22.175
  0
ENDBLK
  0
BLOCK
  2
*DIM_0006
 70
    65
 10
0.0
 20
0.0
  0
LINE
  8
寸法
  6
BYBLOCK
 62
     0
 10
117.421445
 20
-49.867045
 11
125.856293
 21
-49.867045
  0
LINE
  8
寸法
  6
BYBLOCK
 62
     0
 10
117.421445
 20
-92.533713
 11
125.856293
 21
-92.533713
  0
LINE
  8
寸法
  6
BYBLOCK
 62
     0
 10
125.856293
 20
-49.867045
 11
125.856293
 21
-92.533713
  0
POINT
  8
寸法
 62
     0
 10
125.856293
 20
-49.867045
  0
POINT
  8
寸法
 62
     0
 10
125.856293
 20
-92.533713
  0
TEXT
  7
TextStyle03
  8
寸法
  6
CONTINUOUS
 62
     0
 10
125.525
 20
-74.48125
  1
1280
 40
3.0
 50
90.0
 72
     5
 11
125.525
 21
-67.91875
  0
ENDBLK
  0
BLOCK
  2
*DIM_0007
 70
    65
 10
0.0
 20
0.0
  0
LINE
  8
寸法
  6
BYBLOCK
 62
     0
 10
-98.331778
 20
23.399048
 11
-127.276943
 21
23.399048
  0
LINE
  8
寸法
  6
BYBLOCK
 62
     0
 10
-98.331778
 20
46.732382
 11
-127.276943
 21
46.732382
  0
LINE
  8
寸法
  6
BYBLOCK
 62
     0
 10
-127.276943
 20
23.399048
 11
-127.276943
 21
46.732382
  0
POINT
  8
寸法
 62
     0
 10
-127.276943
 20
23.399048
  0
POINT
  8
寸法
 62
     0
 10
-127.276943
 20
46.732382
  0
TEXT
  7
TextStyle03
  8
寸法
  6
CONTINUOUS
 62
     0
 10
-127.625
 20
32.6125
  1
700
 40
3.0
 50
90.0
 72
     5
 11
-127.625
 21
37.4875
  0
ENDBLK
  0
BLOCK
  2
*DIM_0008
 70
    65
 10
0.0
 20
0.0
  0
LINE
  8
寸法
  6
BYBLOCK
 62
     0
 10
-90.331775
 20
59.73238
 11
-90.331775
 21
88.840452
  0
LINE
  8
寸法
  6
BYBLOCK
 62
     0
 10
-63.66511
 20
59.73238
 11
-63.66511
 21
88.840452
  0
LINE
  8
寸法
  6
BYBLOCK
 62
     0
 10
-90.331775
 20
88.840452
 11
-63.66511
 21
88.840452
  0
POINT
  8
寸法
 62
     0
 10
-90.331775
 20
88.840452
  0
POINT
  8
寸法
 62
     0
 10
-63.66511
 20
88.840452
  0
TEXT
  7
TextStyle03
  8
寸法
  6
CONTINUOUS
 62
     0
 10
-79.4375
 20
89.2
  1
800
 40
3.0
 72
     5
 11
-74.5625
 21
89.2
  0
ENDBLK
  0
BLOCK
  2
*DIM_0009
 70
    65
 10
0.0
 20
0.0
  0
LINE
  8
寸法
  6
BYBLOCK
 62
     0
 10
-36.998442
 20
59.73238
 11
-36.998442
 21
88.840452
  0
LINE
  8
寸法
  6
BYBLOCK
 62
     0
 10
-63.66511
 20
88.840452
 11
-36.998442
 21
88.840452
  0
POINT
  8
寸法
 62
     0
 10
-36.998442
 20
88.840452
  0
TEXT
  7
TextStyle03
  8
寸法
  6
CONTINUOUS
 62
     0
 10
-52.7875
 20
89.2
  1
800
 40
3.0
 72
     5
 11
-47.9125
 21
89.2
  0
ENDBLK
  0
BLOCK
  2
*DIM_0010
 70
    65
 10
0.0
 20
0.0
  0
LINE
  8
寸法
  6
BYBLOCK
 62
     0
 10
-10.331775
 20
59.73238
 11
-10.331775
 21
88.840452
  0
LINE
  8
寸法
  6
BYBLOCK
 62
     0
 10
-36.998442
 20
88.840452
 11
-10.331775
 21
88.840452
  0
POINT
  8
寸法
 62
     0
 10
-10.331775
 20
88.840452
  0
TEXT
  7
TextStyle03
  8
寸法
  6
CONTINUOUS
 62
     0
 10
-26.1125
 20
89.2
  1
800
 40
3.0
 72
     5
 11
-21.2375
 21
89.2
  0
ENDBLK
  0
BLOCK
  2
*DIM_0011
 70
    65
 10
0.0
 20
0.0
  0
LINE
  8
寸法
  6
BYBLOCK
 62
     0
 10
16.33489
 20
59.73238
 11
16.33489
 21
88.840452
  0
LINE
  8
寸法
  6
BYBLOCK
 62
     0
 10
-10.331775
 20
88.840452
 11
16.33489
 21
88.840452
  0
POINT
  8
寸法
 62
     0
 10
16.33489
 20
88.840452
  0
TEXT
  7
TextStyle03
  8
寸法
  6
CONTINUOUS
 62
     0
 10
0.5625
 20
89.2
  1
800
 40
3.0
 72
     5
 11
5.4375
 21
89.2
  0
ENDBLK
  0
BLOCK
  2
*DIM_0012
 70
    65
 10
0.0
 20
0.0
  0
LINE
  8
寸法
  6
CONTINUOUS
 10
113.663985
 20
70.37154
 11
116.980652
 21
70.37154
  0
POINT
  8
寸法
 10
113.663985
 20
70.37154
  0
POINT
  8
寸法
 10
116.980652
 20
70.37154
  0
TEXT
  7
TextStyle03
  8
寸法
  6
CONTINUOUS
 10
111.81875
 20
70.55
  1
99.5
 40
3.0
 72
     5
 11
118.38125
 21
70.55
  0
ENDBLK
  0
BLOCK
  2
*DIM_0013
 70
    65
 10
0.0
 20
0.0
  0
LINE
  8
寸法
  6
CONTINUOUS
 10
34.974098
 20
-77.84055
 11
34.974098
 21
-81.157218
  0
POINT
  8
寸法
 10
34.974098
 20
-77.84055
  0
POINT
  8
寸法
 10
34.974098
 20
-81.157218
  0
TEXT
  7
TextStyle03
  8
寸法
  6
CONTINUOUS
 10
38.125
 20
-82.65625
  1
99.5
 40
3.0
 50
90.0
 72
     5
 11
38.125
 21
-76.09375
  0
ENDBLK
  0
BLOCK
  2
*DIM_0014
 70
    65
 10
0.0
 20
0.0
  0
LINE
  8
寸法
  6
CONTINUOUS
 10
116.421445
 20
-40.57805
 11
78.531445
 21
-40.57805
  0
POINT
  8
寸法
 10
116.421445
 20
-40.57805
  0
POINT
  8
寸法
 10
78.531445
 20
-40.57805
  0
TEXT
  7
TextStyle03
  8
寸法
  6
CONTINUOUS
 10
92.50625
 20
-40.225
  1
1136.7
 40
3.0
 72
     5
 11
102.44375
 21
-40.225
  0
ENDBLK
  0
ENDSEC
  0
SECTION
  2
ENTITIES
  0
POLYLINE
  8
通り芯
  6
CONTINUOUS
 66
     1
 70
     1
  0
VERTEX
  8
通り芯
 10
-210.0
 20
-148.5
  0
VERTEX
  8
通り芯
 10
210.0
 20
-148.5
  0
VERTEX
  8
通り芯
 10
210.0
 20
148.5
  0
VERTEX
  8
通り芯
 10
-210.0
 20
148.5
  0
SEQEND
  0
INSERT
  2
*GRP_0001
  8
型材断面
  6
CONTINUOUS
 10
0.0
 20
0.0
  0
LINE
  8
型材断面
  6
DASHDOT
 10
21.33489
 20
-87.251428
 11
21.33489
 21
56.73238
  0
LINE
  8
型材断面
  6
DASHDOT
 10
-36.998442
 20
-87.251428
 11
-36.998442
 21
56.73238
  0
LINE
  8
型材断面
  6
DASHDOT
 10
-95.331778
 20
-87.251428
 11
-95.331778
 21
56.73238
  0
LINE
  8
型材断面
  6
CONTINUOUS
 10
-97.961907
 20
35.065715
 11
-100.552415
 21
36.561345
  0
LINE
  8
型材断面
  6
CONTINUOUS
 10
-97.961907
 20
35.065715
 11
-100.552415
 21
33.570085
  0
LINE
  8
型材断面
  6
CONTINUOUS
 10
-100.552415
 20
33.570085
 11
-100.552415
 21
36.561345
  0
LINE
  8
型材断面
  6
CONTINUOUS
 10
-78.66511
 20
59.36251
 11
-80.16074
 21
61.953017
  0
LINE
  8
型材断面
  6
CONTINUOUS
 10
-78.66511
 20
59.36251
 11
-77.16948
 21
61.953017
  0
LINE
  8
型材断面
  6
CONTINUOUS
 10
-77.16948
 20
61.953017
 11
-80.16074
 21
61.953017
  0
LINE
  8
型材断面
  6
CONTINUOUS
 10
-136.183985
 20
101.239727
 11
-137.679615
 21
98.64922
  0
LINE
  8
型材断面
  6
CONTINUOUS
 10
-136.183985
 20
101.239727
 11
-134.688355
 21
98.64922
  0
LINE
  8
型材断面
  6
CONTINUOUS
 10
-134.688355
 20
98.64922
 11
-137.679615
 21
98.64922
  0
LINE
  8
型材断面
  6
CONTINUOUS
 10
-142.206573
 20
97.710625
 11
-95.964795
 21
97.710625
  0
LINE
  8
型材断面
  6
CONTINUOUS
 10
-78.66511
 20
10.76892
 11
-80.16074
 21
8.178413
  0
LINE
  8
型材断面
  6
CONTINUOUS
 10
-78.66511
 20
10.76892
 11
-77.16948
 21
8.178413
  0
LINE
  8
型材断面
  6
CONTINUOUS
 10
-77.16948
 20
8.178413
 11
-80.16074
 21
8.178413
  0
LINE
  8
型材断面
  6
CONTINUOUS
 10
23.965022
 20
35.065715
 11
26.55553
 21
36.561345
  0
LINE
  8
型材断面
  6
CONTINUOUS
 10
23.965022
 20
35.065715
 11
26.55553
 21
33.570085
  0
LINE
  8
型材断面
  6
CONTINUOUS
 10
26.55553
 20
33.570085
 11
26.55553
 21
36.561345
  0
LINE
  8
型材断面
  6
CONTINUOUS
 10
4.668225
 20
59.36251
 11
6.163855
 21
61.953017
  0
LINE
  8
型材断面
  6
CONTINUOUS
 10
4.668225
 20
59.36251
 11
3.172595
 21
61.953017
  0
LINE
  8
型材断面
  6
CONTINUOUS
 10
3.172595
 20
61.953017
 11
6.163855
 21
61.953017
  0
LINE
  8
型材断面
  6
CONTINUOUS
 10
4.668225
 20
10.76892
 11
6.163855
 21
8.178413
  0
LINE
  8
型材断面
  6
CONTINUOUS
 10
4.668225
 20
10.76892
 11
3.172595
 21
8.178413
  0
LINE
  8
型材断面
  6
CONTINUOUS
 10
3.172595
 20
8.178413
 11
6.163855
 21
8.178413
  0
LINE
  8
型材断面
  6
CONTINUOUS
 10
-142.206573
 20
91.635752
 11
-95.964795
 21
91.635752
  0
LINE
  8
型材断面
  6
CONTINUOUS
 10
-98.331825
 20
10.399007
 11
-36.998442
 21
10.399007
  0
LINE
  8
型材断面
  6
CONTINUOUS
 10
-98.331825
 20
59.732423
 11
-36.998442
 21
59.732423
  0
LINE
  8
型材断面
  6
CONTINUOUS
 10
24.33494
 20
59.732423
 11
-36.998442
 21
59.732423
  0
LINE
  8
型材断面
  6
CONTINUOUS
 10
24.33494
 20
10.399007
 11
-36.998442
 21
10.399007
  0
CIRCLE
  8
型材断面
  6
CONTINUOUS
 62
    47
 10
116.480655
 20
59.732323
 40
0.011113
  0
LINE
  8
型材断面
  6
CONTINUOUS
 62
    47
 10
116.980652
 20
59.232332
 11
116.980652
 21
59.732323
  0
LINE
  8
型材断面
  6
CONTINUOUS
 62
    47
 10
116.980652
 20
59.732323
 11
116.480655
 21
59.732323
  0
LINE
  8
型材断面
  6
CONTINUOUS
 62
    47
 10
116.480655
 20
59.732323
 11
115.983475
 21
56.798992
  0
LINE
  8
型材断面
  6
CONTINUOUS
 62
    47
 10
116.980652
 20
59.232332
 11
117.480652
 21
59.232332
  0
LINE
  8
型材断面
  6
CONTINUOUS
 62
    47
 10
115.983475
 20
56.798992
 11
115.330653
 21
56.798992
  0
CIRCLE
  8
型材断面
  6
CONTINUOUS
 62
    47
 10
116.480655
 20
10.399007
 40
0.011113
  0
LINE
  8
型材断面
  6
CONTINUOUS
 62
    47
 10
116.980652
 20
10.898998
 11
116.980652
 21
10.399007
  0
LINE
  8
型材断面
  6
CONTINUOUS
 62
    47
 10
116.980652
 20
10.399007
 11
116.480655
 21
10.399007
  0
LINE
  8
型材断面
  6
CONTINUOUS
 62
    47
 10
116.480655
 20
10.399007
 11
115.983475
 21
13.332337
  0
LINE
  8
型材断面
  6
CONTINUOUS
 62
    47
 10
116.980652
 20
10.898998
 11
117.480652
 21
10.898998
  0
LINE
  8
型材断面
  6
CONTINUOUS
 62
    47
 10
115.983475
 20
13.332337
 11
115.330653
 21
13.332337
  0
LINE
  8
型材断面
  6
CONTINUOUS
 62
    47
 10
113.830653
 20
11.752537
 11
113.830653
 21
35.065665
  0
LINE
  8
型材断面
  6
CONTINUOUS
 62
    47
 10
113.663985
 20
11.909058
 11
113.663985
 21
35.065665
  0
LINE
  8
型材断面
  6
CONTINUOUS
 62
    47
 10
115.330653
 20
11.909058
 11
115.330653
 21
35.065665
  0
LINE
  8
型材断面
  6
CONTINUOUS
 10
115.983475
 20
13.332285
 11
115.983475
 21
35.065665
  0
LINE
  8
型材断面
  6
CONTINUOUS
 10
116.480658
 20
10.398953
 11
116.480658
 21
35.065665
  0
LINE
  8
型材断面
  6
CONTINUOUS
 62
    47
 10
116.980652
 20
10.398953
 11
116.980652
 21
35.065665
  0
LINE
  8
型材断面
  6
CONTINUOUS
 10
117.480652
 20
10.898942
 11
117.480652
 21
35.065665
  0
LINE
  8
型材断面
  6
CONTINUOUS
 62
    47
 10
116.980652
 20
59.732378
 11
116.980652
 21
35.065665
  0
LINE
  8
型材断面
  6
CONTINUOUS
 10
115.983475
 20
56.799045
 11
115.983475
 21
35.065665
  0
LINE
  8
型材断面
  6
CONTINUOUS
 62
    47
 10
113.830653
 20
58.378793
 11
113.830653
 21
35.065665
  0
LINE
  8
型材断面
  6
CONTINUOUS
 62
    47
 10
113.663985
 20
58.222272
 11
113.663985
 21
35.065665
  0
LINE
  8
型材断面
  6
CONTINUOUS
 62
    47
 10
115.330653
 20
58.222272
 11
115.330653
 21
35.065665
  0
LINE
  8
型材断面
  6
CONTINUOUS
 10
116.480658
 20
59.732378
 11
116.480658
 21
35.065665
  0
LINE
  8
型材断面
  6
CONTINUOUS
 10
117.480652
 20
59.232388
 11
117.480652
 21
35.065665
  0
LINE
  8
型材断面
  6
DASHDOT
 10
-95.331778
 20
35.065715
 11
124.456662
 21
35.065715
  0
CIRCLE
  8
型材断面
  6
CONTINUOUS
 62
    47
 10
-98.331768
 20
-80.65722
 40
0.011113
  0
LINE
  8
型材断面
  6
CONTINUOUS
 62
    47
 10
-97.831778
 20
-81.157218
 11
-98.331768
 21
-81.157218
  0
LINE
  8
型材断面
  6
CONTINUOUS
 62
    47
 10
-98.331768
 20
-81.157218
 11
-98.331768
 21
-80.65722
  0
LINE
  8
型材断面
  6
CONTINUOUS
 62
    47
 10
-98.331768
 20
-80.65722
 11
-95.398438
 21
-80.16004
  0
LINE
  8
型材断面
  6
CONTINUOUS
 62
    47
 10
-97.831778
 20
-81.157218
 11
-97.831778
 21
-81.657218
  0
LINE
  8
型材断面
  6
CONTINUOUS
 62
    47
 10
-95.398438
 20
-80.16004
 11
-95.398438
 21
-79.507218
  0
CIRCLE
  8
型材断面
  6
CONTINUOUS
 62
    47
 10
24.334882
 20
-80.65722
 40
0.011113
  0
LINE
  8
型材断面
  6
CONTINUOUS
 62
    47
 10
23.83489
 20
-81.157218
 11
24.334882
 21
-81.157218
  0
LINE
  8
型材断面
  6
CONTINUOUS
 62
    47
 10
24.334882
 20
-81.157218
 11
24.334882
 21
-80.65722
  0
LINE
  8
型材断面
  6
CONTINUOUS
 62
    47
 10
24.334882
 20
-80.65722
 11
21.40155
 21
-80.16004
  0
LINE
  8
型材断面
  6
CONTINUOUS
 62
    47
 10
23.83489
 20
-81.157218
 11
23.83489
 21
-81.657218
  0
LINE
  8
型材断面
  6
CONTINUOUS
 62
    47
 10
21.40155
 20
-80.16004
 11
21.40155
 21
-79.507218
  0
LINE
  8
型材断面
  6
CONTINUOUS
 10
-95.39849
 20
-80.16004
 11
-36.998442
 21
-80.16004
  0
LINE
  8
型材断面
  6
CONTINUOUS
 10
-98.331823
 20
-80.657222
 11
-36.998442
 21
-80.657222
  0
LINE
  8
型材断面
  6
CONTINUOUS
 62
    47
 10
-96.821717
 20
-77.84055
 11
-36.998442
 21
-77.84055
  0
LINE
  8
型材断面
  6
CONTINUOUS
 62
    47
 10
-96.978237
 20
-78.007218
 11
-36.998442
 21
-78.007218
  0
LINE
  8
型材断面
  6
CONTINUOUS
 62
    47
 10
-96.821717
 20
-79.507218
 11
-36.998442
 21
-79.507218
  0
LINE
  8
型材断面
  6
CONTINUOUS
 62
    47
 10
-98.331823
 20
-81.157218
 11
-36.998442
 21
-81.157218
  0
LINE
  8
型材断面
  6
CONTINUOUS
 10
-97.831833
 20
-81.657218
 11
-36.998442
 21
-81.657218
  0
LINE
  8
型材断面
  6
CONTINUOUS
 62
    47
 10
24.334935
 20
-81.157218
 11
-36.998442
 21
-81.157218
  0
LINE
  8
型材断面
  6
CONTINUOUS
 10
24.334935
 20
-80.657222
 11
-36.998442
 21
-80.657222
  0
LINE
  8
型材断面
  6
CONTINUOUS
 62
    47
 10
22.82483
 20
-79.507218
 11
-36.998442
 21
-79.507218
  0
LINE
  8
型材断面
  6
CONTINUOUS
 10
21.401603
 20
-80.16004
 11
-36.998442
 21
-80.16004
  0
LINE
  8
型材断面
  6
CONTINUOUS
 62
    47
 10
22.82483
 20
-77.84055
 11
-36.998442
 21
-77.84055
  0
LINE
  8
型材断面
  6
CONTINUOUS
 62
    47
 10
22.981352
 20
-78.007218
 11
-36.998442
 21
-78.007218
  0
LINE
  8
型材断面
  6
CONTINUOUS
 10
23.834945
 20
-81.657218
 11
-36.998442
 21
-81.657218
  0
LINE
  8
型材断面
  6
DASHDOT
 10
124.456662
 20
56.732332
 11
-95.331778
 21
56.732332
  0
LINE
  8
型材断面
  6
DASHDOT
 10
124.456662
 20
13.398998
 11
-95.331778
 21
13.398998
  0
LINE
  8
型材断面
  6
DASHDOT
 10
-56.52511
 20
13.399048
 11
-56.52511
 21
56.73238
  0
LINE
  8
型材断面
  6
DASHDOT
 10
-17.471775
 20
13.399048
 11
-17.471775
 21
56.73238
  0
LINE
  8
型材断面
  6
CONTINUOUS
 10
-36.581775
 20
14.252537
 11
1.51489
 21
14.252537
  0
LINE
  8
型材断面
  6
CONTINUOUS
 10
-36.581775
 20
55.878893
 11
1.51489
 21
55.878893
  0
LINE
  8
型材断面
  6
CONTINUOUS
 10
-75.511775
 20
55.878893
 11
-37.41511
 21
55.878893
  0
LINE
  8
型材断面
  6
CONTINUOUS
 10
-75.511775
 20
14.252537
 11
-37.41511
 21
14.252537
  0
LINE
  8
型材断面
  6
CONTINUOUS
 10
-16.221775
 20
15.08587
 11
-16.221775
 21
55.04556
  0
LINE
  8
型材断面
  6
CONTINUOUS
 10
-18.721775
 20
15.08587
 11
-18.721775
 21
55.04556
  0
LINE
  8
型材断面
  6
CONTINUOUS
 10
-55.27511
 20
15.08587
 11
-55.27511
 21
55.04556
  0
LINE
  8
型材断面
  6
CONTINUOUS
 10
-57.77511
 20
15.08587
 11
-57.77511
 21
55.04556
  0
LINE
  8
型材断面
  6
CONTINUOUS
 10
24.334937
 20
35.06571
 11
24.334937
 21
59.732423
  0
LINE
  8
型材断面
  6
CONTINUOUS
 10
24.334937
 20
35.06572
 11
24.334937
 21
10.399007
  0
LINE
  8
型材断面
  6
CONTINUOUS
 10
22.745652
 20
11.752537
 11
22.981352
 21
11.988237
  0
LINE
  8
型材断面
  6
CONTINUOUS
 10
24.334937
 20
10.399007
 11
22.86353
 21
11.870415
  0
LINE
  8
型材断面
  6
CONTINUOUS
 10
22.981352
 20
11.988237
 11
20.481352
 21
14.488237
  0
LINE
  8
型材断面
  6
CONTINUOUS
 10
22.745652
 20
11.752537
 11
20.245652
 21
14.252537
  0
LINE
  8
型材断面
  6
CONTINUOUS
 10
20.245652
 20
14.252537
 11
20.481352
 21
14.488237
  0
LINE
  8
型材断面
  6
CONTINUOUS
 10
20.481352
 20
34.649048
 11
20.481352
 21
14.488237
  0
LINE
  8
型材断面
  6
CONTINUOUS
 10
22.745652
 20
58.378893
 11
22.981352
 21
58.143193
  0
LINE
  8
型材断面
  6
CONTINUOUS
 10
24.334937
 20
59.732423
 11
22.86353
 21
58.261015
  0
LINE
  8
型材断面
  6
CONTINUOUS
 10
22.745652
 20
58.378893
 11
20.245652
 21
55.878893
  0
LINE
  8
型材断面
  6
CONTINUOUS
 10
20.245652
 20
55.878893
 11
20.481352
 21
55.643193
  0
LINE
  8
型材断面
  6
CONTINUOUS
 10
20.481352
 20
55.643193
 11
22.981352
 21
58.143193
  0
LINE
  8
型材断面
  6
CONTINUOUS
 10
22.981352
 20
11.988237
 11
22.981352
 21
58.143193
  0
LINE
  8
型材断面
  6
CONTINUOUS
 10
20.481352
 20
35.482382
 11
20.481352
 21
55.643193
  0
LINE
  8
型材断面
  6
CONTINUOUS
 10
-98.331823
 20
35.06571
 11
-98.331823
 21
59.732423
  0
LINE
  8
型材断面
  6
CONTINUOUS
 10
-98.331823
 20
35.06572
 11
-98.331823
 21
10.399007
  0
LINE
  8
型材断面
  6
CONTINUOUS
 10
-96.742537
 20
11.752537
 11
-96.978237
 21
11.988237
  0
LINE
  8
型材断面
  6
CONTINUOUS
 10
-98.331823
 20
10.399007
 11
-96.860415
 21
11.870415
  0
LINE
  8
型材断面
  6
CONTINUOUS
 10
-96.978237
 20
11.988237
 11
-94.478237
 21
14.488237
  0
LINE
  8
型材断面
  6
CONTINUOUS
 10
-96.742537
 20
11.752537
 11
-94.242537
 21
14.252537
  0
LINE
  8
型材断面
  6
CONTINUOUS
 10
-94.242537
 20
14.252537
 11
-94.478237
 21
14.488237
  0
LINE
  8
型材断面
  6
CONTINUOUS
 10
-94.478237
 20
34.649048
 11
-94.478237
 21
14.488237
  0
LINE
  8
型材断面
  6
CONTINUOUS
 10
-96.742537
 20
58.378893
 11
-96.978237
 21
58.143193
  0
LINE
  8
型材断面
  6
CONTINUOUS
 10
-98.331823
 20
59.732423
 11
-96.860415
 21
58.261015
  0
LINE
  8
型材断面
  6
CONTINUOUS
 10
-96.742537
 20
58.378893
 11
-94.242537
 21
55.878893
  0
LINE
  8
型材断面
  6
CONTINUOUS
 10
-94.242537
 20
55.878893
 11
-94.478237
 21
55.643193
  0
LINE
  8
型材断面
  6
CONTINUOUS
 10
-94.478237
 20
55.643193
 11
-96.978237
 21
58.143193
  0
LINE
  8
型材断面
  6
CONTINUOUS
 10
-96.978237
 20
11.988237
 11
-96.978237
 21
58.143193
  0
LINE
  8
型材断面
  6
CONTINUOUS
 10
-94.478237
 20
35.482382
 11
-94.478237
 21
55.643193
  0
LINE
  8
型材断面
  6
CONTINUOUS
 10
2.348225
 20
14.252537
 11
20.245652
 21
14.252537
  0
LINE
  8
型材断面
  6
CONTINUOUS
 10
2.348225
 20
55.878893
 11
20.245652
 21
55.878893
  0
LINE
  8
型材断面
  6
CONTINUOUS
 10
-76.34511
 20
55.878893
 11
-94.242537
 21
55.878893
  0
LINE
  8
型材断面
  6
CONTINUOUS
 10
22.745652
 20
58.378893
 11
-96.742537
 21
58.378893
  0
LINE
  8
型材断面
  6
CONTINUOUS
 10
-76.34511
 20
14.252537
 11
-94.242537
 21
14.252537
  0
LINE
  8
型材断面
  6
CONTINUOUS
 10
22.745652
 20
11.752537
 11
-96.742537
 21
11.752537
  0
TEXT
  7
TextStyle03
  8
文字
  6
CONTINUOUS
 10
-133.4
 20
98.85
  1
は排水穴位置を示す
 40
3.0
 72
     5
 11
-103.4
 21
98.85
  0
TEXT
  7
TextStyle03
  8
文字
  6
CONTINUOUS
 10
61.225
 20
104.525
  1
ＮＳコード：ＮＳＦＫＺ
 40
5.0
 72
     5
 11
122.475
 21
104.525
  0
TEXT
  7
TextStyle03
  8
文字
  6
CONTINUOUS
 10
97.9
 20
-86.1
  1
網入り6.8t
 40
3.0
 72
     5
 11
114.5875
 21
-86.1
  0
TEXT
  7
TextStyle03
  8
文字
  6
CONTINUOUS
 10
104.575
 20
-90.775
  1
×３枚
 40
3.0
 72
     5
 11
114.325
 21
-90.775
  0
TEXT
  7
TextStyle03
  8
文字
  6
CONTINUOUS
 10
-132.825
 20
23.975
  1
アンカーピッチ
 40
3.0
 50
90.0
 72
     5
 11
-132.825
 21
47.225
  0
TEXT
  7
TextStyle03
  8
文字
  6
CONTINUOUS
 10
-84.175
 20
93.675
  1
アンカーピッチ
 40
3.0
 72
     5
 11
-60.925
 21
93.675
  0
TEXT
  7
TextStyle03
  8
文字
  6
CONTINUOUS
 10
-137.125
 20
92.55
  1
アンカー数量　１４ヶ所
 40
3.0
 72
     5
 11
-100.375
 21
92.55
  0
LINE
  8
文字
  6
CONTINUOUS
 10
113.663985
 20
70.37154
 11
113.663985
 21
61.018383
  0
LINE
  8
文字
  6
CONTINUOUS
 10
116.980652
 20
70.37154
 11
116.980652
 21
61.083737
  0
LINE
  8
文字
  6
CONTINUOUS
 10
34.974098
 20
-77.84055
 11
25.620942
 21
-77.84055
  0
LINE
  8
文字
  6
CONTINUOUS
 10
34.974098
 20
-81.157218
 11
25.686295
 21
-81.157218
  0
LINE
  8
文字
  6
CONTINUOUS
 10
116.421445
 20
-40.57805
 11
116.421445
 21
-47.872828
  0
LINE
  8
文字
  6
CONTINUOUS
 10
78.531445
 20
-40.57805
 11
78.531445
 21
-47.872828
  0
TEXT
  7
TextStyle03
  8
文字
  6
CONTINUOUS
 10
61.075
 20
125.25
  1
シリーズ：ＴＦ２ＦＫＬ
 40
5.0
 72
     5
 11
122.325
 21
125.25
  0
TEXT
  7
TextStyle03
  8
文字
  6
CONTINUOUS
 10
61.075
 20
119.625
  1
　　　　　（固定）1300×3500タイプ
 40
5.0
 72
     5
 11
156.075
 21
119.625
  0
TEXT
  7
TextStyle03
  8
文字
  6
CONTINUOUS
 10
61.075
 20
114.0
  1
図面名　：外観姿図
 40
5.0
 72
     5
 11
111.075
 21
114.0
  0
TEXT
  7
TextStyle03
  8
文字
  6
CONTINUOUS
 10
61.075
 20
108.375
  1
　　　　　　
 40
5.0
 72
     5
 11
94.2
 21
108.375
  0
LINE
  8
文字
  6
CONTINUOUS
 10
2.348225
 20
14.252537
 11
2.348225
 21
11.752537
  0
LINE
  8
文字
  6
CONTINUOUS
 10
1.51489
 20
14.252537
 11
1.51489
 21
11.752537
  0
LINE
  8
文字
  6
CONTINUOUS
 10
-36.581775
 20
14.252537
 11
-36.581775
 21
11.752537
  0
LINE
  8
文字
  6
CONTINUOUS
 10
-37.41511
 20
14.252537
 11
-37.41511
 21
11.752537
  0
LINE
  8
文字
  6
CONTINUOUS
 10
-76.34511
 20
14.252537
 11
-76.34511
 21
11.752537
  0
LINE
  8
文字
  6
CONTINUOUS
 10
-75.511775
 20
14.252537
 11
-75.511775
 21
11.752537
  0
LINE
  8
文字
  6
CONTINUOUS
 10
2.348225
 20
55.878893
 11
2.348225
 21
58.378893
  0
LINE
  8
文字
  6
CONTINUOUS
 10
1.51489
 20
55.878893
 11
1.51489
 21
58.378893
  0
LINE
  8
文字
  6
CONTINUOUS
 10
-36.581775
 20
55.878893
 11
-36.581775
 21
58.378893
  0
LINE
  8
文字
  6
CONTINUOUS
 10
-37.41511
 20
55.878893
 11
-37.41511
 21
58.378893
  0
LINE
  8
文字
  6
CONTINUOUS
 10
-76.34511
 20
55.878893
 11
-76.34511
 21
58.378893
  0
LINE
  8
文字
  6
CONTINUOUS
 10
-75.511775
 20
55.878893
 11
-75.511775
 21
58.378893
  0
LINE
  8
文字
  6
CONTINUOUS
 10
-16.221775
 20
15.08587
 11
-18.721775
 21
15.08587
  0
LINE
  8
文字
  6
CONTINUOUS
 10
-16.221775
 20
55.04556
 11
-18.721775
 21
55.04556
  0
LINE
  8
文字
  6
CONTINUOUS
 10
-55.27511
 20
15.08587
 11
-57.77511
 21
15.08587
  0
LINE
  8
文字
  6
CONTINUOUS
 10
-55.27511
 20
55.04556
 11
-57.77511
 21
55.04556
  0
LINE
  8
文字
  6
CONTINUOUS
 10
20.481352
 20
34.649048
 11
22.981352
 21
34.649048
  0
LINE
  8
文字
  6
CONTINUOUS
 10
20.481352
 20
35.482382
 11
22.981352
 21
35.482382
  0
LINE
  8
文字
  6
CONTINUOUS
 10
-94.478237
 20
34.649048
 11
-96.978237
 21
34.649048
  0
LINE
  8
文字
  6
CONTINUOUS
 10
-94.478237
 20
35.482382
 11
-96.978237
 21
35.482382
  0
INSERT
  2
*DIM_0002
  8
寸法
  6
CONTINUOUS
 10
0.0
 20
0.0
  0
INSERT
  2
*DIM_0003
  8
寸法
  6
CONTINUOUS
 10
0.0
 20
0.0
  0
INSERT
  2
*DIM_0004
  8
寸法
  6
CONTINUOUS
 10
0.0
 20
0.0
  0
INSERT
  2
*DIM_0005
  8
寸法
  6
CONTINUOUS
 10
0.0
 20
0.0
  0
INSERT
  2
*DIM_0006
  8
寸法
  6
CONTINUOUS
 10
0.0
 20
0.0
  0
INSERT
  2
*DIM_0007
  8
寸法
  6
CONTINUOUS
 10
0.0
 20
0.0
  0
INSERT
  2
*DIM_0008
  8
寸法
  6
CONTINUOUS
 10
0.0
 20
0.0
  0
INSERT
  2
*DIM_0009
  8
寸法
  6
CONTINUOUS
 10
0.0
 20
0.0
  0
INSERT
  2
*DIM_0010
  8
寸法
  6
CONTINUOUS
 10
0.0
 20
0.0
  0
INSERT
  2
*DIM_0011
  8
寸法
  6
CONTINUOUS
 10
0.0
 20
0.0
  0
INSERT
  2
*DIM_0012
  8
寸法
  6
CONTINUOUS
 10
0.0
 20
0.0
  0
INSERT
  2
*DIM_0013
  8
寸法
  6
CONTINUOUS
 10
0.0
 20
0.0
  0
INSERT
  2
*DIM_0014
  8
寸法
  6
CONTINUOUS
 10
0.0
 20
0.0
  0
LINE
  8
別途部材
  6
CONTINUOUS
 62
    47
 10
113.763985
 20
58.378793
 11
113.830653
 21
58.378793
  0
ARC
  8
別途部材
  6
CONTINUOUS
 62
    47
 10
113.763981
 20
58.278794
 40
0.1
 50
90.0
 51
180.0
  0
LINE
  8
別途部材
  6
CONTINUOUS
 62
    47
 10
113.663985
 20
58.278793
 11
113.663985
 21
58.222272
  0
LINE
  8
別途部材
  6
CONTINUOUS
 62
    47
 10
115.330653
 20
58.222272
 11
113.830653
 21
58.222272
  0
LINE
  8
別途部材
  6
CONTINUOUS
 62
    47
 10
113.763985
 20
11.752537
 11
113.830653
 21
11.752537
  0
ARC
  8
別途部材
  6
CONTINUOUS
 62
    47
 10
113.763981
 20
11.852536
 40
0.1
 50
180.0
 51
270.0
  0
LINE
  8
別途部材
  6
CONTINUOUS
 62
    47
 10
113.663985
 20
11.852537
 11
113.663985
 21
11.909058
  0
LINE
  8
別途部材
  6
CONTINUOUS
 62
    47
 10
115.330653
 20
11.909058
 11
113.830653
 21
11.909058
  0
LINE
  8
別途部材
  6
CONTINUOUS
 62
    47
 10
-96.978237
 20
-77.94055
 11
-96.978237
 21
-78.007218
  0
ARC
  8
別途部材
  6
CONTINUOUS
 62
    47
 10
-96.878239
 20
-77.940547
 40
0.1
 50
90.0
 51
180.0
  0
LINE
  8
別途部材
  6
CONTINUOUS
 62
    47
 10
-96.878237
 20
-77.84055
 11
-96.821717
 21
-77.84055
  0
LINE
  8
別途部材
  6
CONTINUOUS
 62
    47
 10
-96.821717
 20
-79.507218
 11
-96.821717
 21
-78.007218
  0
LINE
  8
別途部材
  6
CONTINUOUS
 62
    47
 10
22.981352
 20
-77.94055
 11
22.981352
 21
-78.007218
  0
ARC
  8
別途部材
  6
CONTINUOUS
 62
    47
 10
22.881351
 20
-77.940547
 40
0.1
 50
0.0
 51
90.0
  0
LINE
  8
別途部材
  6
CONTINUOUS
 62
    47
 10
22.881352
 20
-77.84055
 11
22.82483
 21
-77.84055
  0
LINE
  8
別途部材
  6
CONTINUOUS
 62
    47
 10
22.82483
 20
-79.507218
 11
22.82483
 21
-78.007218
  0
LINE
  8
曲げ物
  6
CONTINUOUS
 10
6.06062
 20
37.022003
 11
2.365308
 21
33.32669
  0
LINE
  8
曲げ物
  6
CONTINUOUS
 10
5.35715
 20
35.485893
 11
3.90142
 21
34.030163
  0
LINE
  8
曲げ物
  6
CONTINUOUS
 10
4.52451
 20
36.318533
 11
3.06878
 21
34.862803
  0
LINE
  8
曲げ物
  6
CONTINUOUS
 10
-35.178425
 20
37.022003
 11
-38.873737
 21
33.32669
  0
LINE
  8
曲げ物
  6
CONTINUOUS
 10
-35.881895
 20
35.485893
 11
-37.337625
 21
34.030163
  0
LINE
  8
曲げ物
  6
CONTINUOUS
 10
-36.714535
 20
36.318533
 11
-38.170265
 21
34.862803
  0
LINE
  8
曲げ物
  6
CONTINUOUS
 10
-73.979577
 20
37.022003
 11
-77.67489
 21
33.32669
  0
LINE
  8
曲げ物
  6
CONTINUOUS
 10
-74.683047
 20
35.485893
 11
-76.138778
 21
34.030163
  0
LINE
  8
曲げ物
  6
CONTINUOUS
 10
-75.515687
 20
36.318533
 11
-76.971418
 21
34.862803
  0
LINE
  8
曲げ物
  6
CONTINUOUS
 10
116.421445
 20
-92.533713
 11
116.421445
 21
-49.867045
  0
LINE
  8
曲げ物
  6
CONTINUOUS
 10
78.531445
 20
-92.533713
 11
78.531445
 21
-49.867045
  0
LINE
  8
曲げ物
  6
CONTINUOUS
 10
116.421445
 20
-49.867045
 11
78.531445
 21
-49.867045
  0
LINE
  8
曲げ物
  6
CONTINUOUS
 10
116.421445
 20
-92.533713
 11
78.531445
 21
-92.533713
  0
CIRCLE
  8
LAYER010
  6
CONTINUOUS
 62
    47
 10
116.480655
 20
59.732323
 40
0.011113
  0
CIRCLE
  8
LAYER010
  6
CONTINUOUS
 62
    47
 10
116.480655
 20
10.399007
 40
0.011113
  0
CIRCLE
  8
LAYER010
  6
CONTINUOUS
 62
    47
 10
-98.331768
 20
-80.65722
 40
0.011113
  0
CIRCLE
  8
LAYER010
  6
CONTINUOUS
 62
    47
 10
24.334882
 20
-80.65722
 40
0.011113
  0
ENDSEC
  0
EOF
