  0
SECTION
  2
HEADER
  9
$EXTMIN
 10
-210.0
 20
-148.5
  9
$EXTMAX
 10
210.0
 20
148.5
  9
$PDMODE
 70
    32
  9
$PDSIZE
 40
1.5
  9
$LTSCALE
 40
10.0
  0
ENDSEC
  0
SECTION
  2
TABLES
  0
TABLE
  2
LTYPE
 70
    15
  0
LTYPE
  2
CONTINUOUS
 70
    64
  3
実線
 72
    65
 73
     0
 40
0.0
  0
LTYPE
  2
DASHED
 70
    64
  3
破線A
 72
    65
 73
     2
 40
0.6
 49
0.4
 49
-0.2
  0
LTYPE
  2
DASHEDX2
 70
    64
  3
破線B
 72
    65
 73
     2
 40
1.3
 49
0.9
 49
-0.4
  0
LTYPE
  2
DASHDOT
 70
    64
  3
１点鎖線A
 72
    65
 73
     4
 40
0.5375
 49
0.375
 49
-0.05
 49
0.0625
 49
-0.05
  0
LTYPE
  2
DASHDOTX2
 70
    64
  3
１点鎖線B
 72
    65
 73
     4
 40
1.075
 49
0.75
 49
-0.1
 49
0.125
 49
-0.1
  0
LTYPE
  2
DIVIDE2
 70
    64
  3
２点鎖線A
 72
    65
 73
     6
 40
0.5125
 49
0.3
 49
-0.0375
 49
0.05
 49
-0.0375
 49
0.05
 49
-0.0375
  0
LTYPE
  2
DIVIDE
 70
    64
  3
２点鎖線B
 72
    65
 73
     6
 40
1.05
 49
0.55
 49
-0.1
 49
0.1
 49
-0.1
 49
0.1
 49
-0.1
  0
LTYPE
  2
DOT
 70
    64
  3
点線A
 72
    65
 73
     2
 40
0.1125
 49
0.0625
 49
-0.05
  0
LTYPE
  2
DOTX2
 70
    64
  3
点線B
 72
    65
 73
     2
 40
0.275
 49
0.15
 49
-0.125
  0
LTYPE
  2
CONTINUOUS
 70
    64
  3
実線
 72
    65
 73
     0
 40
0.0
  0
LTYPE
  2
CONTINUOUS
 70
    64
  3
実線
 72
    65
 73
     0
 40
0.0
  0
LTYPE
  2
CONTINUOUS
 70
    64
  3
実線
 72
    65
 73
     0
 40
0.0
  0
LTYPE
  2
CONTINUOUS
 70
    64
  3
実線
 72
    65
 73
     0
 40
0.0
  0
LTYPE
  2
CONTINUOUS
 70
    64
  3
実線
 72
    65
 73
     0
 40
0.0
  0
LTYPE
  2
CONTINUOUS
 70
    64
  3
実線
 72
    65
 73
     0
 40
0.0
  0
ENDTAB
  0
TABLE
  2
LAYER
 70
    35
  0
LAYER
  2
通り芯
 70
     0
 62
    15
  6
CONTINUOUS
  0
LAYER
  2
補助線
 70
     0
 62
    16
  6
DOT
  0
LAYER
  2
躯体
 70
     0
 62
    31
  6
CONTINUOUS
  0
LAYER
  2
型材
 70
     0
 62
    32
  6
CONTINUOUS
  0
LAYER
  2
型材断面
 70
     0
 62
    47
  6
CONTINUOUS
  0
LAYER
  2
ガラス
 70
     0
 62
    48
  6
CONTINUOUS
  0
LAYER
  2
ゴム等
 70
     0
 62
    63
  6
CONTINUOUS
  0
LAYER
  2
ボルト／ビス
 70
     0
 62
    64
  6
CONTINUOUS
  0
LAYER
  2
文字
 70
     0
 62
    79
  6
CONTINUOUS
  0
LAYER
  2
寸法
 70
     0
 62
    80
  6
CONTINUOUS
  0
LAYER
  2
ﾊｯﾁﾝｸﾞ
 70
     0
 62
    95
  6
CONTINUOUS
  0
LAYER
  2
別途部材
 70
     0
 62
    96
  6
CONTINUOUS
  0
LAYER
  2
曲げ物
 70
     0
 62
   111
  6
CONTINUOUS
  0
LAYER
  2
鉄骨等
 70
     0
 62
   112
  6
CONTINUOUS
  0
LAYER
  2
St
 70
     0
 62
   127
  6
CONTINUOUS
  0
LAYER
  2
その他部品等
 70
     0
 62
   128
  6
CONTINUOUS
  0
LAYER
  2
ｶﾞｽｹｯﾄ
 70
     0
 62
   143
  6
CONTINUOUS
  0
LAYER
  2
ｽｹｯﾁ
 70
     0
 62
    14
  6
CONTINUOUS
  0
LAYER
  2
0
 70
     0
 62
    17
  6
CONTINUOUS
  0
LAYER
  2
1
 70
     0
 62
    30
  6
CONTINUOUS
  0
LAYER
  2
4
 70
     0
 62
    33
  6
CONTINUOUS
  0
LAYER
  2
ﾚｲﾔ3
 70
     0
 62
    46
  6
CONTINUOUS
  0
LAYER
  2
外形線
 70
     0
 62
    49
  6
CONTINUOUS
  0
LAYER
  2
部品
 70
     0
 62
    14
  6
CONTINUOUS
  0
LAYER
  2
サッシ芯
 70
     0
 62
    17
  6
DASHDOTX2
  0
LAYER
  2
寸法線
 70
     0
 62
    62
  6
CONTINUOUS
  0
LAYER
  2
姿図外形線
 70
     0
 62
    65
  6
CONTINUOUS
  0
LAYER
  2
姿補助線
 70
     0
 62
    30
  6
CONTINUOUS
  0
LAYER
  2
透視線
 70
     0
 62
    78
  6
DOT
  0
LAYER
  2
用紙
 70
     0
 62
    81
  6
CONTINUOUS
  0
LAYER
  2
実線図枠
 70
     0
 62
    94
  6
CONTINUOUS
  0
LAYER
  2
補助図枠
 70
     0
 62
    97
  6
CONTINUOUS
  0
LAYER
  2
建具記号
 70
     0
 62
   110
  6
CONTINUOUS
  0
LAYER
  2
補助文字
 70
     0
 62
   113
  6
CONTINUOUS
  0
LAYER
  2
LAYER010
 70
     0
 62
    11
  6
CONTINUOUS
  0
ENDTAB
  0
TABLE
  2
STYLE
 70
    10
  0
STYLE
  2
STANDARD
 70
     0
 40
1.0
 41
1.0
 42
1.0
 50
0.0
 71
     0
  3
TXT
  4
BIGFONT
  0
STYLE
  2
TATE
 70
     4
 40
1.0
 41
1.0
 42
1.0
 50
0.0
 71
     0
  3
TXT
  4
BIGFONT
  0
STYLE
  2
TextStyle03
 70
     0
 40
1.0
 41
1.0
 42
1.0
 50
0.0
 71
     0
  3
MONOTXT
  4
BIGFONT
  0
STYLE
  2
TextStyle04
 70
     0
 40
1.0
 41
1.0
 42
1.0
 50
0.0
 71
     0
  3
MONOTXT
  4
BIGFONT
  0
STYLE
  2
TextStyle05
 70
     0
 40
1.0
 41
1.0
 42
1.0
 50
0.0
 71
     0
  3
MONOTXT
  4
BIGFONT
  0
STYLE
  2
TextStyle06
 70
     0
 40
1.0
 41
1.0
 42
1.0
 50
0.0
 71
     0
  3
MONOTXT
  4
BIGFONT
  0
STYLE
  2
TextStyle07
 70
     0
 40
1.0
 41
1.0
 42
1.0
 50
0.0
 71
     0
  3
MONOTXT
  4
BIGFONT
  0
STYLE
  2
TextStyle08
 70
     0
 40
1.0
 41
1.0
 42
1.0
 50
0.0
 71
     0
  3
MONOTXT
  4
BIGFONT
  0
STYLE
  2
TextStyle09
 70
     0
 40
1.0
 41
1.0
 42
1.0
 50
0.0
 71
     0
  3
MONOTXT
  4
BIGFONT
  0
STYLE
  2
TextStyle10
 70
     0
 40
1.0
 41
1.0
 42
1.0
 50
0.0
 71
     0
  3
MONOTXT
  4
BIGFONT
  0
ENDTAB
  0
ENDSEC
  0
SECTION
  2
BLOCKS
  0
BLOCK
  2
*GRP_0001
 70
    65
 10
0.0
 20
0.0
  0
LINE
  8
型材断面
  6
CONTINUOUS
 10
195.0
 20
133.5
 11
195.0
 21
-133.5
  0
LINE
  8
型材断面
  6
CONTINUOUS
 10
195.0
 20
-133.5
 11
-185.0
 21
-133.5
  0
LINE
  8
型材断面
  6
CONTINUOUS
 10
-185.0
 20
-133.5
 11
-185.0
 21
133.5
  0
LINE
  8
型材断面
  6
CONTINUOUS
 10
195.0
 20
133.5
 11
-185.0
 21
133.5
  0
LINE
  8
型材断面
  6
CONTINUOUS
 10
145.0
 20
-133.5
 11
145.0
 21
-118.5
  0
LINE
  8
型材断面
  6
CONTINUOUS
 10
195.0
 20
-118.5
 11
145.0
 21
-118.5
  0
ENDBLK
  0
BLOCK
  2
*DIM_0002
 70
    65
 10
0.0
 20
0.0
  0
LINE
  8
寸法
  6
BYBLOCK
 62
     0
 10
21.33489
 20
-22.536362
 11
-78.66511
 21
-22.536362
  0
POINT
  8
寸法
 62
     0
 10
21.33489
 20
-22.536362
  0
POINT
  8
寸法
 62
     0
 10
-78.66511
 20
-22.536362
  0
TEXT
  7
TextStyle03
  8
寸法
  6
CONTINUOUS
 62
     0
 10
-40.39375
 20
-22.175
  1
呼称寸法　3000
 40
3.0
 72
     5
 11
-16.95625
 21
-22.175
  0
ENDBLK
  0
BLOCK
  2
*DIM_0003
 70
    65
 10
0.0
 20
0.0
  0
LINE
  8
寸法
  6
BYBLOCK
 62
     0
 10
-61.998442
 20
9.76892
 11
-61.998442
 21
5.198027
  0
LINE
  8
寸法
  6
BYBLOCK
 62
     0
 10
4.668223
 20
9.76892
 11
4.668223
 21
5.198027
  0
LINE
  8
寸法
  6
BYBLOCK
 62
     0
 10
-61.998442
 20
5.198027
 11
4.668223
 21
5.198027
  0
POINT
  8
寸法
 62
     0
 10
-61.998442
 20
5.198027
  0
POINT
  8
寸法
 62
     0
 10
4.668223
 20
5.198027
  0
TEXT
  7
TextStyle03
  8
寸法
  6
CONTINUOUS
 62
     0
 10
-31.95625
 20
5.55
  1
2000
 40
3.0
 72
     5
 11
-25.39375
 21
5.55
  0
ENDBLK
  0
BLOCK
  2
*DIM_0004
 70
    65
 10
0.0
 20
0.0
  0
LINE
  8
寸法
  6
BYBLOCK
 62
     0
 10
24.334935
 20
-78.991382
 11
24.334935
 21
-22.536362
  0
LINE
  8
寸法
  6
BYBLOCK
 62
     0
 10
21.33489
 20
-22.536362
 11
24.334935
 21
-22.536362
  0
POINT
  8
寸法
 62
     0
 10
21.33489
 20
-22.536362
  0
POINT
  8
寸法
 62
     0
 10
24.334935
 20
-22.536362
  0
TEXT
  7
TextStyle03
  8
寸法
  6
CONTINUOUS
 62
     0
 10
21.23125
 20
-22.175
  1
90
 40
3.0
 72
     5
 11
24.41875
 21
-22.175
  0
ENDBLK
  0
BLOCK
  2
*DIM_0005
 70
    65
 10
0.0
 20
0.0
  0
LINE
  8
寸法
  6
BYBLOCK
 62
     0
 10
-81.665155
 20
-78.991382
 11
-81.665155
 21
-22.536362
  0
LINE
  8
寸法
  6
BYBLOCK
 62
     0
 10
-78.66511
 20
-22.536362
 11
-81.665155
 21
-22.536362
  0
POINT
  8
寸法
 62
     0
 10
-78.66511
 20
-22.536362
  0
POINT
  8
寸法
 62
     0
 10
-81.665155
 20
-22.536362
  0
TEXT
  7
TextStyle03
  8
寸法
  6
CONTINUOUS
 62
     0
 10
-81.76875
 20
-22.175
  1
90
 40
3.0
 72
     5
 11
-78.58125
 21
-22.175
  0
ENDBLK
  0
BLOCK
  2
*DIM_0006
 70
    65
 10
0.0
 20
0.0
  0
LINE
  8
寸法
  6
BYBLOCK
 62
     0
 10
117.421445
 20
-49.867045
 11
125.856293
 21
-49.867045
  0
LINE
  8
寸法
  6
BYBLOCK
 62
     0
 10
117.421445
 20
-92.533713
 11
125.856293
 21
-92.533713
  0
LINE
  8
寸法
  6
BYBLOCK
 62
     0
 10
125.856293
 20
-49.867045
 11
125.856293
 21
-92.533713
  0
POINT
  8
寸法
 62
     0
 10
125.856293
 20
-49.867045
  0
POINT
  8
寸法
 62
     0
 10
125.856293
 20
-92.533713
  0
TEXT
  7
TextStyle03
  8
寸法
  6
CONTINUOUS
 62
     0
 10
125.525
 20
-74.48125
  1
1280
 40
3.0
 50
90.0
 72
     5
 11
125.525
 21
-67.91875
  0
ENDBLK
  0
BLOCK
  2
*DIM_0007
 70
    65
 10
0.0
 20
0.0
  0
LINE
  8
寸法
  6
BYBLOCK
 62
     0
 10
-81.66511
 20
23.399048
 11
-110.610275
 21
23.399048
  0
LINE
  8
寸法
  6
BYBLOCK
 62
     0
 10
-81.66511
 20
46.732382
 11
-110.610275
 21
46.732382
  0
LINE
  8
寸法
  6
BYBLOCK
 62
     0
 10
-110.610275
 20
23.399048
 11
-110.610275
 21
46.732382
  0
POINT
  8
寸法
 62
     0
 10
-110.610275
 20
23.399048
  0
POINT
  8
寸法
 62
     0
 10
-110.610275
 20
46.732382
  0
TEXT
  7
TextStyle03
  8
寸法
  6
CONTINUOUS
 62
     0
 10
-110.975
 20
32.6125
  1
700
 40
3.0
 50
90.0
 72
     5
 11
-110.975
 21
37.4875
  0
ENDBLK
  0
BLOCK
  2
*DIM_0008
 70
    65
 10
0.0
 20
0.0
  0
LINE
  8
寸法
  6
BYBLOCK
 62
     0
 10
-68.66511
 20
59.73238
 11
-68.66511
 21
88.840452
  0
LINE
  8
寸法
  6
BYBLOCK
 62
     0
 10
-41.998442
 20
59.73238
 11
-41.998442
 21
88.840452
  0
LINE
  8
寸法
  6
BYBLOCK
 62
     0
 10
-68.66511
 20
88.840452
 11
-41.998442
 21
88.840452
  0
POINT
  8
寸法
 62
     0
 10
-68.66511
 20
88.840452
  0
POINT
  8
寸法
 62
     0
 10
-41.998442
 20
88.840452
  0
TEXT
  7
TextStyle03
  8
寸法
  6
CONTINUOUS
 62
     0
 10
-57.7875
 20
89.2
  1
800
 40
3.0
 72
     5
 11
-52.9125
 21
89.2
  0
ENDBLK
  0
BLOCK
  2
*DIM_0009
 70
    65
 10
0.0
 20
0.0
  0
LINE
  8
寸法
  6
BYBLOCK
 62
     0
 10
-15.331778
 20
59.73238
 11
-15.331778
 21
88.840452
  0
LINE
  8
寸法
  6
BYBLOCK
 62
     0
 10
-41.998442
 20
88.840452
 11
-15.331778
 21
88.840452
  0
POINT
  8
寸法
 62
     0
 10
-15.331778
 20
88.840452
  0
TEXT
  7
TextStyle03
  8
寸法
  6
CONTINUOUS
 62
     0
 10
-31.1125
 20
89.2
  1
800
 40
3.0
 72
     5
 11
-26.2375
 21
89.2
  0
ENDBLK
  0
BLOCK
  2
*DIM_0010
 70
    65
 10
0.0
 20
0.0
  0
LINE
  8
寸法
  6
BYBLOCK
 62
     0
 10
11.33489
 20
59.73238
 11
11.33489
 21
88.840452
  0
LINE
  8
寸法
  6
BYBLOCK
 62
     0
 10
-15.331778
 20
88.840452
 11
11.33489
 21
88.840452
  0
POINT
  8
寸法
 62
     0
 10
11.33489
 20
88.840452
  0
TEXT
  7
TextStyle03
  8
寸法
  6
CONTINUOUS
 62
     0
 10
-4.4375
 20
89.2
  1
800
 40
3.0
 72
     5
 11
0.4375
 21
89.2
  0
ENDBLK
  0
BLOCK
  2
*DIM_0011
 70
    65
 10
0.0
 20
0.0
  0
LINE
  8
寸法
  6
CONTINUOUS
 10
110.962092
 20
70.37154
 11
114.27876
 21
70.37154
  0
POINT
  8
寸法
 10
110.962092
 20
70.37154
  0
POINT
  8
寸法
 10
114.27876
 20
70.37154
  0
TEXT
  7
TextStyle03
  8
寸法
  6
CONTINUOUS
 10
109.11875
 20
70.55
  1
99.5
 40
3.0
 72
     5
 11
115.68125
 21
70.55
  0
ENDBLK
  0
BLOCK
  2
*DIM_0012
 70
    65
 10
0.0
 20
0.0
  0
LINE
  8
寸法
  6
CONTINUOUS
 10
34.974098
 20
-78.02716
 11
34.974098
 21
-81.34383
  0
POINT
  8
寸法
 10
34.974098
 20
-78.02716
  0
POINT
  8
寸法
 10
34.974098
 20
-81.34383
  0
TEXT
  7
TextStyle03
  8
寸法
  6
CONTINUOUS
 10
38.125
 20
-82.88125
  1
99.5
 40
3.0
 50
90.0
 72
     5
 11
38.125
 21
-76.31875
  0
ENDBLK
  0
BLOCK
  2
*DIM_0013
 70
    65
 10
0.0
 20
0.0
  0
LINE
  8
寸法
  6
CONTINUOUS
 10
116.421445
 20
-40.116565
 11
84.088112
 21
-40.116565
  0
POINT
  8
寸法
 10
116.421445
 20
-40.116565
  0
POINT
  8
寸法
 10
84.088112
 20
-40.116565
  0
TEXT
  7
TextStyle03
  8
寸法
  6
CONTINUOUS
 10
97.8125
 20
-39.75
  1
970
 40
3.0
 72
     5
 11
102.6875
 21
-39.75
  0
ENDBLK
  0
ENDSEC
  0
SECTION
  2
ENTITIES
  0
POLYLINE
  8
通り芯
  6
CONTINUOUS
 66
     1
 70
     1
  0
VERTEX
  8
通り芯
 10
-210.0
 20
-148.5
  0
VERTEX
  8
通り芯
 10
210.0
 20
-148.5
  0
VERTEX
  8
通り芯
 10
210.0
 20
148.5
  0
VERTEX
  8
通り芯
 10
-210.0
 20
148.5
  0
SEQEND
  0
INSERT
  2
*GRP_0001
  8
型材断面
  6
CONTINUOUS
 10
0.0
 20
0.0
  0
LINE
  8
型材断面
  6
DASHDOT
 10
21.33489
 20
-87.251428
 11
21.33489
 21
56.73238
  0
LINE
  8
型材断面
  6
DASHDOT
 10
-28.66511
 20
-87.251428
 11
-28.66511
 21
56.73238
  0
LINE
  8
型材断面
  6
DASHDOT
 10
-78.66511
 20
-87.251428
 11
-78.66511
 21
56.73238
  0
LINE
  8
型材断面
  6
CONTINUOUS
 10
-81.29524
 20
35.065715
 11
-83.885747
 21
36.561345
  0
LINE
  8
型材断面
  6
CONTINUOUS
 10
-81.29524
 20
35.065715
 11
-83.885747
 21
33.570085
  0
LINE
  8
型材断面
  6
CONTINUOUS
 10
-83.885747
 20
33.570085
 11
-83.885747
 21
36.561345
  0
LINE
  8
型材断面
  6
CONTINUOUS
 10
-61.998442
 20
59.36251
 11
-63.494073
 21
61.953017
  0
LINE
  8
型材断面
  6
CONTINUOUS
 10
-61.998442
 20
59.36251
 11
-60.502812
 21
61.953017
  0
LINE
  8
型材断面
  6
CONTINUOUS
 10
-60.502812
 20
61.953017
 11
-63.494073
 21
61.953017
  0
LINE
  8
型材断面
  6
CONTINUOUS
 10
-119.517317
 20
101.239727
 11
-121.012947
 21
98.64922
  0
LINE
  8
型材断面
  6
CONTINUOUS
 10
-119.517317
 20
101.239727
 11
-118.021688
 21
98.64922
  0
LINE
  8
型材断面
  6
CONTINUOUS
 10
-118.021688
 20
98.64922
 11
-121.012947
 21
98.64922
  0
LINE
  8
型材断面
  6
CONTINUOUS
 10
-125.539905
 20
97.710625
 11
-79.298128
 21
97.710625
  0
LINE
  8
型材断面
  6
CONTINUOUS
 10
-61.998442
 20
10.76892
 11
-63.494073
 21
8.178413
  0
LINE
  8
型材断面
  6
CONTINUOUS
 10
-61.998442
 20
10.76892
 11
-60.502812
 21
8.178413
  0
LINE
  8
型材断面
  6
CONTINUOUS
 10
-60.502812
 20
8.178413
 11
-63.494073
 21
8.178413
  0
LINE
  8
型材断面
  6
CONTINUOUS
 10
23.96502
 20
35.065715
 11
26.555528
 21
36.561345
  0
LINE
  8
型材断面
  6
CONTINUOUS
 10
23.96502
 20
35.065715
 11
26.555528
 21
33.570085
  0
LINE
  8
型材断面
  6
CONTINUOUS
 10
26.555528
 20
33.570085
 11
26.555528
 21
36.561345
  0
LINE
  8
型材断面
  6
CONTINUOUS
 10
4.668223
 20
59.36251
 11
6.163853
 21
61.953017
  0
LINE
  8
型材断面
  6
CONTINUOUS
 10
4.668223
 20
59.36251
 11
3.172593
 21
61.953017
  0
LINE
  8
型材断面
  6
CONTINUOUS
 10
3.172593
 20
61.953017
 11
6.163853
 21
61.953017
  0
LINE
  8
型材断面
  6
CONTINUOUS
 10
4.668223
 20
10.76892
 11
6.163853
 21
8.178413
  0
LINE
  8
型材断面
  6
CONTINUOUS
 10
4.668223
 20
10.76892
 11
3.172593
 21
8.178413
  0
LINE
  8
型材断面
  6
CONTINUOUS
 10
3.172593
 20
8.178413
 11
6.163853
 21
8.178413
  0
LINE
  8
型材断面
  6
CONTINUOUS
 10
-125.539905
 20
90.469088
 11
-79.298128
 21
90.469088
  0
LINE
  8
型材断面
  6
CONTINUOUS
 10
-81.665157
 20
10.399007
 11
-28.66511
 21
10.399007
  0
LINE
  8
型材断面
  6
CONTINUOUS
 10
24.334937
 20
10.399007
 11
-28.66511
 21
10.399007
  0
LINE
  8
型材断面
  6
CONTINUOUS
 10
24.334937
 20
59.732423
 11
-28.66511
 21
59.732423
  0
LINE
  8
型材断面
  6
CONTINUOUS
 10
-81.665157
 20
59.732423
 11
-28.66511
 21
59.732423
  0
CIRCLE
  8
型材断面
  6
CONTINUOUS
 62
    47
 10
113.778763
 20
59.732323
 40
0.011113
  0
LINE
  8
型材断面
  6
CONTINUOUS
 62
    47
 10
114.27876
 20
59.232332
 11
114.27876
 21
59.732323
  0
LINE
  8
型材断面
  6
CONTINUOUS
 62
    47
 10
114.27876
 20
59.732323
 11
113.778763
 21
59.732323
  0
LINE
  8
型材断面
  6
CONTINUOUS
 62
    47
 10
113.778763
 20
59.732323
 11
113.281582
 21
56.798992
  0
LINE
  8
型材断面
  6
CONTINUOUS
 62
    47
 10
114.27876
 20
59.232332
 11
114.77876
 21
59.232332
  0
LINE
  8
型材断面
  6
CONTINUOUS
 62
    47
 10
113.281582
 20
56.798992
 11
112.62876
 21
56.798992
  0
CIRCLE
  8
型材断面
  6
CONTINUOUS
 62
    47
 10
113.778763
 20
10.399007
 40
0.011113
  0
LINE
  8
型材断面
  6
CONTINUOUS
 62
    47
 10
114.27876
 20
10.898998
 11
114.27876
 21
10.399007
  0
LINE
  8
型材断面
  6
CONTINUOUS
 62
    47
 10
114.27876
 20
10.399007
 11
113.778763
 21
10.399007
  0
LINE
  8
型材断面
  6
CONTINUOUS
 62
    47
 10
113.778763
 20
10.399007
 11
113.281582
 21
13.332337
  0
LINE
  8
型材断面
  6
CONTINUOUS
 62
    47
 10
114.27876
 20
10.898998
 11
114.77876
 21
10.898998
  0
LINE
  8
型材断面
  6
CONTINUOUS
 62
    47
 10
113.281582
 20
13.332337
 11
112.62876
 21
13.332337
  0
LINE
  8
型材断面
  6
CONTINUOUS
 62
    47
 10
111.12876
 20
11.752537
 11
111.12876
 21
35.065665
  0
LINE
  8
型材断面
  6
CONTINUOUS
 62
    47
 10
110.962092
 20
11.909058
 11
110.962092
 21
35.065665
  0
LINE
  8
型材断面
  6
CONTINUOUS
 62
    47
 10
112.62876
 20
11.909058
 11
112.62876
 21
35.065665
  0
LINE
  8
型材断面
  6
CONTINUOUS
 10
113.281582
 20
13.332285
 11
113.281582
 21
35.065665
  0
LINE
  8
型材断面
  6
CONTINUOUS
 10
113.778765
 20
10.398953
 11
113.778765
 21
35.065665
  0
LINE
  8
型材断面
  6
CONTINUOUS
 62
    47
 10
114.27876
 20
10.398953
 11
114.27876
 21
35.065665
  0
LINE
  8
型材断面
  6
CONTINUOUS
 10
114.77876
 20
10.898942
 11
114.77876
 21
35.065665
  0
LINE
  8
型材断面
  6
CONTINUOUS
 62
    47
 10
114.27876
 20
59.732378
 11
114.27876
 21
35.065665
  0
LINE
  8
型材断面
  6
CONTINUOUS
 10
113.281582
 20
56.799045
 11
113.281582
 21
35.065665
  0
LINE
  8
型材断面
  6
CONTINUOUS
 62
    47
 10
111.12876
 20
58.378793
 11
111.12876
 21
35.065665
  0
LINE
  8
型材断面
  6
CONTINUOUS
 62
    47
 10
110.962092
 20
58.222272
 11
110.962092
 21
35.065665
  0
LINE
  8
型材断面
  6
CONTINUOUS
 62
    47
 10
112.62876
 20
58.222272
 11
112.62876
 21
35.065665
  0
LINE
  8
型材断面
  6
CONTINUOUS
 10
113.778765
 20
59.732378
 11
113.778765
 21
35.065665
  0
LINE
  8
型材断面
  6
CONTINUOUS
 10
114.77876
 20
59.232388
 11
114.77876
 21
35.065665
  0
CIRCLE
  8
型材断面
  6
CONTINUOUS
 62
    47
 10
-81.665103
 20
-80.84383
 40
0.011113
  0
LINE
  8
型材断面
  6
CONTINUOUS
 62
    47
 10
-81.16511
 20
-81.34383
 11
-81.665103
 21
-81.34383
  0
LINE
  8
型材断面
  6
CONTINUOUS
 62
    47
 10
-81.665103
 20
-81.34383
 11
-81.665103
 21
-80.84383
  0
LINE
  8
型材断面
  6
CONTINUOUS
 62
    47
 10
-81.665103
 20
-80.84383
 11
-78.73177
 21
-80.34665
  0
LINE
  8
型材断面
  6
CONTINUOUS
 62
    47
 10
-81.16511
 20
-81.34383
 11
-81.16511
 21
-81.84383
  0
LINE
  8
型材断面
  6
CONTINUOUS
 62
    47
 10
-78.73177
 20
-80.34665
 11
-78.73177
 21
-79.693828
  0
CIRCLE
  8
型材断面
  6
CONTINUOUS
 62
    47
 10
24.33488
 20
-80.84383
 40
0.011113
  0
LINE
  8
型材断面
  6
CONTINUOUS
 62
    47
 10
23.83489
 20
-81.34383
 11
24.33488
 21
-81.34383
  0
LINE
  8
型材断面
  6
CONTINUOUS
 62
    47
 10
24.33488
 20
-81.34383
 11
24.33488
 21
-80.84383
  0
LINE
  8
型材断面
  6
CONTINUOUS
 62
    47
 10
24.33488
 20
-80.84383
 11
21.40155
 21
-80.34665
  0
LINE
  8
型材断面
  6
CONTINUOUS
 62
    47
 10
23.83489
 20
-81.34383
 11
23.83489
 21
-81.84383
  0
LINE
  8
型材断面
  6
CONTINUOUS
 62
    47
 10
21.40155
 20
-80.34665
 11
21.40155
 21
-79.693828
  0
LINE
  8
型材断面
  6
CONTINUOUS
 62
    47
 10
-80.15505
 20
-79.693828
 11
-28.66511
 21
-79.693828
  0
LINE
  8
型材断面
  6
CONTINUOUS
 62
    47
 10
-80.311572
 20
-78.193828
 11
-28.66511
 21
-78.193828
  0
LINE
  8
型材断面
  6
CONTINUOUS
 62
    47
 10
-80.15505
 20
-78.02716
 11
-28.66511
 21
-78.02716
  0
LINE
  8
型材断面
  6
CONTINUOUS
 10
-78.731825
 20
-80.34665
 11
-28.66511
 21
-80.34665
  0
LINE
  8
型材断面
  6
CONTINUOUS
 10
-81.665155
 20
-80.843833
 11
-28.66511
 21
-80.843833
  0
LINE
  8
型材断面
  6
CONTINUOUS
 10
-81.165165
 20
-81.84383
 11
-28.66511
 21
-81.84383
  0
LINE
  8
型材断面
  6
CONTINUOUS
 62
    47
 10
-81.665155
 20
-81.34383
 11
-28.66511
 21
-81.34383
  0
LINE
  8
型材断面
  6
CONTINUOUS
 10
24.334935
 20
-80.843833
 11
-28.66511
 21
-80.843833
  0
LINE
  8
型材断面
  6
CONTINUOUS
 10
23.834945
 20
-81.84383
 11
-28.66511
 21
-81.84383
  0
LINE
  8
型材断面
  6
CONTINUOUS
 62
    47
 10
24.334935
 20
-81.34383
 11
-28.66511
 21
-81.34383
  0
LINE
  8
型材断面
  6
CONTINUOUS
 10
21.401603
 20
-80.34665
 11
-28.66511
 21
-80.34665
  0
LINE
  8
型材断面
  6
CONTINUOUS
 62
    47
 10
22.82483
 20
-79.693828
 11
-28.66511
 21
-79.693828
  0
LINE
  8
型材断面
  6
CONTINUOUS
 62
    47
 10
22.98135
 20
-78.193828
 11
-28.66511
 21
-78.193828
  0
LINE
  8
型材断面
  6
CONTINUOUS
 62
    47
 10
22.82483
 20
-78.02716
 11
-28.66511
 21
-78.02716
  0
LINE
  8
型材断面
  6
DASHDOT
 10
-78.66511
 20
35.065715
 11
121.75477
 21
35.065715
  0
LINE
  8
型材断面
  6
DASHDOT
 10
121.75477
 20
56.732332
 11
-78.66511
 21
56.732332
  0
LINE
  8
型材断面
  6
DASHDOT
 10
121.75477
 20
13.398998
 11
-78.66511
 21
13.398998
  0
LINE
  8
型材断面
  6
DASHDOT
 10
-45.41511
 20
13.399048
 11
-45.41511
 21
56.73238
  0
LINE
  8
型材断面
  6
DASHDOT
 10
-11.91511
 20
13.399048
 11
-11.91511
 21
56.73238
  0
LINE
  8
型材断面
  6
CONTINUOUS
 10
-28.248442
 20
14.252537
 11
4.293223
 21
14.252537
  0
LINE
  8
型材断面
  6
CONTINUOUS
 10
-28.248442
 20
55.878893
 11
4.293223
 21
55.878893
  0
LINE
  8
型材断面
  6
CONTINUOUS
 10
-61.623442
 20
55.878893
 11
-29.081778
 21
55.878893
  0
LINE
  8
型材断面
  6
CONTINUOUS
 10
-61.623442
 20
14.252537
 11
-29.081778
 21
14.252537
  0
LINE
  8
型材断面
  6
CONTINUOUS
 10
-10.66511
 20
15.08587
 11
-13.16511
 21
15.08587
  0
LINE
  8
型材断面
  6
CONTINUOUS
 10
-10.66511
 20
55.04556
 11
-13.16511
 21
55.04556
  0
LINE
  8
型材断面
  6
CONTINUOUS
 10
-10.66511
 20
15.08587
 11
-10.66511
 21
55.04556
  0
LINE
  8
型材断面
  6
CONTINUOUS
 10
-13.16511
 20
15.08587
 11
-13.16511
 21
55.04556
  0
LINE
  8
型材断面
  6
CONTINUOUS
 10
-44.16511
 20
15.08587
 11
-46.66511
 21
15.08587
  0
LINE
  8
型材断面
  6
CONTINUOUS
 10
-44.16511
 20
55.04556
 11
-46.66511
 21
55.04556
  0
LINE
  8
型材断面
  6
CONTINUOUS
 10
-44.16511
 20
15.08587
 11
-44.16511
 21
55.04556
  0
LINE
  8
型材断面
  6
CONTINUOUS
 10
-46.66511
 20
15.08587
 11
-46.66511
 21
55.04556
  0
LINE
  8
型材断面
  6
CONTINUOUS
 10
24.334937
 20
35.06571
 11
24.334937
 21
59.732423
  0
LINE
  8
型材断面
  6
CONTINUOUS
 10
24.334937
 20
35.06572
 11
24.334937
 21
10.399007
  0
LINE
  8
型材断面
  6
CONTINUOUS
 10
22.745652
 20
11.752537
 11
22.981352
 21
11.988237
  0
LINE
  8
型材断面
  6
CONTINUOUS
 10
24.334937
 20
10.399007
 11
22.86353
 21
11.870415
  0
LINE
  8
型材断面
  6
CONTINUOUS
 10
22.981352
 20
11.988237
 11
20.481352
 21
14.488237
  0
LINE
  8
型材断面
  6
CONTINUOUS
 10
22.745652
 20
11.752537
 11
20.245652
 21
14.252537
  0
LINE
  8
型材断面
  6
CONTINUOUS
 10
20.245652
 20
14.252537
 11
20.481352
 21
14.488237
  0
LINE
  8
型材断面
  6
CONTINUOUS
 10
20.481352
 20
34.649048
 11
20.481352
 21
14.488237
  0
LINE
  8
型材断面
  6
CONTINUOUS
 10
22.745652
 20
58.378893
 11
22.981352
 21
58.143193
  0
LINE
  8
型材断面
  6
CONTINUOUS
 10
24.334937
 20
59.732423
 11
22.86353
 21
58.261015
  0
LINE
  8
型材断面
  6
CONTINUOUS
 10
22.745652
 20
58.378893
 11
20.245652
 21
55.878893
  0
LINE
  8
型材断面
  6
CONTINUOUS
 10
20.245652
 20
55.878893
 11
20.481352
 21
55.643193
  0
LINE
  8
型材断面
  6
CONTINUOUS
 10
20.481352
 20
55.643193
 11
22.981352
 21
58.143193
  0
LINE
  8
型材断面
  6
CONTINUOUS
 10
22.981352
 20
11.988237
 11
22.981352
 21
58.143193
  0
LINE
  8
型材断面
  6
CONTINUOUS
 10
20.481352
 20
35.482382
 11
20.481352
 21
55.643193
  0
LINE
  8
型材断面
  6
CONTINUOUS
 10
-81.665157
 20
35.06571
 11
-81.665157
 21
59.732423
  0
LINE
  8
型材断面
  6
CONTINUOUS
 10
-81.665157
 20
35.06572
 11
-81.665157
 21
10.399007
  0
LINE
  8
型材断面
  6
CONTINUOUS
 10
-80.075872
 20
11.752537
 11
-80.311572
 21
11.988237
  0
LINE
  8
型材断面
  6
CONTINUOUS
 10
-81.665157
 20
10.399007
 11
-80.19375
 21
11.870415
  0
LINE
  8
型材断面
  6
CONTINUOUS
 10
-80.311572
 20
11.988237
 11
-77.811572
 21
14.488237
  0
LINE
  8
型材断面
  6
CONTINUOUS
 10
-80.075872
 20
11.752537
 11
-77.575872
 21
14.252537
  0
LINE
  8
型材断面
  6
CONTINUOUS
 10
-77.575872
 20
14.252537
 11
-77.811572
 21
14.488237
  0
LINE
  8
型材断面
  6
CONTINUOUS
 10
-77.811572
 20
34.649048
 11
-77.811572
 21
14.488237
  0
LINE
  8
型材断面
  6
CONTINUOUS
 10
-80.075872
 20
58.378893
 11
-80.311572
 21
58.143193
  0
LINE
  8
型材断面
  6
CONTINUOUS
 10
-81.665157
 20
59.732423
 11
-80.19375
 21
58.261015
  0
LINE
  8
型材断面
  6
CONTINUOUS
 10
-80.075872
 20
58.378893
 11
-77.575872
 21
55.878893
  0
LINE
  8
型材断面
  6
CONTINUOUS
 10
-77.575872
 20
55.878893
 11
-77.811572
 21
55.643193
  0
LINE
  8
型材断面
  6
CONTINUOUS
 10
-77.811572
 20
55.643193
 11
-80.311572
 21
58.143193
  0
LINE
  8
型材断面
  6
CONTINUOUS
 10
-80.311572
 20
11.988237
 11
-80.311572
 21
58.143193
  0
LINE
  8
型材断面
  6
CONTINUOUS
 10
-77.811572
 20
35.482382
 11
-77.811572
 21
55.643193
  0
LINE
  8
型材断面
  6
CONTINUOUS
 10
5.126557
 20
55.878893
 11
20.245652
 21
55.878893
  0
LINE
  8
型材断面
  6
CONTINUOUS
 10
5.126557
 20
14.252537
 11
20.245652
 21
14.252537
  0
LINE
  8
型材断面
  6
CONTINUOUS
 10
-62.456778
 20
14.252537
 11
-77.575872
 21
14.252537
  0
LINE
  8
型材断面
  6
CONTINUOUS
 10
22.745652
 20
11.752537
 11
-80.075872
 21
11.752537
  0
LINE
  8
型材断面
  6
CONTINUOUS
 10
-62.456778
 20
55.878893
 11
-77.575872
 21
55.878893
  0
LINE
  8
型材断面
  6
CONTINUOUS
 10
22.745652
 20
58.378893
 11
-80.075872
 21
58.378893
  0
TEXT
  7
TextStyle03
  8
文字
  6
CONTINUOUS
 10
-116.75
 20
98.85
  1
は排水穴位置を示す
 40
3.0
 72
     5
 11
-86.75
 21
98.85
  0
TEXT
  7
TextStyle03
  8
文字
  6
CONTINUOUS
 10
61.75
 20
104.525
  1
ＮＳコード：ＮＳＦＫＺ
 40
5.0
 72
     5
 11
123.0
 21
104.525
  0
TEXT
  7
TextStyle03
  8
文字
  6
CONTINUOUS
 10
-120.475
 20
91.375
  1
アンカー数量　１２ヶ所
 40
3.0
 72
     5
 11
-83.725
 21
91.375
  0
TEXT
  7
TextStyle03
  8
文字
  6
CONTINUOUS
 10
97.9
 20
-86.1
  1
網入り6.8t
 40
3.0
 72
     5
 11
114.5875
 21
-86.1
  0
TEXT
  7
TextStyle03
  8
文字
  6
CONTINUOUS
 10
104.575
 20
-90.775
  1
×３枚
 40
3.0
 72
     5
 11
114.325
 21
-90.775
  0
TEXT
  7
TextStyle03
  8
文字
  6
CONTINUOUS
 10
-116.175
 20
23.975
  1
アンカーピッチ
 40
3.0
 50
90.0
 72
     5
 11
-116.175
 21
47.225
  0
TEXT
  7
TextStyle03
  8
文字
  6
CONTINUOUS
 10
-68.7
 20
94.125
  1
アンカーピッチ
 40
3.0
 72
     5
 11
-45.45
 21
94.125
  0
LINE
  8
文字
  6
CONTINUOUS
 10
110.962092
 20
70.37154
 11
110.962092
 21
61.018383
  0
LINE
  8
文字
  6
CONTINUOUS
 10
114.27876
 20
70.37154
 11
114.27876
 21
61.083737
  0
LINE
  8
文字
  6
CONTINUOUS
 10
34.974098
 20
-78.02716
 11
25.62094
 21
-78.02716
  0
LINE
  8
文字
  6
CONTINUOUS
 10
34.974098
 20
-81.34383
 11
25.686295
 21
-81.34383
  0
LINE
  8
文字
  6
CONTINUOUS
 10
116.421445
 20
-40.116565
 11
116.421445
 21
-48.012505
  0
LINE
  8
文字
  6
CONTINUOUS
 10
84.088112
 20
-40.116565
 11
84.088112
 21
-48.012505
  0
TEXT
  7
TextStyle03
  8
文字
  6
CONTINUOUS
 10
61.6
 20
125.25
  1
シリーズ：ＴＦ２ＦＫＬ
 40
5.0
 72
     5
 11
122.85
 21
125.25
  0
TEXT
  7
TextStyle03
  8
文字
  6
CONTINUOUS
 10
61.6
 20
119.625
  1
　　　　　（固定）1300×3000タイプ
 40
5.0
 72
     5
 11
156.6
 21
119.625
  0
TEXT
  7
TextStyle03
  8
文字
  6
CONTINUOUS
 10
61.6
 20
114.0
  1
図面名　：外観姿図
 40
5.0
 72
     5
 11
111.6
 21
114.0
  0
TEXT
  7
TextStyle03
  8
文字
  6
CONTINUOUS
 10
61.6
 20
108.375
  1
　　　　　　
 40
5.0
 72
     5
 11
94.725
 21
108.375
  0
LINE
  8
文字
  6
CONTINUOUS
 10
5.126557
 20
14.252537
 11
5.126557
 21
11.752537
  0
LINE
  8
文字
  6
CONTINUOUS
 10
4.293223
 20
14.252537
 11
4.293223
 21
11.752537
  0
LINE
  8
文字
  6
CONTINUOUS
 10
-28.248442
 20
14.252537
 11
-28.248442
 21
11.752537
  0
LINE
  8
文字
  6
CONTINUOUS
 10
-29.081778
 20
14.252537
 11
-29.081778
 21
11.752537
  0
LINE
  8
文字
  6
CONTINUOUS
 10
-62.456778
 20
14.252537
 11
-62.456778
 21
11.752537
  0
LINE
  8
文字
  6
CONTINUOUS
 10
-61.623442
 20
14.252537
 11
-61.623442
 21
11.752537
  0
LINE
  8
文字
  6
CONTINUOUS
 10
5.126557
 20
55.878893
 11
5.126557
 21
58.378893
  0
LINE
  8
文字
  6
CONTINUOUS
 10
4.293223
 20
55.878893
 11
4.293223
 21
58.378893
  0
LINE
  8
文字
  6
CONTINUOUS
 10
-28.248442
 20
55.878893
 11
-28.248442
 21
58.378893
  0
LINE
  8
文字
  6
CONTINUOUS
 10
-29.081778
 20
55.878893
 11
-29.081778
 21
58.378893
  0
LINE
  8
文字
  6
CONTINUOUS
 10
-62.456778
 20
55.878893
 11
-62.456778
 21
58.378893
  0
LINE
  8
文字
  6
CONTINUOUS
 10
-61.623442
 20
55.878893
 11
-61.623442
 21
58.378893
  0
LINE
  8
文字
  6
CONTINUOUS
 10
20.481352
 20
34.649048
 11
22.981352
 21
34.649048
  0
LINE
  8
文字
  6
CONTINUOUS
 10
20.481352
 20
35.482382
 11
22.981352
 21
35.482382
  0
LINE
  8
文字
  6
CONTINUOUS
 10
-77.811572
 20
34.649048
 11
-80.311572
 21
34.649048
  0
LINE
  8
文字
  6
CONTINUOUS
 10
-77.811572
 20
35.482382
 11
-80.311572
 21
35.482382
  0
INSERT
  2
*DIM_0002
  8
寸法
  6
CONTINUOUS
 10
0.0
 20
0.0
  0
INSERT
  2
*DIM_0003
  8
寸法
  6
CONTINUOUS
 10
0.0
 20
0.0
  0
INSERT
  2
*DIM_0004
  8
寸法
  6
CONTINUOUS
 10
0.0
 20
0.0
  0
INSERT
  2
*DIM_0005
  8
寸法
  6
CONTINUOUS
 10
0.0
 20
0.0
  0
INSERT
  2
*DIM_0006
  8
寸法
  6
CONTINUOUS
 10
0.0
 20
0.0
  0
INSERT
  2
*DIM_0007
  8
寸法
  6
CONTINUOUS
 10
0.0
 20
0.0
  0
INSERT
  2
*DIM_0008
  8
寸法
  6
CONTINUOUS
 10
0.0
 20
0.0
  0
INSERT
  2
*DIM_0009
  8
寸法
  6
CONTINUOUS
 10
0.0
 20
0.0
  0
INSERT
  2
*DIM_0010
  8
寸法
  6
CONTINUOUS
 10
0.0
 20
0.0
  0
INSERT
  2
*DIM_0011
  8
寸法
  6
CONTINUOUS
 10
0.0
 20
0.0
  0
INSERT
  2
*DIM_0012
  8
寸法
  6
CONTINUOUS
 10
0.0
 20
0.0
  0
INSERT
  2
*DIM_0013
  8
寸法
  6
CONTINUOUS
 10
0.0
 20
0.0
  0
LINE
  8
別途部材
  6
CONTINUOUS
 62
    47
 10
111.062092
 20
58.378793
 11
111.12876
 21
58.378793
  0
ARC
  8
別途部材
  6
CONTINUOUS
 62
    47
 10
111.062088
 20
58.278794
 40
0.1
 50
90.0
 51
180.0
  0
LINE
  8
別途部材
  6
CONTINUOUS
 62
    47
 10
110.962092
 20
58.278793
 11
110.962092
 21
58.222272
  0
LINE
  8
別途部材
  6
CONTINUOUS
 62
    47
 10
112.62876
 20
58.222272
 11
111.12876
 21
58.222272
  0
LINE
  8
別途部材
  6
CONTINUOUS
 62
    47
 10
111.062092
 20
11.752537
 11
111.12876
 21
11.752537
  0
ARC
  8
別途部材
  6
CONTINUOUS
 62
    47
 10
111.062088
 20
11.852536
 40
0.1
 50
180.0
 51
270.0
  0
LINE
  8
別途部材
  6
CONTINUOUS
 62
    47
 10
110.962092
 20
11.852537
 11
110.962092
 21
11.909058
  0
LINE
  8
別途部材
  6
CONTINUOUS
 62
    47
 10
112.62876
 20
11.909058
 11
111.12876
 21
11.909058
  0
LINE
  8
別途部材
  6
CONTINUOUS
 62
    47
 10
-80.311572
 20
-78.12716
 11
-80.311572
 21
-78.193828
  0
ARC
  8
別途部材
  6
CONTINUOUS
 62
    47
 10
-80.211574
 20
-78.127157
 40
0.1
 50
90.0
 51
180.0
  0
LINE
  8
別途部材
  6
CONTINUOUS
 62
    47
 10
-80.211572
 20
-78.02716
 11
-80.15505
 21
-78.02716
  0
LINE
  8
別途部材
  6
CONTINUOUS
 62
    47
 10
-80.15505
 20
-79.693828
 11
-80.15505
 21
-78.193828
  0
LINE
  8
別途部材
  6
CONTINUOUS
 62
    47
 10
22.98135
 20
-78.12716
 11
22.98135
 21
-78.193828
  0
ARC
  8
別途部材
  6
CONTINUOUS
 62
    47
 10
22.88135
 20
-78.127157
 40
0.1
 50
0.0
 51
90.0
  0
LINE
  8
別途部材
  6
CONTINUOUS
 62
    47
 10
22.88135
 20
-78.02716
 11
22.82483
 21
-78.02716
  0
LINE
  8
別途部材
  6
CONTINUOUS
 62
    47
 10
22.82483
 20
-79.693828
 11
22.82483
 21
-78.193828
  0
LINE
  8
曲げ物
  6
CONTINUOUS
 10
6.06062
 20
37.022003
 11
2.365308
 21
33.32669
  0
LINE
  8
曲げ物
  6
CONTINUOUS
 10
5.35715
 20
35.485893
 11
3.90142
 21
34.030163
  0
LINE
  8
曲げ物
  6
CONTINUOUS
 10
4.52451
 20
36.318533
 11
3.06878
 21
34.862803
  0
LINE
  8
曲げ物
  6
CONTINUOUS
 10
-26.774172
 20
37.022003
 11
-30.469485
 21
33.32669
  0
LINE
  8
曲げ物
  6
CONTINUOUS
 10
-27.477643
 20
35.485893
 11
-28.933373
 21
34.030163
  0
LINE
  8
曲げ物
  6
CONTINUOUS
 10
-28.310282
 20
36.318533
 11
-29.766013
 21
34.862803
  0
LINE
  8
曲げ物
  6
CONTINUOUS
 10
-59.583972
 20
37.022003
 11
-63.279285
 21
33.32669
  0
LINE
  8
曲げ物
  6
CONTINUOUS
 10
-60.287442
 20
35.485893
 11
-61.743173
 21
34.030163
  0
LINE
  8
曲げ物
  6
CONTINUOUS
 10
-61.120082
 20
36.318533
 11
-62.575813
 21
34.862803
  0
LINE
  8
曲げ物
  6
CONTINUOUS
 10
116.421445
 20
-92.533713
 11
116.421445
 21
-49.867045
  0
LINE
  8
曲げ物
  6
CONTINUOUS
 10
84.088112
 20
-92.533713
 11
84.088112
 21
-49.867045
  0
LINE
  8
曲げ物
  6
CONTINUOUS
 10
116.421445
 20
-49.867045
 11
84.088112
 21
-49.867045
  0
LINE
  8
曲げ物
  6
CONTINUOUS
 10
116.421445
 20
-92.533713
 11
84.088112
 21
-92.533713
  0
CIRCLE
  8
LAYER010
  6
CONTINUOUS
 62
    47
 10
113.778763
 20
59.732323
 40
0.011113
  0
CIRCLE
  8
LAYER010
  6
CONTINUOUS
 62
    47
 10
113.778763
 20
10.399007
 40
0.011113
  0
CIRCLE
  8
LAYER010
  6
CONTINUOUS
 62
    47
 10
-81.665103
 20
-80.84383
 40
0.011113
  0
CIRCLE
  8
LAYER010
  6
CONTINUOUS
 62
    47
 10
24.33488
 20
-80.84383
 40
0.011113
  0
ENDSEC
  0
EOF
