  0
SECTION
  2
HEADER
  9
$EXTMIN
 10
-210.0
 20
-148.5
  9
$EXTMAX
 10
210.0
 20
148.5
  9
$PDMODE
 70
    32
  9
$PDSIZE
 40
1.5
  9
$LTSCALE
 40
10.0
  0
ENDSEC
  0
SECTION
  2
TABLES
  0
TABLE
  2
LTYPE
 70
    15
  0
LTYPE
  2
CONTINUOUS
 70
    64
  3
実線
 72
    65
 73
     0
 40
0.0
  0
LTYPE
  2
DASHED
 70
    64
  3
破線A
 72
    65
 73
     2
 40
0.6
 49
0.4
 49
-0.2
  0
LTYPE
  2
DASHEDX2
 70
    64
  3
破線B
 72
    65
 73
     2
 40
1.3
 49
0.9
 49
-0.4
  0
LTYPE
  2
DASHDOT
 70
    64
  3
１点鎖線A
 72
    65
 73
     4
 40
0.5375
 49
0.375
 49
-0.05
 49
0.0625
 49
-0.05
  0
LTYPE
  2
DASHDOTX2
 70
    64
  3
１点鎖線B
 72
    65
 73
     4
 40
1.075
 49
0.75
 49
-0.1
 49
0.125
 49
-0.1
  0
LTYPE
  2
DIVIDE2
 70
    64
  3
２点鎖線A
 72
    65
 73
     6
 40
0.5125
 49
0.3
 49
-0.0375
 49
0.05
 49
-0.0375
 49
0.05
 49
-0.0375
  0
LTYPE
  2
DIVIDE
 70
    64
  3
２点鎖線B
 72
    65
 73
     6
 40
1.05
 49
0.55
 49
-0.1
 49
0.1
 49
-0.1
 49
0.1
 49
-0.1
  0
LTYPE
  2
DOT
 70
    64
  3
点線A
 72
    65
 73
     2
 40
0.1125
 49
0.0625
 49
-0.05
  0
LTYPE
  2
DOTX2
 70
    64
  3
点線B
 72
    65
 73
     2
 40
0.275
 49
0.15
 49
-0.125
  0
LTYPE
  2
CONTINUOUS
 70
    64
  3
実線
 72
    65
 73
     0
 40
0.0
  0
LTYPE
  2
CONTINUOUS
 70
    64
  3
実線
 72
    65
 73
     0
 40
0.0
  0
LTYPE
  2
CONTINUOUS
 70
    64
  3
実線
 72
    65
 73
     0
 40
0.0
  0
LTYPE
  2
CONTINUOUS
 70
    64
  3
実線
 72
    65
 73
     0
 40
0.0
  0
LTYPE
  2
CONTINUOUS
 70
    64
  3
実線
 72
    65
 73
     0
 40
0.0
  0
LTYPE
  2
CONTINUOUS
 70
    64
  3
実線
 72
    65
 73
     0
 40
0.0
  0
ENDTAB
  0
TABLE
  2
LAYER
 70
    35
  0
LAYER
  2
通り芯
 70
     0
 62
    15
  6
CONTINUOUS
  0
LAYER
  2
補助線
 70
     0
 62
    16
  6
DOT
  0
LAYER
  2
躯体
 70
     0
 62
    31
  6
CONTINUOUS
  0
LAYER
  2
型材
 70
     0
 62
    32
  6
CONTINUOUS
  0
LAYER
  2
型材断面
 70
     0
 62
    47
  6
CONTINUOUS
  0
LAYER
  2
ガラス
 70
     0
 62
    48
  6
CONTINUOUS
  0
LAYER
  2
ゴム等
 70
     0
 62
    63
  6
CONTINUOUS
  0
LAYER
  2
ボルト／ビス
 70
     0
 62
    64
  6
CONTINUOUS
  0
LAYER
  2
文字
 70
     0
 62
    79
  6
CONTINUOUS
  0
LAYER
  2
寸法
 70
     0
 62
    80
  6
CONTINUOUS
  0
LAYER
  2
ﾊｯﾁﾝｸﾞ
 70
     0
 62
    95
  6
CONTINUOUS
  0
LAYER
  2
別途部材
 70
     0
 62
    96
  6
CONTINUOUS
  0
LAYER
  2
曲げ物
 70
     0
 62
   111
  6
CONTINUOUS
  0
LAYER
  2
鉄骨等
 70
     0
 62
   112
  6
CONTINUOUS
  0
LAYER
  2
St
 70
     0
 62
   127
  6
CONTINUOUS
  0
LAYER
  2
その他部品等
 70
     0
 62
   128
  6
CONTINUOUS
  0
LAYER
  2
ｶﾞｽｹｯﾄ
 70
     0
 62
   143
  6
CONTINUOUS
  0
LAYER
  2
ｽｹｯﾁ
 70
     0
 62
    14
  6
CONTINUOUS
  0
LAYER
  2
0
 70
     0
 62
    17
  6
CONTINUOUS
  0
LAYER
  2
1
 70
     0
 62
    30
  6
CONTINUOUS
  0
LAYER
  2
4
 70
     0
 62
    33
  6
CONTINUOUS
  0
LAYER
  2
ﾚｲﾔ3
 70
     0
 62
    46
  6
CONTINUOUS
  0
LAYER
  2
外形線
 70
     0
 62
    49
  6
CONTINUOUS
  0
LAYER
  2
部品
 70
     0
 62
    14
  6
CONTINUOUS
  0
LAYER
  2
サッシ芯
 70
     0
 62
    17
  6
DASHDOTX2
  0
LAYER
  2
寸法線
 70
     0
 62
    62
  6
CONTINUOUS
  0
LAYER
  2
姿図外形線
 70
     0
 62
    65
  6
CONTINUOUS
  0
LAYER
  2
姿補助線
 70
     0
 62
    30
  6
CONTINUOUS
  0
LAYER
  2
透視線
 70
     0
 62
    78
  6
DOT
  0
LAYER
  2
用紙
 70
     0
 62
    81
  6
CONTINUOUS
  0
LAYER
  2
実線図枠
 70
     0
 62
    94
  6
CONTINUOUS
  0
LAYER
  2
補助図枠
 70
     0
 62
    97
  6
CONTINUOUS
  0
LAYER
  2
建具記号
 70
     0
 62
   110
  6
CONTINUOUS
  0
LAYER
  2
補助文字
 70
     0
 62
   113
  6
CONTINUOUS
  0
LAYER
  2
LAYER010
 70
     0
 62
    11
  6
CONTINUOUS
  0
ENDTAB
  0
TABLE
  2
STYLE
 70
    10
  0
STYLE
  2
STANDARD
 70
     0
 40
1.0
 41
1.0
 42
1.0
 50
0.0
 71
     0
  3
TXT
  4
BIGFONT
  0
STYLE
  2
TATE
 70
     4
 40
1.0
 41
1.0
 42
1.0
 50
0.0
 71
     0
  3
TXT
  4
BIGFONT
  0
STYLE
  2
TextStyle03
 70
     0
 40
1.0
 41
1.0
 42
1.0
 50
0.0
 71
     0
  3
MONOTXT
  4
BIGFONT
  0
STYLE
  2
TextStyle04
 70
     0
 40
1.0
 41
1.0
 42
1.0
 50
0.0
 71
     0
  3
MONOTXT
  4
BIGFONT
  0
STYLE
  2
TextStyle05
 70
     0
 40
1.0
 41
1.0
 42
1.0
 50
0.0
 71
     0
  3
MONOTXT
  4
BIGFONT
  0
STYLE
  2
TextStyle06
 70
     0
 40
1.0
 41
1.0
 42
1.0
 50
0.0
 71
     0
  3
MONOTXT
  4
BIGFONT
  0
STYLE
  2
TextStyle07
 70
     0
 40
1.0
 41
1.0
 42
1.0
 50
0.0
 71
     0
  3
MONOTXT
  4
BIGFONT
  0
STYLE
  2
TextStyle08
 70
     0
 40
1.0
 41
1.0
 42
1.0
 50
0.0
 71
     0
  3
MONOTXT
  4
BIGFONT
  0
STYLE
  2
TextStyle09
 70
     0
 40
1.0
 41
1.0
 42
1.0
 50
0.0
 71
     0
  3
MONOTXT
  4
BIGFONT
  0
STYLE
  2
TextStyle10
 70
     0
 40
1.0
 41
1.0
 42
1.0
 50
0.0
 71
     0
  3
MONOTXT
  4
BIGFONT
  0
ENDTAB
  0
ENDSEC
  0
SECTION
  2
BLOCKS
  0
BLOCK
  2
*GRP_0001
 70
    65
 10
0.0
 20
0.0
  0
LINE
  8
型材断面
  6
CONTINUOUS
 10
195.0
 20
133.5
 11
195.0
 21
-133.5
  0
LINE
  8
型材断面
  6
CONTINUOUS
 10
195.0
 20
-133.5
 11
-185.0
 21
-133.5
  0
LINE
  8
型材断面
  6
CONTINUOUS
 10
-185.0
 20
-133.5
 11
-185.0
 21
133.5
  0
LINE
  8
型材断面
  6
CONTINUOUS
 10
195.0
 20
133.5
 11
-185.0
 21
133.5
  0
LINE
  8
型材断面
  6
CONTINUOUS
 10
145.0
 20
-133.5
 11
145.0
 21
-118.5
  0
LINE
  8
型材断面
  6
CONTINUOUS
 10
195.0
 20
-118.5
 11
145.0
 21
-118.5
  0
ENDBLK
  0
BLOCK
  2
*DIM_0002
 70
    65
 10
0.0
 20
0.0
  0
LINE
  8
寸法
  6
BYBLOCK
 62
     0
 10
21.33489
 20
-22.536362
 11
-61.998442
 21
-22.536362
  0
POINT
  8
寸法
 62
     0
 10
21.33489
 20
-22.536362
  0
POINT
  8
寸法
 62
     0
 10
-61.998442
 20
-22.536362
  0
TEXT
  7
TextStyle03
  8
寸法
  6
CONTINUOUS
 62
     0
 10
-32.06875
 20
-22.175
  1
呼称寸法　2500
 40
3.0
 72
     5
 11
-8.63125
 21
-22.175
  0
ENDBLK
  0
BLOCK
  2
*DIM_0003
 70
    65
 10
0.0
 20
0.0
  0
LINE
  8
寸法
  6
BYBLOCK
 62
     0
 10
-45.331775
 20
9.76892
 11
-45.331775
 21
4.76579
  0
LINE
  8
寸法
  6
BYBLOCK
 62
     0
 10
4.66822
 20
9.76892
 11
4.66822
 21
4.76579
  0
LINE
  8
寸法
  6
BYBLOCK
 62
     0
 10
-45.331775
 20
4.76579
 11
4.66822
 21
4.76579
  0
POINT
  8
寸法
 62
     0
 10
-45.331775
 20
4.76579
  0
POINT
  8
寸法
 62
     0
 10
4.66822
 20
4.76579
  0
TEXT
  7
TextStyle03
  8
寸法
  6
CONTINUOUS
 62
     0
 10
-23.63125
 20
5.125
  1
1500
 40
3.0
 72
     5
 11
-17.06875
 21
5.125
  0
ENDBLK
  0
BLOCK
  2
*DIM_0004
 70
    65
 10
0.0
 20
0.0
  0
LINE
  8
寸法
  6
BYBLOCK
 62
     0
 10
24.334935
 20
-78.991382
 11
24.334935
 21
-22.536362
  0
LINE
  8
寸法
  6
BYBLOCK
 62
     0
 10
21.33489
 20
-22.536362
 11
24.334935
 21
-22.536362
  0
POINT
  8
寸法
 62
     0
 10
21.33489
 20
-22.536362
  0
POINT
  8
寸法
 62
     0
 10
24.334935
 20
-22.536362
  0
TEXT
  7
TextStyle03
  8
寸法
  6
CONTINUOUS
 62
     0
 10
21.23125
 20
-22.175
  1
90
 40
3.0
 72
     5
 11
24.41875
 21
-22.175
  0
ENDBLK
  0
BLOCK
  2
*DIM_0005
 70
    65
 10
0.0
 20
0.0
  0
LINE
  8
寸法
  6
BYBLOCK
 62
     0
 10
-64.99849
 20
-78.991382
 11
-64.99849
 21
-22.536362
  0
LINE
  8
寸法
  6
BYBLOCK
 62
     0
 10
-61.998445
 20
-22.536362
 11
-64.99849
 21
-22.536362
  0
POINT
  8
寸法
 62
     0
 10
-61.998445
 20
-22.536362
  0
POINT
  8
寸法
 62
     0
 10
-64.99849
 20
-22.536362
  0
TEXT
  7
TextStyle03
  8
寸法
  6
CONTINUOUS
 62
     0
 10
-65.09375
 20
-22.175
  1
90
 40
3.0
 72
     5
 11
-61.90625
 21
-22.175
  0
ENDBLK
  0
BLOCK
  2
*DIM_0006
 70
    65
 10
0.0
 20
0.0
  0
LINE
  8
寸法
  6
BYBLOCK
 62
     0
 10
117.421445
 20
-49.867045
 11
125.856293
 21
-49.867045
  0
LINE
  8
寸法
  6
BYBLOCK
 62
     0
 10
117.421445
 20
-92.533713
 11
125.856293
 21
-92.533713
  0
LINE
  8
寸法
  6
BYBLOCK
 62
     0
 10
125.856293
 20
-49.867045
 11
125.856293
 21
-92.533713
  0
POINT
  8
寸法
 62
     0
 10
125.856293
 20
-49.867045
  0
POINT
  8
寸法
 62
     0
 10
125.856293
 20
-92.533713
  0
TEXT
  7
TextStyle03
  8
寸法
  6
CONTINUOUS
 62
     0
 10
125.525
 20
-74.48125
  1
1280
 40
3.0
 50
90.0
 72
     5
 11
125.525
 21
-67.91875
  0
ENDBLK
  0
BLOCK
  2
*DIM_0007
 70
    65
 10
0.0
 20
0.0
  0
LINE
  8
寸法
  6
BYBLOCK
 62
     0
 10
-64.998442
 20
23.399048
 11
-93.943607
 21
23.399048
  0
LINE
  8
寸法
  6
BYBLOCK
 62
     0
 10
-64.998442
 20
46.732382
 11
-93.943607
 21
46.732382
  0
LINE
  8
寸法
  6
BYBLOCK
 62
     0
 10
-93.943607
 20
23.399048
 11
-93.943607
 21
46.732382
  0
POINT
  8
寸法
 62
     0
 10
-93.943607
 20
23.399048
  0
POINT
  8
寸法
 62
     0
 10
-93.943607
 20
46.732382
  0
TEXT
  7
TextStyle03
  8
寸法
  6
CONTINUOUS
 62
     0
 10
-94.325
 20
32.6125
  1
700
 40
3.0
 50
90.0
 72
     5
 11
-94.325
 21
37.4875
  0
ENDBLK
  0
BLOCK
  2
*DIM_0008
 70
    65
 10
0.0
 20
0.0
  0
LINE
  8
寸法
  6
BYBLOCK
 62
     0
 10
-55.331778
 20
59.73238
 11
-55.331778
 21
89.48
  0
LINE
  8
寸法
  6
BYBLOCK
 62
     0
 10
-31.998445
 20
59.73238
 11
-31.998445
 21
89.48
  0
LINE
  8
寸法
  6
BYBLOCK
 62
     0
 10
-55.331778
 20
89.48
 11
-31.998445
 21
89.48
  0
POINT
  8
寸法
 62
     0
 10
-55.331778
 20
89.48
  0
POINT
  8
寸法
 62
     0
 10
-31.998445
 20
89.48
  0
TEXT
  7
TextStyle03
  8
寸法
  6
CONTINUOUS
 62
     0
 10
-46.1125
 20
89.85
  1
700
 40
3.0
 72
     5
 11
-41.2375
 21
89.85
  0
ENDBLK
  0
BLOCK
  2
*DIM_0009
 70
    65
 10
0.0
 20
0.0
  0
LINE
  8
寸法
  6
BYBLOCK
 62
     0
 10
-8.66511
 20
59.73238
 11
-8.66511
 21
89.48
  0
LINE
  8
寸法
  6
BYBLOCK
 62
     0
 10
-31.998445
 20
89.48
 11
-8.66511
 21
89.48
  0
POINT
  8
寸法
 62
     0
 10
-8.66511
 20
89.48
  0
TEXT
  7
TextStyle03
  8
寸法
  6
CONTINUOUS
 62
     0
 10
-22.7875
 20
89.85
  1
700
 40
3.0
 72
     5
 11
-17.9125
 21
89.85
  0
ENDBLK
  0
BLOCK
  2
*DIM_0010
 70
    65
 10
0.0
 20
0.0
  0
LINE
  8
寸法
  6
BYBLOCK
 62
     0
 10
14.668223
 20
59.73238
 11
14.668223
 21
89.48
  0
LINE
  8
寸法
  6
BYBLOCK
 62
     0
 10
-8.66511
 20
89.48
 11
14.668223
 21
89.48
  0
POINT
  8
寸法
 62
     0
 10
14.668223
 20
89.48
  0
TEXT
  7
TextStyle03
  8
寸法
  6
CONTINUOUS
 62
     0
 10
0.5625
 20
89.85
  1
700
 40
3.0
 72
     5
 11
5.4375
 21
89.85
  0
ENDBLK
  0
BLOCK
  2
*DIM_0011
 70
    65
 10
0.0
 20
0.0
  0
LINE
  8
寸法
  6
CONTINUOUS
 10
112.938842
 20
70.37154
 11
116.25551
 21
70.37154
  0
POINT
  8
寸法
 10
112.938842
 20
70.37154
  0
POINT
  8
寸法
 10
116.25551
 20
70.37154
  0
TEXT
  7
TextStyle03
  8
寸法
  6
CONTINUOUS
 10
111.09375
 20
70.55
  1
99.5
 40
3.0
 72
     5
 11
117.65625
 21
70.55
  0
ENDBLK
  0
BLOCK
  2
*DIM_0012
 70
    65
 10
0.0
 20
0.0
  0
LINE
  8
寸法
  6
CONTINUOUS
 10
34.974098
 20
-78.23267
 11
34.974098
 21
-81.549338
  0
POINT
  8
寸法
 10
34.974098
 20
-78.23267
  0
POINT
  8
寸法
 10
34.974098
 20
-81.549338
  0
TEXT
  7
TextStyle03
  8
寸法
  6
CONTINUOUS
 10
38.125
 20
-83.05625
  1
99.5
 40
3.0
 50
90.0
 72
     5
 11
38.125
 21
-76.49375
  0
ENDBLK
  0
BLOCK
  2
*DIM_0013
 70
    65
 10
0.0
 20
0.0
  0
LINE
  8
寸法
  6
CONTINUOUS
 10
116.421445
 20
-39.671115
 11
75.654777
 21
-39.671115
  0
POINT
  8
寸法
 10
116.421445
 20
-39.671115
  0
POINT
  8
寸法
 10
75.654777
 20
-39.671115
  0
TEXT
  7
TextStyle03
  8
寸法
  6
CONTINUOUS
 10
92.74375
 20
-39.325
  1
1223
 40
3.0
 72
     5
 11
99.30625
 21
-39.325
  0
ENDBLK
  0
ENDSEC
  0
SECTION
  2
ENTITIES
  0
POLYLINE
  8
通り芯
  6
CONTINUOUS
 66
     1
 70
     1
  0
VERTEX
  8
通り芯
 10
-210.0
 20
-148.5
  0
VERTEX
  8
通り芯
 10
210.0
 20
-148.5
  0
VERTEX
  8
通り芯
 10
210.0
 20
148.5
  0
VERTEX
  8
通り芯
 10
-210.0
 20
148.5
  0
SEQEND
  0
INSERT
  2
*GRP_0001
  8
型材断面
  6
CONTINUOUS
 10
0.0
 20
0.0
  0
LINE
  8
型材断面
  6
DASHDOT
 10
21.33489
 20
-87.251428
 11
21.33489
 21
56.73238
  0
LINE
  8
型材断面
  6
DASHDOT
 10
-20.331778
 20
-87.251428
 11
-20.331778
 21
56.73238
  0
LINE
  8
型材断面
  6
DASHDOT
 10
-61.998442
 20
-87.251428
 11
-61.998442
 21
56.73238
  0
LINE
  8
型材断面
  6
CONTINUOUS
 10
-64.628572
 20
35.065715
 11
-67.21908
 21
36.561345
  0
LINE
  8
型材断面
  6
CONTINUOUS
 10
-64.628572
 20
35.065715
 11
-67.21908
 21
33.570085
  0
LINE
  8
型材断面
  6
CONTINUOUS
 10
-67.21908
 20
33.570085
 11
-67.21908
 21
36.561345
  0
LINE
  8
型材断面
  6
CONTINUOUS
 10
-45.331775
 20
59.36251
 11
-46.827405
 21
61.953017
  0
LINE
  8
型材断面
  6
CONTINUOUS
 10
-45.331775
 20
59.36251
 11
-43.836145
 21
61.953017
  0
LINE
  8
型材断面
  6
CONTINUOUS
 10
-43.836145
 20
61.953017
 11
-46.827405
 21
61.953017
  0
LINE
  8
型材断面
  6
CONTINUOUS
 10
-102.85065
 20
101.239727
 11
-104.34628
 21
98.64922
  0
LINE
  8
型材断面
  6
CONTINUOUS
 10
-102.85065
 20
101.239727
 11
-101.35502
 21
98.64922
  0
LINE
  8
型材断面
  6
CONTINUOUS
 10
-101.35502
 20
98.64922
 11
-104.34628
 21
98.64922
  0
LINE
  8
型材断面
  6
CONTINUOUS
 10
-108.873237
 20
97.710625
 11
-62.63146
 21
97.710625
  0
LINE
  8
型材断面
  6
CONTINUOUS
 10
-45.331775
 20
10.76892
 11
-46.827405
 21
8.178413
  0
LINE
  8
型材断面
  6
CONTINUOUS
 10
-45.331775
 20
10.76892
 11
-43.836145
 21
8.178413
  0
LINE
  8
型材断面
  6
CONTINUOUS
 10
-43.836145
 20
8.178413
 11
-46.827405
 21
8.178413
  0
LINE
  8
型材断面
  6
CONTINUOUS
 10
23.965018
 20
35.065715
 11
26.555525
 21
36.561345
  0
LINE
  8
型材断面
  6
CONTINUOUS
 10
23.965018
 20
35.065715
 11
26.555525
 21
33.570085
  0
LINE
  8
型材断面
  6
CONTINUOUS
 10
26.555525
 20
33.570085
 11
26.555525
 21
36.561345
  0
LINE
  8
型材断面
  6
CONTINUOUS
 10
4.66822
 20
59.36251
 11
6.16385
 21
61.953017
  0
LINE
  8
型材断面
  6
CONTINUOUS
 10
4.66822
 20
59.36251
 11
3.17259
 21
61.953017
  0
LINE
  8
型材断面
  6
CONTINUOUS
 10
3.17259
 20
61.953017
 11
6.16385
 21
61.953017
  0
LINE
  8
型材断面
  6
CONTINUOUS
 10
4.66822
 20
10.76892
 11
6.16385
 21
8.178413
  0
LINE
  8
型材断面
  6
CONTINUOUS
 10
4.66822
 20
10.76892
 11
3.17259
 21
8.178413
  0
LINE
  8
型材断面
  6
CONTINUOUS
 10
3.17259
 20
8.178413
 11
6.16385
 21
8.178413
  0
LINE
  8
型材断面
  6
CONTINUOUS
 10
-108.873237
 20
91.885752
 11
-62.63146
 21
91.885752
  0
LINE
  8
型材断面
  6
CONTINUOUS
 10
-64.99849
 20
10.399007
 11
-20.331778
 21
10.399007
  0
LINE
  8
型材断面
  6
CONTINUOUS
 10
24.334935
 20
10.399007
 11
-20.331778
 21
10.399007
  0
LINE
  8
型材断面
  6
CONTINUOUS
 10
24.334935
 20
59.732423
 11
-20.331778
 21
59.732423
  0
LINE
  8
型材断面
  6
CONTINUOUS
 10
-64.99849
 20
59.732423
 11
-20.331778
 21
59.732423
  0
CIRCLE
  8
型材断面
  6
CONTINUOUS
 62
    47
 10
115.755513
 20
59.732323
 40
0.011113
  0
LINE
  8
型材断面
  6
CONTINUOUS
 62
    47
 10
116.25551
 20
59.232332
 11
116.25551
 21
59.732323
  0
LINE
  8
型材断面
  6
CONTINUOUS
 62
    47
 10
116.25551
 20
59.732323
 11
115.755513
 21
59.732323
  0
LINE
  8
型材断面
  6
CONTINUOUS
 62
    47
 10
115.755513
 20
59.732323
 11
115.258332
 21
56.798992
  0
LINE
  8
型材断面
  6
CONTINUOUS
 62
    47
 10
116.25551
 20
59.232332
 11
116.75551
 21
59.232332
  0
LINE
  8
型材断面
  6
CONTINUOUS
 62
    47
 10
115.258332
 20
56.798992
 11
114.60551
 21
56.798992
  0
CIRCLE
  8
型材断面
  6
CONTINUOUS
 62
    47
 10
115.755513
 20
10.399007
 40
0.011113
  0
LINE
  8
型材断面
  6
CONTINUOUS
 62
    47
 10
116.25551
 20
10.898998
 11
116.25551
 21
10.399007
  0
LINE
  8
型材断面
  6
CONTINUOUS
 62
    47
 10
116.25551
 20
10.399007
 11
115.755513
 21
10.399007
  0
LINE
  8
型材断面
  6
CONTINUOUS
 62
    47
 10
115.755513
 20
10.399007
 11
115.258332
 21
13.332337
  0
LINE
  8
型材断面
  6
CONTINUOUS
 62
    47
 10
116.25551
 20
10.898998
 11
116.75551
 21
10.898998
  0
LINE
  8
型材断面
  6
CONTINUOUS
 62
    47
 10
115.258332
 20
13.332337
 11
114.60551
 21
13.332337
  0
LINE
  8
型材断面
  6
CONTINUOUS
 62
    47
 10
113.10551
 20
11.752537
 11
113.10551
 21
35.065665
  0
LINE
  8
型材断面
  6
CONTINUOUS
 62
    47
 10
112.938842
 20
11.909058
 11
112.938842
 21
35.065665
  0
LINE
  8
型材断面
  6
CONTINUOUS
 62
    47
 10
114.60551
 20
11.909058
 11
114.60551
 21
35.065665
  0
LINE
  8
型材断面
  6
CONTINUOUS
 10
115.258332
 20
13.332285
 11
115.258332
 21
35.065665
  0
LINE
  8
型材断面
  6
CONTINUOUS
 10
115.755515
 20
10.398953
 11
115.755515
 21
35.065665
  0
LINE
  8
型材断面
  6
CONTINUOUS
 62
    47
 10
116.25551
 20
10.398953
 11
116.25551
 21
35.065665
  0
LINE
  8
型材断面
  6
CONTINUOUS
 10
116.75551
 20
10.898942
 11
116.75551
 21
35.065665
  0
LINE
  8
型材断面
  6
CONTINUOUS
 62
    47
 10
116.25551
 20
59.732378
 11
116.25551
 21
35.065665
  0
LINE
  8
型材断面
  6
CONTINUOUS
 10
115.258332
 20
56.799045
 11
115.258332
 21
35.065665
  0
LINE
  8
型材断面
  6
CONTINUOUS
 62
    47
 10
113.10551
 20
58.378793
 11
113.10551
 21
35.065665
  0
LINE
  8
型材断面
  6
CONTINUOUS
 62
    47
 10
112.938842
 20
58.222272
 11
112.938842
 21
35.065665
  0
LINE
  8
型材断面
  6
CONTINUOUS
 62
    47
 10
114.60551
 20
58.222272
 11
114.60551
 21
35.065665
  0
LINE
  8
型材断面
  6
CONTINUOUS
 10
115.755515
 20
59.732378
 11
115.755515
 21
35.065665
  0
LINE
  8
型材断面
  6
CONTINUOUS
 10
116.75551
 20
59.232388
 11
116.75551
 21
35.065665
  0
CIRCLE
  8
型材断面
  6
CONTINUOUS
 62
    47
 10
-64.998435
 20
-81.04934
 40
0.011113
  0
LINE
  8
型材断面
  6
CONTINUOUS
 62
    47
 10
-64.498442
 20
-81.549338
 11
-64.998435
 21
-81.549338
  0
LINE
  8
型材断面
  6
CONTINUOUS
 62
    47
 10
-64.998435
 20
-81.549338
 11
-64.998435
 21
-81.04934
  0
LINE
  8
型材断面
  6
CONTINUOUS
 62
    47
 10
-64.998435
 20
-81.04934
 11
-62.065103
 21
-80.55216
  0
LINE
  8
型材断面
  6
CONTINUOUS
 62
    47
 10
-64.498442
 20
-81.549338
 11
-64.498442
 21
-82.049338
  0
LINE
  8
型材断面
  6
CONTINUOUS
 62
    47
 10
-62.065103
 20
-80.55216
 11
-62.065103
 21
-79.899338
  0
CIRCLE
  8
型材断面
  6
CONTINUOUS
 62
    47
 10
24.334882
 20
-81.04934
 40
0.011113
  0
LINE
  8
型材断面
  6
CONTINUOUS
 62
    47
 10
23.83489
 20
-81.549338
 11
24.334882
 21
-81.549338
  0
LINE
  8
型材断面
  6
CONTINUOUS
 62
    47
 10
24.334882
 20
-81.549338
 11
24.334882
 21
-81.04934
  0
LINE
  8
型材断面
  6
CONTINUOUS
 62
    47
 10
24.334882
 20
-81.04934
 11
21.40155
 21
-80.55216
  0
LINE
  8
型材断面
  6
CONTINUOUS
 62
    47
 10
23.83489
 20
-81.549338
 11
23.83489
 21
-82.049338
  0
LINE
  8
型材断面
  6
CONTINUOUS
 62
    47
 10
21.40155
 20
-80.55216
 11
21.40155
 21
-79.899338
  0
LINE
  8
型材断面
  6
CONTINUOUS
 10
-64.998488
 20
-81.049342
 11
-20.331778
 21
-81.049342
  0
LINE
  8
型材断面
  6
CONTINUOUS
 62
    47
 10
-63.488382
 20
-79.899338
 11
-20.331778
 21
-79.899338
  0
LINE
  8
型材断面
  6
CONTINUOUS
 10
-62.065157
 20
-80.55216
 11
-20.331778
 21
-80.55216
  0
LINE
  8
型材断面
  6
CONTINUOUS
 62
    47
 10
-64.998488
 20
-81.549338
 11
-20.331778
 21
-81.549338
  0
LINE
  8
型材断面
  6
CONTINUOUS
 10
-64.498498
 20
-82.049338
 11
-20.331778
 21
-82.049338
  0
LINE
  8
型材断面
  6
CONTINUOUS
 62
    47
 10
-63.644905
 20
-78.399338
 11
-20.331778
 21
-78.399338
  0
LINE
  8
型材断面
  6
CONTINUOUS
 62
    47
 10
-63.488382
 20
-78.23267
 11
-20.331778
 21
-78.23267
  0
LINE
  8
型材断面
  6
CONTINUOUS
 62
    47
 10
24.334935
 20
-81.549338
 11
-20.331778
 21
-81.549338
  0
LINE
  8
型材断面
  6
CONTINUOUS
 10
23.834945
 20
-82.049338
 11
-20.331778
 21
-82.049338
  0
LINE
  8
型材断面
  6
CONTINUOUS
 10
24.334935
 20
-81.049342
 11
-20.331778
 21
-81.049342
  0
LINE
  8
型材断面
  6
CONTINUOUS
 10
21.401603
 20
-80.55216
 11
-20.331778
 21
-80.55216
  0
LINE
  8
型材断面
  6
CONTINUOUS
 62
    47
 10
22.82483
 20
-79.899338
 11
-20.331778
 21
-79.899338
  0
LINE
  8
型材断面
  6
CONTINUOUS
 62
    47
 10
22.981352
 20
-78.399338
 11
-20.331778
 21
-78.399338
  0
LINE
  8
型材断面
  6
CONTINUOUS
 62
    47
 10
22.82483
 20
-78.23267
 11
-20.331778
 21
-78.23267
  0
LINE
  8
型材断面
  6
DASHDOT
 10
123.73152
 20
13.398998
 11
-61.998442
 21
13.398998
  0
LINE
  8
型材断面
  6
DASHDOT
 10
123.73152
 20
56.732332
 11
-61.998442
 21
56.732332
  0
LINE
  8
型材断面
  6
DASHDOT
 10
-61.998442
 20
35.065715
 11
123.73152
 21
35.065715
  0
LINE
  8
型材断面
  6
CONTINUOUS
 10
-40.748445
 20
55.878893
 11
0.08489
 21
55.878893
  0
LINE
  8
型材断面
  6
CONTINUOUS
 10
-40.748445
 20
14.252537
 11
0.08489
 21
14.252537
  0
LINE
  8
型材断面
  6
CONTINUOUS
 10
-19.081778
 20
15.08587
 11
-21.581778
 21
15.08587
  0
LINE
  8
型材断面
  6
CONTINUOUS
 10
-19.081778
 20
55.04556
 11
-21.581778
 21
55.04556
  0
LINE
  8
型材断面
  6
CONTINUOUS
 10
-19.081778
 20
15.08587
 11
-19.081778
 21
55.04556
  0
LINE
  8
型材断面
  6
CONTINUOUS
 10
-21.581778
 20
15.08587
 11
-21.581778
 21
55.04556
  0
LINE
  8
型材断面
  6
CONTINUOUS
 10
24.334937
 20
35.06571
 11
24.334937
 21
59.732423
  0
LINE
  8
型材断面
  6
CONTINUOUS
 10
24.334937
 20
35.06572
 11
24.334937
 21
10.399007
  0
LINE
  8
型材断面
  6
CONTINUOUS
 10
22.745652
 20
11.752537
 11
22.981352
 21
11.988237
  0
LINE
  8
型材断面
  6
CONTINUOUS
 10
24.334937
 20
10.399007
 11
22.86353
 21
11.870415
  0
LINE
  8
型材断面
  6
CONTINUOUS
 10
22.981352
 20
11.988237
 11
20.481352
 21
14.488237
  0
LINE
  8
型材断面
  6
CONTINUOUS
 10
22.745652
 20
11.752537
 11
20.245652
 21
14.252537
  0
LINE
  8
型材断面
  6
CONTINUOUS
 10
20.245652
 20
14.252537
 11
20.481352
 21
14.488237
  0
LINE
  8
型材断面
  6
CONTINUOUS
 10
20.481352
 20
34.649048
 11
20.481352
 21
14.488237
  0
LINE
  8
型材断面
  6
CONTINUOUS
 10
22.745652
 20
58.378893
 11
22.981352
 21
58.143193
  0
LINE
  8
型材断面
  6
CONTINUOUS
 10
24.334937
 20
59.732423
 11
22.86353
 21
58.261015
  0
LINE
  8
型材断面
  6
CONTINUOUS
 10
22.745652
 20
58.378893
 11
20.245652
 21
55.878893
  0
LINE
  8
型材断面
  6
CONTINUOUS
 10
20.245652
 20
55.878893
 11
20.481352
 21
55.643193
  0
LINE
  8
型材断面
  6
CONTINUOUS
 10
20.481352
 20
55.643193
 11
22.981352
 21
58.143193
  0
LINE
  8
型材断面
  6
CONTINUOUS
 10
22.981352
 20
11.988237
 11
22.981352
 21
58.143193
  0
LINE
  8
型材断面
  6
CONTINUOUS
 10
20.481352
 20
35.482382
 11
20.481352
 21
55.643193
  0
LINE
  8
型材断面
  6
CONTINUOUS
 10
0.918225
 20
55.878893
 11
20.245652
 21
55.878893
  0
LINE
  8
型材断面
  6
CONTINUOUS
 10
0.918225
 20
14.252537
 11
20.245652
 21
14.252537
  0
LINE
  8
型材断面
  6
CONTINUOUS
 10
-64.998492
 20
35.06571
 11
-64.998492
 21
59.732423
  0
LINE
  8
型材断面
  6
CONTINUOUS
 10
-64.998492
 20
35.06572
 11
-64.998492
 21
10.399007
  0
LINE
  8
型材断面
  6
CONTINUOUS
 10
-63.409207
 20
11.752537
 11
-63.644908
 21
11.988237
  0
LINE
  8
型材断面
  6
CONTINUOUS
 10
-64.998492
 20
10.399007
 11
-63.527085
 21
11.870415
  0
LINE
  8
型材断面
  6
CONTINUOUS
 10
-63.644908
 20
11.988237
 11
-61.144908
 21
14.488237
  0
LINE
  8
型材断面
  6
CONTINUOUS
 10
-63.409207
 20
11.752537
 11
-60.909207
 21
14.252537
  0
LINE
  8
型材断面
  6
CONTINUOUS
 10
-60.909207
 20
14.252537
 11
-61.144908
 21
14.488237
  0
LINE
  8
型材断面
  6
CONTINUOUS
 10
-61.144908
 20
34.649048
 11
-61.144908
 21
14.488237
  0
LINE
  8
型材断面
  6
CONTINUOUS
 10
-63.409207
 20
58.378893
 11
-63.644908
 21
58.143193
  0
LINE
  8
型材断面
  6
CONTINUOUS
 10
-64.998492
 20
59.732423
 11
-63.527085
 21
58.261015
  0
LINE
  8
型材断面
  6
CONTINUOUS
 10
-63.409207
 20
58.378893
 11
-60.909207
 21
55.878893
  0
LINE
  8
型材断面
  6
CONTINUOUS
 10
-60.909207
 20
55.878893
 11
-61.144908
 21
55.643193
  0
LINE
  8
型材断面
  6
CONTINUOUS
 10
-61.144908
 20
55.643193
 11
-63.644908
 21
58.143193
  0
LINE
  8
型材断面
  6
CONTINUOUS
 10
-63.644908
 20
11.988237
 11
-63.644908
 21
58.143193
  0
LINE
  8
型材断面
  6
CONTINUOUS
 10
-61.144908
 20
35.482382
 11
-61.144908
 21
55.643193
  0
LINE
  8
型材断面
  6
CONTINUOUS
 10
-41.58178
 20
14.252537
 11
-60.909207
 21
14.252537
  0
LINE
  8
型材断面
  6
CONTINUOUS
 10
22.745652
 20
11.752537
 11
-63.409207
 21
11.752537
  0
LINE
  8
型材断面
  6
CONTINUOUS
 10
-41.58178
 20
55.878893
 11
-60.909207
 21
55.878893
  0
LINE
  8
型材断面
  6
CONTINUOUS
 10
22.745652
 20
58.378893
 11
-63.409207
 21
58.378893
  0
TEXT
  7
TextStyle03
  8
文字
  6
CONTINUOUS
 10
-100.1
 20
98.85
  1
は排水穴位置を示す
 40
3.0
 72
     5
 11
-70.1
 21
98.85
  0
TEXT
  7
TextStyle03
  8
文字
  6
CONTINUOUS
 10
60.2
 20
104.525
  1
ＮＳコード：ＮＳＦＫＺ
 40
5.0
 72
     5
 11
121.45
 21
104.525
  0
TEXT
  7
TextStyle03
  8
文字
  6
CONTINUOUS
 10
-103.825
 20
92.8
  1
アンカー数量　１２ヶ所
 40
3.0
 72
     5
 11
-67.075
 21
92.8
  0
TEXT
  7
TextStyle03
  8
文字
  6
CONTINUOUS
 10
97.9
 20
-86.1
  1
網入り6.8t
 40
3.0
 72
     5
 11
114.5875
 21
-86.1
  0
TEXT
  7
TextStyle03
  8
文字
  6
CONTINUOUS
 10
104.575
 20
-90.775
  1
×２枚
 40
3.0
 72
     5
 11
114.325
 21
-90.775
  0
TEXT
  7
TextStyle03
  8
文字
  6
CONTINUOUS
 10
-99.525
 20
23.975
  1
アンカーピッチ
 40
3.0
 50
90.0
 72
     5
 11
-99.525
 21
47.225
  0
TEXT
  7
TextStyle03
  8
文字
  6
CONTINUOUS
 10
-55.375
 20
94.75
  1
アンカーピッチ
 40
3.0
 72
     5
 11
-32.125
 21
94.75
  0
LINE
  8
文字
  6
CONTINUOUS
 10
112.938842
 20
70.37154
 11
112.938842
 21
61.018383
  0
LINE
  8
文字
  6
CONTINUOUS
 10
116.25551
 20
70.37154
 11
116.25551
 21
61.083737
  0
LINE
  8
文字
  6
CONTINUOUS
 10
34.974098
 20
-78.23267
 11
25.620942
 21
-78.23267
  0
LINE
  8
文字
  6
CONTINUOUS
 10
34.974098
 20
-81.549338
 11
25.686295
 21
-81.549338
  0
LINE
  8
文字
  6
CONTINUOUS
 10
116.421445
 20
-39.671115
 11
116.421445
 21
-48.107473
  0
LINE
  8
文字
  6
CONTINUOUS
 10
75.654777
 20
-39.671115
 11
75.654777
 21
-48.107473
  0
TEXT
  7
TextStyle03
  8
文字
  6
CONTINUOUS
 10
60.05
 20
125.25
  1
シリーズ：ＴＦ２ＦＫＬ
 40
5.0
 72
     5
 11
121.3
 21
125.25
  0
TEXT
  7
TextStyle03
  8
文字
  6
CONTINUOUS
 10
60.05
 20
119.625
  1
　　　　　（固定）1300×2500タイプ
 40
5.0
 72
     5
 11
155.05
 21
119.625
  0
TEXT
  7
TextStyle03
  8
文字
  6
CONTINUOUS
 10
60.05
 20
114.0
  1
図面名　：外観姿図
 40
5.0
 72
     5
 11
110.05
 21
114.0
  0
TEXT
  7
TextStyle03
  8
文字
  6
CONTINUOUS
 10
60.05
 20
108.375
  1
　　　　　　
 40
5.0
 72
     5
 11
93.175
 21
108.375
  0
LINE
  8
文字
  6
CONTINUOUS
 10
0.918225
 20
14.252537
 11
0.918225
 21
11.752537
  0
LINE
  8
文字
  6
CONTINUOUS
 10
0.08489
 20
14.252537
 11
0.08489
 21
11.752537
  0
LINE
  8
文字
  6
CONTINUOUS
 10
-41.58178
 20
14.252537
 11
-41.58178
 21
11.752537
  0
LINE
  8
文字
  6
CONTINUOUS
 10
-40.748445
 20
14.252537
 11
-40.748445
 21
11.752537
  0
LINE
  8
文字
  6
CONTINUOUS
 10
0.918225
 20
55.878893
 11
0.918225
 21
58.378893
  0
LINE
  8
文字
  6
CONTINUOUS
 10
0.08489
 20
55.878893
 11
0.08489
 21
58.378893
  0
LINE
  8
文字
  6
CONTINUOUS
 10
-41.58178
 20
55.878893
 11
-41.58178
 21
58.378893
  0
LINE
  8
文字
  6
CONTINUOUS
 10
-40.748445
 20
55.878893
 11
-40.748445
 21
58.378893
  0
LINE
  8
文字
  6
CONTINUOUS
 10
20.481352
 20
34.649048
 11
22.981352
 21
34.649048
  0
LINE
  8
文字
  6
CONTINUOUS
 10
20.481352
 20
35.482382
 11
22.981352
 21
35.482382
  0
LINE
  8
文字
  6
CONTINUOUS
 10
-61.144908
 20
34.649048
 11
-63.644908
 21
34.649048
  0
LINE
  8
文字
  6
CONTINUOUS
 10
-61.144908
 20
35.482382
 11
-63.644908
 21
35.482382
  0
INSERT
  2
*DIM_0002
  8
寸法
  6
CONTINUOUS
 10
0.0
 20
0.0
  0
INSERT
  2
*DIM_0003
  8
寸法
  6
CONTINUOUS
 10
0.0
 20
0.0
  0
INSERT
  2
*DIM_0004
  8
寸法
  6
CONTINUOUS
 10
0.0
 20
0.0
  0
INSERT
  2
*DIM_0005
  8
寸法
  6
CONTINUOUS
 10
0.0
 20
0.0
  0
INSERT
  2
*DIM_0006
  8
寸法
  6
CONTINUOUS
 10
0.0
 20
0.0
  0
INSERT
  2
*DIM_0007
  8
寸法
  6
CONTINUOUS
 10
0.0
 20
0.0
  0
INSERT
  2
*DIM_0008
  8
寸法
  6
CONTINUOUS
 10
0.0
 20
0.0
  0
INSERT
  2
*DIM_0009
  8
寸法
  6
CONTINUOUS
 10
0.0
 20
0.0
  0
INSERT
  2
*DIM_0010
  8
寸法
  6
CONTINUOUS
 10
0.0
 20
0.0
  0
INSERT
  2
*DIM_0011
  8
寸法
  6
CONTINUOUS
 10
0.0
 20
0.0
  0
INSERT
  2
*DIM_0012
  8
寸法
  6
CONTINUOUS
 10
0.0
 20
0.0
  0
INSERT
  2
*DIM_0013
  8
寸法
  6
CONTINUOUS
 10
0.0
 20
0.0
  0
LINE
  8
別途部材
  6
CONTINUOUS
 62
    47
 10
113.038842
 20
58.378793
 11
113.10551
 21
58.378793
  0
ARC
  8
別途部材
  6
CONTINUOUS
 62
    47
 10
113.038839
 20
58.278794
 40
0.1
 50
90.0
 51
180.0
  0
LINE
  8
別途部材
  6
CONTINUOUS
 62
    47
 10
112.938842
 20
58.278793
 11
112.938842
 21
58.222272
  0
LINE
  8
別途部材
  6
CONTINUOUS
 62
    47
 10
114.60551
 20
58.222272
 11
113.10551
 21
58.222272
  0
LINE
  8
別途部材
  6
CONTINUOUS
 62
    47
 10
113.038842
 20
11.752537
 11
113.10551
 21
11.752537
  0
ARC
  8
別途部材
  6
CONTINUOUS
 62
    47
 10
113.038839
 20
11.852536
 40
0.1
 50
180.0
 51
270.0
  0
LINE
  8
別途部材
  6
CONTINUOUS
 62
    47
 10
112.938842
 20
11.852537
 11
112.938842
 21
11.909058
  0
LINE
  8
別途部材
  6
CONTINUOUS
 62
    47
 10
114.60551
 20
11.909058
 11
113.10551
 21
11.909058
  0
LINE
  8
別途部材
  6
CONTINUOUS
 62
    47
 10
-63.644905
 20
-78.33267
 11
-63.644905
 21
-78.399338
  0
ARC
  8
別途部材
  6
CONTINUOUS
 62
    47
 10
-63.544906
 20
-78.332666
 40
0.1
 50
90.0
 51
180.0
  0
LINE
  8
別途部材
  6
CONTINUOUS
 62
    47
 10
-63.544905
 20
-78.23267
 11
-63.488382
 21
-78.23267
  0
LINE
  8
別途部材
  6
CONTINUOUS
 62
    47
 10
-63.488382
 20
-79.899338
 11
-63.488382
 21
-78.399338
  0
LINE
  8
別途部材
  6
CONTINUOUS
 62
    47
 10
22.981352
 20
-78.33267
 11
22.981352
 21
-78.399338
  0
ARC
  8
別途部材
  6
CONTINUOUS
 62
    47
 10
22.881351
 20
-78.332666
 40
0.1
 50
0.0
 51
90.0
  0
LINE
  8
別途部材
  6
CONTINUOUS
 62
    47
 10
22.881352
 20
-78.23267
 11
22.82483
 21
-78.23267
  0
LINE
  8
別途部材
  6
CONTINUOUS
 62
    47
 10
22.82483
 20
-79.899338
 11
22.82483
 21
-78.399338
  0
LINE
  8
曲げ物
  6
CONTINUOUS
 10
2.922293
 20
37.022003
 11
-0.77302
 21
33.32669
  0
LINE
  8
曲げ物
  6
CONTINUOUS
 10
2.218822
 20
35.485893
 11
0.763092
 21
34.030163
  0
LINE
  8
曲げ物
  6
CONTINUOUS
 10
1.386182
 20
36.318533
 11
-0.069548
 21
34.862803
  0
LINE
  8
曲げ物
  6
CONTINUOUS
 10
-38.301623
 20
37.022003
 11
-41.996935
 21
33.32669
  0
LINE
  8
曲げ物
  6
CONTINUOUS
 10
-39.005092
 20
35.485893
 11
-40.460822
 21
34.030163
  0
LINE
  8
曲げ物
  6
CONTINUOUS
 10
-39.837733
 20
36.318533
 11
-41.293462
 21
34.862803
  0
LINE
  8
曲げ物
  6
CONTINUOUS
 10
116.421445
 20
-92.533713
 11
116.421445
 21
-49.867045
  0
LINE
  8
曲げ物
  6
CONTINUOUS
 10
75.654777
 20
-92.533713
 11
75.654777
 21
-49.867045
  0
LINE
  8
曲げ物
  6
CONTINUOUS
 10
116.421445
 20
-49.867045
 11
75.654777
 21
-49.867045
  0
LINE
  8
曲げ物
  6
CONTINUOUS
 10
116.421445
 20
-92.533713
 11
75.654777
 21
-92.533713
  0
CIRCLE
  8
LAYER010
  6
CONTINUOUS
 62
    47
 10
115.755513
 20
59.732323
 40
0.011113
  0
CIRCLE
  8
LAYER010
  6
CONTINUOUS
 62
    47
 10
115.755513
 20
10.399007
 40
0.011113
  0
CIRCLE
  8
LAYER010
  6
CONTINUOUS
 62
    47
 10
-64.998435
 20
-81.04934
 40
0.011113
  0
CIRCLE
  8
LAYER010
  6
CONTINUOUS
 62
    47
 10
24.334882
 20
-81.04934
 40
0.011113
  0
ENDSEC
  0
EOF
