  0
SECTION
  2
HEADER
  9
$EXTMIN
 10
-210.0
 20
-148.5
  9
$EXTMAX
 10
210.0
 20
148.5
  9
$PDMODE
 70
    32
  9
$PDSIZE
 40
0.3
  9
$LTSCALE
 40
10.0
  0
ENDSEC
  0
SECTION
  2
TABLES
  0
TABLE
  2
LTYPE
 70
    15
  0
LTYPE
  2
CONTINUOUS
 70
    64
  3
実線
 72
    65
 73
     0
 40
0.0
  0
LTYPE
  2
DASHED
 70
    64
  3
破線A
 72
    65
 73
     2
 40
0.6
 49
0.4
 49
-0.2
  0
LTYPE
  2
DASHEDX2
 70
    64
  3
破線B
 72
    65
 73
     2
 40
1.3
 49
0.9
 49
-0.4
  0
LTYPE
  2
DASHDOT
 70
    64
  3
１点鎖線A
 72
    65
 73
     4
 40
0.5375
 49
0.375
 49
-0.05
 49
0.0625
 49
-0.05
  0
LTYPE
  2
DASHDOTX2
 70
    64
  3
１点鎖線B
 72
    65
 73
     4
 40
1.075
 49
0.75
 49
-0.1
 49
0.125
 49
-0.1
  0
LTYPE
  2
DIVIDE2
 70
    64
  3
２点鎖線A
 72
    65
 73
     6
 40
0.5125
 49
0.3
 49
-0.0375
 49
0.05
 49
-0.0375
 49
0.05
 49
-0.0375
  0
LTYPE
  2
DIVIDE
 70
    64
  3
２点鎖線B
 72
    65
 73
     6
 40
1.05
 49
0.55
 49
-0.1
 49
0.1
 49
-0.1
 49
0.1
 49
-0.1
  0
LTYPE
  2
DOT
 70
    64
  3
点線A
 72
    65
 73
     2
 40
0.1125
 49
0.0625
 49
-0.05
  0
LTYPE
  2
DOTX2
 70
    64
  3
点線B
 72
    65
 73
     2
 40
0.275
 49
0.15
 49
-0.125
  0
LTYPE
  2
CONTINUOUS
 70
    64
  3
実線
 72
    65
 73
     0
 40
0.0
  0
LTYPE
  2
CONTINUOUS
 70
    64
  3
実線
 72
    65
 73
     0
 40
0.0
  0
LTYPE
  2
CONTINUOUS
 70
    64
  3
実線
 72
    65
 73
     0
 40
0.0
  0
LTYPE
  2
CONTINUOUS
 70
    64
  3
実線
 72
    65
 73
     0
 40
0.0
  0
LTYPE
  2
CONTINUOUS
 70
    64
  3
実線
 72
    65
 73
     0
 40
0.0
  0
LTYPE
  2
CONTINUOUS
 70
    64
  3
実線
 72
    65
 73
     0
 40
0.0
  0
ENDTAB
  0
TABLE
  2
LAYER
 70
    41
  0
LAYER
  2
通り芯
 70
     0
 62
    15
  6
CONTINUOUS
  0
LAYER
  2
補助線
 70
     0
 62
    16
  6
DOT
  0
LAYER
  2
躯体
 70
     0
 62
    31
  6
CONTINUOUS
  0
LAYER
  2
型材
 70
     0
 62
    32
  6
CONTINUOUS
  0
LAYER
  2
型材断面
 70
     0
 62
    47
  6
CONTINUOUS
  0
LAYER
  2
ガラス
 70
     0
 62
    48
  6
CONTINUOUS
  0
LAYER
  2
ゴム等
 70
     0
 62
    63
  6
CONTINUOUS
  0
LAYER
  2
ボルト／ビス
 70
     0
 62
    64
  6
CONTINUOUS
  0
LAYER
  2
文字
 70
     0
 62
    79
  6
CONTINUOUS
  0
LAYER
  2
寸法
 70
     0
 62
    80
  6
CONTINUOUS
  0
LAYER
  2
ﾊｯﾁﾝｸﾞ
 70
     0
 62
    95
  6
CONTINUOUS
  0
LAYER
  2
別途部材
 70
     0
 62
    96
  6
CONTINUOUS
  0
LAYER
  2
曲げ物
 70
     0
 62
   111
  6
CONTINUOUS
  0
LAYER
  2
鉄骨等
 70
     0
 62
   112
  6
CONTINUOUS
  0
LAYER
  2
St
 70
     0
 62
   127
  6
CONTINUOUS
  0
LAYER
  2
その他部品等
 70
     0
 62
   128
  6
CONTINUOUS
  0
LAYER
  2
ｶﾞｽｹｯﾄ
 70
     0
 62
   143
  6
CONTINUOUS
  0
LAYER
  2
ｽｹｯﾁ
 70
     0
 62
    14
  6
CONTINUOUS
  0
LAYER
  2
0
 70
     0
 62
    17
  6
CONTINUOUS
  0
LAYER
  2
1
 70
     0
 62
    30
  6
CONTINUOUS
  0
LAYER
  2
4
 70
     0
 62
    33
  6
CONTINUOUS
  0
LAYER
  2
ﾚｲﾔ3
 70
     0
 62
    46
  6
CONTINUOUS
  0
LAYER
  2
外形線
 70
     0
 62
    49
  6
CONTINUOUS
  0
LAYER
  2
部品
 70
     0
 62
    14
  6
CONTINUOUS
  0
LAYER
  2
サッシ芯
 70
     0
 62
    17
  6
DASHDOTX2
  0
LAYER
  2
寸法線
 70
     0
 62
    62
  6
CONTINUOUS
  0
LAYER
  2
姿図外形線
 70
     0
 62
    65
  6
CONTINUOUS
  0
LAYER
  2
姿補助線
 70
     0
 62
    30
  6
CONTINUOUS
  0
LAYER
  2
透視線
 70
     0
 62
    78
  6
DOT
  0
LAYER
  2
用紙
 70
     0
 62
    81
  6
CONTINUOUS
  0
LAYER
  2
実線図枠
 70
     0
 62
    94
  6
CONTINUOUS
  0
LAYER
  2
補助図枠
 70
     0
 62
    97
  6
CONTINUOUS
  0
LAYER
  2
建具記号
 70
     0
 62
   110
  6
CONTINUOUS
  0
LAYER
  2
補助文字
 70
     0
 62
   113
  6
CONTINUOUS
  0
LAYER
  2
LAYER001
 70
     0
 62
     7
  6
CONTINUOUS
  0
LAYER
  2
LAYER010
 70
     0
 62
    11
  6
CONTINUOUS
  0
LAYER
  2
LAYER011
 70
     0
 62
    12
  6
CONTINUOUS
  0
LAYER
  2
LAYER013
 70
     0
 62
    14
  6
CONTINUOUS
  0
LAYER
  2
LAYER026
 70
     0
 62
    11
  6
CONTINUOUS
  0
LAYER
  2
断面線04
 70
     0
 62
     4
  6
CONTINUOUS
  0
LAYER
  2
投影線02
 70
     0
 62
    12
  6
CONTINUOUS
  0
ENDTAB
  0
TABLE
  2
STYLE
 70
    10
  0
STYLE
  2
STANDARD
 70
     0
 40
1.0
 41
1.0
 42
1.0
 50
0.0
 71
     0
  3
TXT
  4
BIGFONT
  0
STYLE
  2
TATE
 70
     4
 40
1.0
 41
1.0
 42
1.0
 50
0.0
 71
     0
  3
TXT
  4
BIGFONT
  0
STYLE
  2
TextStyle03
 70
     0
 40
1.0
 41
1.0
 42
1.0
 50
0.0
 71
     0
  3
MONOTXT
  4
BIGFONT
  0
STYLE
  2
TextStyle04
 70
     0
 40
1.0
 41
1.0
 42
1.0
 50
0.0
 71
     0
  3
MONOTXT
  4
BIGFONT
  0
STYLE
  2
TextStyle05
 70
     0
 40
1.0
 41
1.0
 42
1.0
 50
0.0
 71
     0
  3
MONOTXT
  4
BIGFONT
  0
STYLE
  2
TextStyle06
 70
     0
 40
1.0
 41
1.0
 42
1.0
 50
0.0
 71
     0
  3
MONOTXT
  4
BIGFONT
  0
STYLE
  2
TextStyle07
 70
     0
 40
1.0
 41
1.0
 42
1.0
 50
0.0
 71
     0
  3
MONOTXT
  4
BIGFONT
  0
STYLE
  2
TextStyle08
 70
     0
 40
1.0
 41
1.0
 42
1.0
 50
0.0
 71
     0
  3
MONOTXT
  4
BIGFONT
  0
STYLE
  2
TextStyle09
 70
     0
 40
1.0
 41
1.0
 42
1.0
 50
0.0
 71
     0
  3
MONOTXT
  4
BIGFONT
  0
STYLE
  2
TextStyle10
 70
     0
 40
1.0
 41
1.0
 42
1.0
 50
0.0
 71
     0
  3
MONOTXT
  4
BIGFONT
  0
ENDTAB
  0
ENDSEC
  0
SECTION
  2
BLOCKS
  0
BLOCK
  2
*HAT_0001
 70
    65
 10
0.0
 20
0.0
  0
LINE
  8
ゴム等
 10
-63.275
 20
-30.2
 11
-62.925
 21
-30.55
  0
LINE
  8
ゴム等
 10
-63.275
 20
-29.55
 11
-62.3
 21
-30.55
  0
LINE
  8
ゴム等
 10
-63.275
 20
-28.925
 11
-61.675
 21
-30.55
  0
LINE
  8
ゴム等
 10
-63.275
 20
-28.3
 11
-61.125
 21
-30.475
  0
LINE
  8
ゴム等
 10
-63.075
 20
-27.9
 11
-61.125
 21
-29.85
  0
LINE
  8
ゴム等
 10
-62.45
 20
-27.9
 11
-61.125
 21
-29.2
  0
LINE
  8
ゴム等
 10
-61.825
 20
-27.9
 11
-61.125
 21
-28.6
  0
LINE
  8
ゴム等
 10
-61.175
 20
-27.9
 11
-61.125
 21
-27.95
  0
ENDBLK
  0
BLOCK
  2
*HAT_0002
 70
    65
 10
0.0
 20
0.0
  0
LINE
  8
ゴム等
 10
54.4
 20
-30.2
 11
54.05
 21
-30.55
  0
LINE
  8
ゴム等
 10
54.4
 20
-29.55
 11
53.425
 21
-30.55
  0
LINE
  8
ゴム等
 10
54.4
 20
-28.925
 11
52.8
 21
-30.55
  0
LINE
  8
ゴム等
 10
54.4
 20
-28.3
 11
52.25
 21
-30.475
  0
LINE
  8
ゴム等
 10
54.2
 20
-27.9
 11
52.25
 21
-29.85
  0
LINE
  8
ゴム等
 10
53.575
 20
-27.9
 11
52.25
 21
-29.2
  0
LINE
  8
ゴム等
 10
52.95
 20
-27.9
 11
52.25
 21
-28.6
  0
LINE
  8
ゴム等
 10
52.3
 20
-27.9
 11
52.25
 21
-27.95
  0
ENDBLK
  0
BLOCK
  2
*HAT_0003
 70
    65
 10
0.0
 20
0.0
  0
LINE
  8
ゴム等
 10
2.525
 20
-30.125
 11
2.875
 21
-30.475
  0
LINE
  8
ゴム等
 10
2.525
 20
-29.475
 11
3.5
 21
-30.475
  0
LINE
  8
ゴム等
 10
2.525
 20
-28.85
 11
4.125
 21
-30.475
  0
LINE
  8
ゴム等
 10
2.525
 20
-28.225
 11
4.675
 21
-30.4
  0
LINE
  8
ゴム等
 10
2.725
 20
-27.825
 11
4.675
 21
-29.775
  0
LINE
  8
ゴム等
 10
3.35
 20
-27.825
 11
4.675
 21
-29.125
  0
LINE
  8
ゴム等
 10
3.975
 20
-27.825
 11
4.675
 21
-28.525
  0
LINE
  8
ゴム等
 10
4.625
 20
-27.825
 11
4.675
 21
-27.875
  0
ENDBLK
  0
BLOCK
  2
*HAT_0004
 70
    65
 10
0.0
 20
0.0
  0
LINE
  8
ゴム等
 10
-11.375
 20
-30.125
 11
-11.725
 21
-30.475
  0
LINE
  8
ゴム等
 10
-11.375
 20
-29.475
 11
-12.35
 21
-30.475
  0
LINE
  8
ゴム等
 10
-11.375
 20
-28.85
 11
-12.975
 21
-30.475
  0
LINE
  8
ゴム等
 10
-11.375
 20
-28.225
 11
-13.525
 21
-30.4
  0
LINE
  8
ゴム等
 10
-11.575
 20
-27.825
 11
-13.525
 21
-29.775
  0
LINE
  8
ゴム等
 10
-12.2
 20
-27.825
 11
-13.525
 21
-29.125
  0
LINE
  8
ゴム等
 10
-12.825
 20
-27.825
 11
-13.525
 21
-28.525
  0
LINE
  8
ゴム等
 10
-13.475
 20
-27.825
 11
-13.525
 21
-27.875
  0
ENDBLK
  0
BLOCK
  2
*HAT_0005
 70
    65
 10
0.0
 20
0.0
  0
LINE
  8
ゴム等
 10
2.525
 20
-89.6
 11
2.875
 21
-89.95
  0
LINE
  8
ゴム等
 10
2.525
 20
-88.95
 11
3.5
 21
-89.95
  0
LINE
  8
ゴム等
 10
2.525
 20
-88.325
 11
4.125
 21
-89.95
  0
LINE
  8
ゴム等
 10
2.525
 20
-87.7
 11
4.675
 21
-89.875
  0
LINE
  8
ゴム等
 10
2.725
 20
-87.3
 11
4.675
 21
-89.25
  0
LINE
  8
ゴム等
 10
3.35
 20
-87.3
 11
4.675
 21
-88.6
  0
LINE
  8
ゴム等
 10
3.975
 20
-87.3
 11
4.675
 21
-88.0
  0
LINE
  8
ゴム等
 10
4.625
 20
-87.3
 11
4.675
 21
-87.35
  0
ENDBLK
  0
BLOCK
  2
*HAT_0006
 70
    65
 10
0.0
 20
0.0
  0
LINE
  8
ゴム等
 10
-11.375
 20
-89.6
 11
-11.725
 21
-89.95
  0
LINE
  8
ゴム等
 10
-11.375
 20
-88.95
 11
-12.35
 21
-89.95
  0
LINE
  8
ゴム等
 10
-11.375
 20
-88.325
 11
-12.975
 21
-89.95
  0
LINE
  8
ゴム等
 10
-11.375
 20
-87.7
 11
-13.525
 21
-89.875
  0
LINE
  8
ゴム等
 10
-11.575
 20
-87.3
 11
-13.525
 21
-89.25
  0
LINE
  8
ゴム等
 10
-12.2
 20
-87.3
 11
-13.525
 21
-88.6
  0
LINE
  8
ゴム等
 10
-12.825
 20
-87.3
 11
-13.525
 21
-88.0
  0
LINE
  8
ゴム等
 10
-13.475
 20
-87.3
 11
-13.525
 21
-87.35
  0
ENDBLK
  0
BLOCK
  2
*HAT_0007
 70
    65
 10
0.0
 20
0.0
  0
LINE
  8
型材断面
  6
DOT
 10
-66.15
 20
-40.475
 11
-65.7
 21
-40.025
  0
LINE
  8
型材断面
  6
DOT
 10
-67.175
 20
-40.65
 11
-65.7
 21
-39.175
  0
LINE
  8
型材断面
  6
DOT
 10
-68.2
 20
-40.825
 11
-65.7
 21
-38.325
  0
LINE
  8
型材断面
  6
DOT
 10
-68.35
 20
-40.15
 11
-66.5
 21
-38.275
  0
LINE
  8
型材断面
  6
DOT
 10
-68.35
 20
-39.3
 11
-67.35
 21
-38.275
  0
LINE
  8
型材断面
  6
DOT
 10
-68.35
 20
-38.45
 11
-68.175
 21
-38.275
  0
ENDBLK
  0
BLOCK
  2
*HAT_0008
 70
    65
 10
0.0
 20
0.0
  0
LINE
  8
型材断面
  6
DOT
 10
57.275
 20
-40.475
 11
56.825
 21
-40.025
  0
LINE
  8
型材断面
  6
DOT
 10
58.3
 20
-40.65
 11
56.825
 21
-39.175
  0
LINE
  8
型材断面
  6
DOT
 10
59.325
 20
-40.825
 11
56.825
 21
-38.325
  0
LINE
  8
型材断面
  6
DOT
 10
59.475
 20
-40.15
 11
57.625
 21
-38.275
  0
LINE
  8
型材断面
  6
DOT
 10
59.475
 20
-39.3
 11
58.475
 21
-38.275
  0
LINE
  8
型材断面
  6
DOT
 10
59.475
 20
-38.45
 11
59.3
 21
-38.275
  0
ENDBLK
  0
BLOCK
  2
*HAT_0009
 70
    65
 10
0.0
 20
0.0
  0
LINE
  8
型材断面
  6
DOT
 10
136.175
 20
15.65
 11
135.725
 21
16.1
  0
LINE
  8
型材断面
  6
DOT
 10
137.2
 20
15.475
 11
135.725
 21
16.95
  0
LINE
  8
型材断面
  6
DOT
 10
138.225
 20
15.3
 11
135.725
 21
17.8
  0
LINE
  8
型材断面
  6
DOT
 10
138.375
 20
15.975
 11
136.525
 21
17.85
  0
LINE
  8
型材断面
  6
DOT
 10
138.375
 20
16.825
 11
137.375
 21
17.85
  0
LINE
  8
型材断面
  6
DOT
 10
138.375
 20
17.675
 11
138.2
 21
17.85
  0
ENDBLK
  0
BLOCK
  2
*HAT_0010
 70
    65
 10
0.0
 20
0.0
  0
LINE
  8
ﾊｯﾁﾝｸﾞ
 10
-60.275
 20
-21.675
 11
-59.825
 21
-21.225
  0
LINE
  8
ﾊｯﾁﾝｸﾞ
 10
-61.2
 20
-21.675
 11
-59.825
 21
-20.3
  0
LINE
  8
ﾊｯﾁﾝｸﾞ
 10
-62.05
 20
-21.575
 11
-59.825
 21
-19.35
  0
LINE
  8
ﾊｯﾁﾝｸﾞ
 10
-62.05
 20
-20.625
 11
-60.25
 21
-18.85
  0
LINE
  8
ﾊｯﾁﾝｸﾞ
 10
-62.05
 20
-19.7
 11
-61.2
 21
-18.85
  0
LINE
  8
ﾊｯﾁﾝｸﾞ
 10
-62.05
 20
-20.8
 11
-61.2
 21
-21.675
  0
LINE
  8
ﾊｯﾁﾝｸﾞ
 10
-62.05
 20
-19.875
 11
-60.25
 21
-21.675
  0
LINE
  8
ﾊｯﾁﾝｸﾞ
 10
-62.05
 20
-18.925
 11
-59.825
 21
-21.15
  0
LINE
  8
ﾊｯﾁﾝｸﾞ
 10
-61.2
 20
-18.85
 11
-59.825
 21
-20.2
  0
LINE
  8
ﾊｯﾁﾝｸﾞ
 10
-60.25
 20
-18.85
 11
-59.825
 21
-19.275
  0
ENDBLK
  0
BLOCK
  2
*HAT_0011
 70
    65
 10
0.0
 20
0.0
  0
LINE
  8
ﾊｯﾁﾝｸﾞ
 10
51.425
 20
-21.675
 11
50.975
 21
-21.225
  0
LINE
  8
ﾊｯﾁﾝｸﾞ
 10
52.35
 20
-21.675
 11
50.975
 21
-20.3
  0
LINE
  8
ﾊｯﾁﾝｸﾞ
 10
53.2
 20
-21.575
 11
50.975
 21
-19.35
  0
LINE
  8
ﾊｯﾁﾝｸﾞ
 10
53.2
 20
-20.625
 11
51.4
 21
-18.85
  0
LINE
  8
ﾊｯﾁﾝｸﾞ
 10
53.2
 20
-19.7
 11
52.35
 21
-18.85
  0
LINE
  8
ﾊｯﾁﾝｸﾞ
 10
53.2
 20
-20.8
 11
52.35
 21
-21.675
  0
LINE
  8
ﾊｯﾁﾝｸﾞ
 10
53.2
 20
-19.875
 11
51.4
 21
-21.675
  0
LINE
  8
ﾊｯﾁﾝｸﾞ
 10
53.2
 20
-18.925
 11
50.975
 21
-21.15
  0
LINE
  8
ﾊｯﾁﾝｸﾞ
 10
52.35
 20
-18.85
 11
50.975
 21
-20.2
  0
LINE
  8
ﾊｯﾁﾝｸﾞ
 10
51.4
 20
-18.85
 11
50.975
 21
-19.275
  0
ENDBLK
  0
BLOCK
  2
*HAT_0012
 70
    65
 10
0.0
 20
0.0
  0
LINE
  8
ﾊｯﾁﾝｸﾞ
 10
6.775
 20
-21.65
 11
7.225
 21
-21.2
  0
LINE
  8
ﾊｯﾁﾝｸﾞ
 10
6.075
 20
-21.65
 11
7.225
 21
-20.5
  0
LINE
  8
ﾊｯﾁﾝｸﾞ
 10
5.375
 20
-21.65
 11
7.225
 21
-19.8
  0
LINE
  8
ﾊｯﾁﾝｸﾞ
 10
4.65
 20
-21.65
 11
7.225
 21
-19.075
  0
LINE
  8
ﾊｯﾁﾝｸﾞ
 10
4.55
 20
-21.05
 11
6.9
 21
-18.7
  0
LINE
  8
ﾊｯﾁﾝｸﾞ
 10
4.55
 20
-20.325
 11
6.175
 21
-18.7
  0
LINE
  8
ﾊｯﾁﾝｸﾞ
 10
4.55
 20
-19.625
 11
5.55
 21
-18.625
  0
LINE
  8
ﾊｯﾁﾝｸﾞ
 10
4.55
 20
-18.925
 11
5.0
 21
-18.475
  0
LINE
  8
ﾊｯﾁﾝｸﾞ
 10
4.55
 20
-21.0
 11
5.2
 21
-21.65
  0
LINE
  8
ﾊｯﾁﾝｸﾞ
 10
4.55
 20
-20.3
 11
5.9
 21
-21.65
  0
LINE
  8
ﾊｯﾁﾝｸﾞ
 10
4.55
 20
-19.575
 11
6.6
 21
-21.65
  0
LINE
  8
ﾊｯﾁﾝｸﾞ
 10
4.55
 20
-18.875
 11
7.225
 21
-21.55
  0
LINE
  8
ﾊｯﾁﾝｸﾞ
 10
4.85
 20
-18.475
 11
7.225
 21
-20.85
  0
LINE
  8
ﾊｯﾁﾝｸﾞ
 10
5.8
 20
-18.7
 11
7.225
 21
-20.125
  0
LINE
  8
ﾊｯﾁﾝｸﾞ
 10
6.5
 20
-18.7
 11
7.225
 21
-19.425
  0
LINE
  8
ﾊｯﾁﾝｸﾞ
 10
7.2
 20
-18.7
 11
7.225
 21
-18.725
  0
ENDBLK
  0
BLOCK
  2
*HAT_0013
 70
    65
 10
0.0
 20
0.0
  0
LINE
  8
ﾊｯﾁﾝｸﾞ
 10
-15.65
 20
-21.65
 11
-16.1
 21
-21.2
  0
LINE
  8
ﾊｯﾁﾝｸﾞ
 10
-14.95
 20
-21.65
 11
-16.1
 21
-20.5
  0
LINE
  8
ﾊｯﾁﾝｸﾞ
 10
-14.25
 20
-21.65
 11
-16.1
 21
-19.8
  0
LINE
  8
ﾊｯﾁﾝｸﾞ
 10
-13.525
 20
-21.65
 11
-16.1
 21
-19.075
  0
LINE
  8
ﾊｯﾁﾝｸﾞ
 10
-13.425
 20
-21.05
 11
-15.775
 21
-18.7
  0
LINE
  8
ﾊｯﾁﾝｸﾞ
 10
-13.425
 20
-20.325
 11
-15.05
 21
-18.7
  0
LINE
  8
ﾊｯﾁﾝｸﾞ
 10
-13.425
 20
-19.625
 11
-14.425
 21
-18.625
  0
LINE
  8
ﾊｯﾁﾝｸﾞ
 10
-13.425
 20
-18.925
 11
-13.875
 21
-18.475
  0
LINE
  8
ﾊｯﾁﾝｸﾞ
 10
-13.425
 20
-21.0
 11
-14.075
 21
-21.65
  0
LINE
  8
ﾊｯﾁﾝｸﾞ
 10
-13.425
 20
-20.3
 11
-14.775
 21
-21.65
  0
LINE
  8
ﾊｯﾁﾝｸﾞ
 10
-13.425
 20
-19.575
 11
-15.475
 21
-21.65
  0
LINE
  8
ﾊｯﾁﾝｸﾞ
 10
-13.425
 20
-18.875
 11
-16.1
 21
-21.55
  0
LINE
  8
ﾊｯﾁﾝｸﾞ
 10
-13.725
 20
-18.475
 11
-16.1
 21
-20.85
  0
LINE
  8
ﾊｯﾁﾝｸﾞ
 10
-14.675
 20
-18.7
 11
-16.1
 21
-20.125
  0
LINE
  8
ﾊｯﾁﾝｸﾞ
 10
-15.375
 20
-18.7
 11
-16.1
 21
-19.425
  0
LINE
  8
ﾊｯﾁﾝｸﾞ
 10
-16.075
 20
-18.7
 11
-16.1
 21
-18.725
  0
ENDBLK
  0
BLOCK
  2
*HAT_0014
 70
    65
 10
0.0
 20
0.0
  0
LINE
  8
ﾊｯﾁﾝｸﾞ
 10
6.775
 20
-81.125
 11
7.225
 21
-80.675
  0
LINE
  8
ﾊｯﾁﾝｸﾞ
 10
6.075
 20
-81.125
 11
7.225
 21
-79.975
  0
LINE
  8
ﾊｯﾁﾝｸﾞ
 10
5.375
 20
-81.125
 11
7.225
 21
-79.275
  0
LINE
  8
ﾊｯﾁﾝｸﾞ
 10
4.65
 20
-81.125
 11
7.225
 21
-78.55
  0
LINE
  8
ﾊｯﾁﾝｸﾞ
 10
4.55
 20
-80.525
 11
6.9
 21
-78.175
  0
LINE
  8
ﾊｯﾁﾝｸﾞ
 10
4.55
 20
-79.8
 11
6.175
 21
-78.175
  0
LINE
  8
ﾊｯﾁﾝｸﾞ
 10
4.55
 20
-79.1
 11
5.55
 21
-78.1
  0
LINE
  8
ﾊｯﾁﾝｸﾞ
 10
4.55
 20
-78.4
 11
5.0
 21
-77.95
  0
LINE
  8
ﾊｯﾁﾝｸﾞ
 10
4.55
 20
-80.475
 11
5.2
 21
-81.125
  0
LINE
  8
ﾊｯﾁﾝｸﾞ
 10
4.55
 20
-79.775
 11
5.9
 21
-81.125
  0
LINE
  8
ﾊｯﾁﾝｸﾞ
 10
4.55
 20
-79.05
 11
6.6
 21
-81.125
  0
LINE
  8
ﾊｯﾁﾝｸﾞ
 10
4.55
 20
-78.35
 11
7.225
 21
-81.025
  0
LINE
  8
ﾊｯﾁﾝｸﾞ
 10
4.85
 20
-77.95
 11
7.225
 21
-80.325
  0
LINE
  8
ﾊｯﾁﾝｸﾞ
 10
5.8
 20
-78.175
 11
7.225
 21
-79.6
  0
LINE
  8
ﾊｯﾁﾝｸﾞ
 10
6.5
 20
-78.175
 11
7.225
 21
-78.9
  0
LINE
  8
ﾊｯﾁﾝｸﾞ
 10
7.2
 20
-78.175
 11
7.225
 21
-78.2
  0
ENDBLK
  0
BLOCK
  2
*HAT_0015
 70
    65
 10
0.0
 20
0.0
  0
LINE
  8
ﾊｯﾁﾝｸﾞ
 10
-15.65
 20
-81.125
 11
-16.1
 21
-80.675
  0
LINE
  8
ﾊｯﾁﾝｸﾞ
 10
-14.95
 20
-81.125
 11
-16.1
 21
-79.975
  0
LINE
  8
ﾊｯﾁﾝｸﾞ
 10
-14.25
 20
-81.125
 11
-16.1
 21
-79.275
  0
LINE
  8
ﾊｯﾁﾝｸﾞ
 10
-13.525
 20
-81.125
 11
-16.1
 21
-78.55
  0
LINE
  8
ﾊｯﾁﾝｸﾞ
 10
-13.425
 20
-80.525
 11
-15.775
 21
-78.175
  0
LINE
  8
ﾊｯﾁﾝｸﾞ
 10
-13.425
 20
-79.8
 11
-15.05
 21
-78.175
  0
LINE
  8
ﾊｯﾁﾝｸﾞ
 10
-13.425
 20
-79.1
 11
-14.425
 21
-78.1
  0
LINE
  8
ﾊｯﾁﾝｸﾞ
 10
-13.425
 20
-78.4
 11
-13.875
 21
-77.95
  0
LINE
  8
ﾊｯﾁﾝｸﾞ
 10
-13.425
 20
-80.475
 11
-14.075
 21
-81.125
  0
LINE
  8
ﾊｯﾁﾝｸﾞ
 10
-13.425
 20
-79.775
 11
-14.775
 21
-81.125
  0
LINE
  8
ﾊｯﾁﾝｸﾞ
 10
-13.425
 20
-79.05
 11
-15.475
 21
-81.125
  0
LINE
  8
ﾊｯﾁﾝｸﾞ
 10
-13.425
 20
-78.35
 11
-16.1
 21
-81.025
  0
LINE
  8
ﾊｯﾁﾝｸﾞ
 10
-13.725
 20
-77.95
 11
-16.1
 21
-80.325
  0
LINE
  8
ﾊｯﾁﾝｸﾞ
 10
-14.675
 20
-78.175
 11
-16.1
 21
-79.6
  0
LINE
  8
ﾊｯﾁﾝｸﾞ
 10
-15.375
 20
-78.175
 11
-16.1
 21
-78.9
  0
LINE
  8
ﾊｯﾁﾝｸﾞ
 10
-16.075
 20
-78.175
 11
-16.1
 21
-78.2
  0
ENDBLK
  0
BLOCK
  2
*HAT_0016
 70
    65
 10
0.0
 20
0.0
  0
LINE
  8
その他部品等
 10
-96.05
 20
-55.625
 11
-95.825
 21
-55.375
  0
LINE
  8
その他部品等
 10
-97.15
 20
-55.775
 11
-95.825
 21
-54.45
  0
LINE
  8
その他部品等
 10
-98.225
 20
-55.925
 11
-95.825
 21
-53.5
  0
LINE
  8
その他部品等
 10
-98.375
 20
-55.1
 11
-95.825
 21
-52.575
  0
LINE
  8
その他部品等
 10
-98.375
 20
-54.15
 11
-95.825
 21
-51.625
  0
LINE
  8
その他部品等
 10
-98.375
 20
-53.225
 11
-96.075
 21
-50.925
  0
LINE
  8
その他部品等
 10
-98.375
 20
-52.275
 11
-97.025
 21
-50.925
  0
LINE
  8
その他部品等
 10
-98.375
 20
-51.325
 11
-97.95
 21
-50.925
  0
LINE
  8
その他部品等
 10
-98.375
 20
-55.625
 11
-98.1
 21
-55.9
  0
LINE
  8
その他部品等
 10
-98.375
 20
-54.675
 11
-97.275
 21
-55.775
  0
LINE
  8
その他部品等
 10
-98.375
 20
-53.75
 11
-96.45
 21
-55.675
  0
LINE
  8
その他部品等
 10
-98.375
 20
-52.8
 11
-95.825
 21
-55.325
  0
LINE
  8
その他部品等
 10
-98.375
 20
-51.875
 11
-95.825
 21
-54.4
  0
LINE
  8
その他部品等
 10
-98.375
 20
-50.925
 11
-95.825
 21
-53.45
  0
LINE
  8
その他部品等
 10
-97.425
 20
-50.925
 11
-95.825
 21
-52.525
  0
LINE
  8
その他部品等
 10
-96.475
 20
-50.925
 11
-95.825
 21
-51.575
  0
ENDBLK
  0
BLOCK
  2
*HAT_0017
 70
    65
 10
0.0
 20
0.0
  0
LINE
  8
その他部品等
 10
87.2
 20
-55.625
 11
86.975
 21
-55.375
  0
LINE
  8
その他部品等
 10
88.3
 20
-55.775
 11
86.975
 21
-54.45
  0
LINE
  8
その他部品等
 10
89.375
 20
-55.925
 11
86.975
 21
-53.5
  0
LINE
  8
その他部品等
 10
89.525
 20
-55.1
 11
86.975
 21
-52.575
  0
LINE
  8
その他部品等
 10
89.525
 20
-54.15
 11
86.975
 21
-51.625
  0
LINE
  8
その他部品等
 10
89.525
 20
-53.225
 11
87.225
 21
-50.925
  0
LINE
  8
その他部品等
 10
89.525
 20
-52.275
 11
88.175
 21
-50.925
  0
LINE
  8
その他部品等
 10
89.525
 20
-51.325
 11
89.1
 21
-50.925
  0
LINE
  8
その他部品等
 10
89.525
 20
-55.625
 11
89.25
 21
-55.9
  0
LINE
  8
その他部品等
 10
89.525
 20
-54.675
 11
88.425
 21
-55.775
  0
LINE
  8
その他部品等
 10
89.525
 20
-53.75
 11
87.6
 21
-55.675
  0
LINE
  8
その他部品等
 10
89.525
 20
-52.8
 11
86.975
 21
-55.325
  0
LINE
  8
その他部品等
 10
89.525
 20
-51.875
 11
86.975
 21
-54.4
  0
LINE
  8
その他部品等
 10
89.525
 20
-50.925
 11
86.975
 21
-53.45
  0
LINE
  8
その他部品等
 10
88.575
 20
-50.925
 11
86.975
 21
-52.525
  0
LINE
  8
その他部品等
 10
87.625
 20
-50.925
 11
86.975
 21
-51.575
  0
ENDBLK
  0
BLOCK
  2
*HAT_0018
 70
    65
 10
0.0
 20
0.0
  0
LINE
  8
その他部品等
 10
116.775
 20
-80.475
 11
116.175
 21
-79.875
  0
LINE
  8
その他部品等
 10
117.7
 20
-80.475
 11
116.175
 21
-78.95
  0
LINE
  8
その他部品等
 10
118.65
 20
-80.475
 11
116.175
 21
-78.0
  0
LINE
  8
その他部品等
 10
119.575
 20
-80.475
 11
116.925
 21
-77.8
  0
LINE
  8
その他部品等
 10
120.525
 20
-80.475
 11
117.85
 21
-77.8
  0
LINE
  8
その他部品等
 10
121.475
 20
-80.475
 11
118.8
 21
-77.8
  0
LINE
  8
その他部品等
 10
122.325
 20
-80.375
 11
119.725
 21
-77.8
  0
LINE
  8
その他部品等
 10
122.325
 20
-79.425
 11
120.675
 21
-77.8
  0
LINE
  8
その他部品等
 10
122.325
 20
-78.475
 11
121.625
 21
-77.8
  0
LINE
  8
その他部品等
 10
122.325
 20
-80.25
 11
122.1
 21
-80.475
  0
LINE
  8
その他部品等
 10
122.325
 20
-79.3
 11
121.15
 21
-80.475
  0
LINE
  8
その他部品等
 10
122.325
 20
-78.375
 11
120.225
 21
-80.475
  0
LINE
  8
その他部品等
 10
121.95
 20
-77.8
 11
119.275
 21
-80.475
  0
LINE
  8
その他部品等
 10
121.0
 20
-77.8
 11
118.325
 21
-80.475
  0
LINE
  8
その他部品等
 10
120.075
 20
-77.8
 11
117.4
 21
-80.475
  0
LINE
  8
その他部品等
 10
119.125
 20
-77.8
 11
116.45
 21
-80.475
  0
LINE
  8
その他部品等
 10
118.175
 20
-77.8
 11
116.175
 21
-79.8
  0
LINE
  8
その他部品等
 10
117.225
 20
-77.8
 11
116.175
 21
-78.85
  0
LINE
  8
その他部品等
 10
116.3
 20
-77.8
 11
116.175
 21
-77.925
  0
ENDBLK
  0
BLOCK
  2
*HAT_0019
 70
    65
 10
0.0
 20
0.0
  0
LINE
  8
その他部品等
 10
-125.65
 20
-80.475
 11
-125.05
 21
-79.875
  0
LINE
  8
その他部品等
 10
-126.575
 20
-80.475
 11
-125.05
 21
-78.95
  0
LINE
  8
その他部品等
 10
-127.525
 20
-80.475
 11
-125.05
 21
-78.0
  0
LINE
  8
その他部品等
 10
-128.45
 20
-80.475
 11
-125.8
 21
-77.8
  0
LINE
  8
その他部品等
 10
-129.4
 20
-80.475
 11
-126.725
 21
-77.8
  0
LINE
  8
その他部品等
 10
-130.35
 20
-80.475
 11
-127.675
 21
-77.8
  0
LINE
  8
その他部品等
 10
-131.2
 20
-80.375
 11
-128.6
 21
-77.8
  0
LINE
  8
その他部品等
 10
-131.2
 20
-79.425
 11
-129.55
 21
-77.8
  0
LINE
  8
その他部品等
 10
-131.2
 20
-78.475
 11
-130.5
 21
-77.8
  0
LINE
  8
その他部品等
 10
-131.2
 20
-80.25
 11
-130.975
 21
-80.475
  0
LINE
  8
その他部品等
 10
-131.2
 20
-79.3
 11
-130.025
 21
-80.475
  0
LINE
  8
その他部品等
 10
-131.2
 20
-78.375
 11
-129.1
 21
-80.475
  0
LINE
  8
その他部品等
 10
-130.825
 20
-77.8
 11
-128.15
 21
-80.475
  0
LINE
  8
その他部品等
 10
-129.875
 20
-77.8
 11
-127.2
 21
-80.475
  0
LINE
  8
その他部品等
 10
-128.95
 20
-77.8
 11
-126.275
 21
-80.475
  0
LINE
  8
その他部品等
 10
-128.0
 20
-77.8
 11
-125.325
 21
-80.475
  0
LINE
  8
その他部品等
 10
-127.05
 20
-77.8
 11
-125.05
 21
-79.8
  0
LINE
  8
その他部品等
 10
-126.1
 20
-77.8
 11
-125.05
 21
-78.85
  0
LINE
  8
その他部品等
 10
-125.175
 20
-77.8
 11
-125.05
 21
-77.925
  0
ENDBLK
  0
BLOCK
  2
*GRP_0001
 70
    65
 10
0.0
 20
0.0
  0
LINE
  8
型材断面
  6
CONTINUOUS
 10
195.0
 20
133.5
 11
195.0
 21
-133.5
  0
LINE
  8
型材断面
  6
CONTINUOUS
 10
195.0
 20
-133.5
 11
-185.0
 21
-133.5
  0
LINE
  8
型材断面
  6
CONTINUOUS
 10
-185.0
 20
-133.5
 11
-185.0
 21
133.5
  0
LINE
  8
型材断面
  6
CONTINUOUS
 10
195.0
 20
133.5
 11
-185.0
 21
133.5
  0
LINE
  8
型材断面
  6
CONTINUOUS
 10
145.0
 20
-133.5
 11
145.0
 21
-118.5
  0
LINE
  8
型材断面
  6
CONTINUOUS
 10
195.0
 20
-118.5
 11
145.0
 21
-118.5
  0
ENDBLK
  0
BLOCK
  2
*GRP_0002
 70
    65
 10
0.0
 20
0.0
  0
LINE
  8
型材断面
  6
CONTINUOUS
 62
    47
 10
-131.68421
 20
-60.457553
 11
-131.68425
 21
-80.457553
  0
LINE
  8
型材断面
  6
CONTINUOUS
 10
-131.150885
 20
-77.290885
 11
-130.484217
 21
-77.290885
  0
LINE
  8
型材断面
  6
CONTINUOUS
 10
-129.984217
 20
-76.457553
 11
-130.484217
 21
-76.457553
  0
LINE
  8
型材断面
  6
CONTINUOUS
 10
-130.484217
 20
-77.290885
 11
-130.484217
 21
-76.457553
  0
LINE
  8
型材断面
  6
CONTINUOUS
 10
-129.984217
 20
-77.457553
 11
-129.984217
 21
-76.457553
  0
LINE
  8
型材断面
  6
CONTINUOUS
 10
-131.150885
 20
-77.790885
 11
-130.31755
 21
-77.790885
  0
ARC
  8
型材断面
  6
CONTINUOUS
 10
-130.317554
 20
-77.457554
 40
0.333333
 50
-90.0
 51
0.0
  0
LINE
  8
型材断面
  6
CONTINUOUS
 62
    47
 10
-131.68425
 20
-80.457553
 11
-131.150918
 21
-80.457553
  0
LINE
  8
型材断面
  6
CONTINUOUS
 10
-131.15088
 20
-60.923237
 11
-131.15091
 21
-77.290885
  0
LINE
  8
型材断面
  6
CONTINUOUS
 10
-131.150912
 20
-77.790885
 11
-131.150918
 21
-80.457553
  0
LINE
  8
型材断面
  6
CONTINUOUS
 10
-126.889207
 20
-60.342015
 11
-126.7973
 21
-61.003725
  0
LINE
  8
型材断面
  6
CONTINUOUS
 10
-126.7973
 20
-61.003725
 11
-125.542192
 21
-60.83296
  0
LINE
  8
型材断面
  6
CONTINUOUS
 10
-125.542192
 20
-60.83296
 11
-125.473405
 21
-61.32821
  0
LINE
  8
型材断面
  6
CONTINUOUS
 10
-125.473405
 20
-61.32821
 11
-127.223953
 21
-61.56638
  0
LINE
  8
型材断面
  6
CONTINUOUS
 10
-127.384455
 20
-60.4108
 11
-127.223953
 21
-61.56638
  0
LINE
  8
型材断面
  6
CONTINUOUS
 10
-107.39555
 20
-57.689815
 11
-107.30733
 21
-58.352025
  0
LINE
  8
型材断面
  6
CONTINUOUS
 10
-107.30733
 20
-58.352025
 11
-108.56244
 21
-58.52279
  0
LINE
  8
型材断面
  6
CONTINUOUS
 10
-108.56244
 20
-58.52279
 11
-108.496413
 21
-59.018415
  0
LINE
  8
型材断面
  6
CONTINUOUS
 10
-108.496413
 20
-59.018415
 11
-106.745865
 21
-58.780245
  0
LINE
  8
型材断面
  6
CONTINUOUS
 10
-106.899928
 20
-57.62379
 11
-106.745865
 21
-58.780245
  0
LINE
  8
型材断面
  6
CONTINUOUS
 10
-95.23627
 20
-56.709705
 11
-95.167483
 21
-57.204953
  0
LINE
  8
型材断面
  6
CONTINUOUS
 10
-93.350878
 20
-56.957795
 11
-95.167483
 21
-57.204953
  0
LINE
  8
型材断面
  6
CONTINUOUS
 10
-95.23627
 20
-56.709705
 11
-93.850878
 21
-56.521215
  0
LINE
  8
型材断面
  6
CONTINUOUS
 10
-93.850878
 20
-56.521215
 11
-93.850878
 21
-55.848408
  0
LINE
  8
型材断面
  6
CONTINUOUS
 10
-131.15088
 20
-60.923237
 11
-127.384455
 21
-60.4108
  0
LINE
  8
型材断面
  6
CONTINUOUS
 10
-126.889015
 20
-60.343393
 11
-107.395365
 21
-57.691195
  0
LINE
  8
型材断面
  6
CONTINUOUS
 10
-106.899928
 20
-57.62379
 11
-93.850878
 21
-55.848408
  0
LINE
  8
型材断面
  6
CONTINUOUS
 10
-93.88421
 20
-51.414695
 11
-93.350878
 21
-51.414695
  0
LINE
  8
型材断面
  6
CONTINUOUS
 62
    47
 10
-93.350878
 20
-56.924155
 11
-93.350878
 21
-51.414695
  0
LINE
  8
型材断面
  6
CONTINUOUS
 10
-93.88421
 20
-51.414695
 11
-93.88421
 21
-55.314695
  0
LINE
  8
型材断面
  6
CONTINUOUS
 10
-131.68421
 20
-60.457553
 11
-93.88421
 21
-55.314695
  0
ENDBLK
  0
BLOCK
  2
*GRP_0003
 70
    65
 10
0.0
 20
0.0
  0
LINE
  8
型材断面
  6
CONTINUOUS
 62
    47
 10
122.81975
 20
-60.457553
 11
122.81979
 21
-80.457553
  0
LINE
  8
型材断面
  6
CONTINUOUS
 10
122.286425
 20
-77.290885
 11
121.619758
 21
-77.290885
  0
LINE
  8
型材断面
  6
CONTINUOUS
 10
121.119758
 20
-76.457553
 11
121.619758
 21
-76.457553
  0
LINE
  8
型材断面
  6
CONTINUOUS
 10
121.619758
 20
-77.290885
 11
121.619758
 21
-76.457553
  0
LINE
  8
型材断面
  6
CONTINUOUS
 10
121.119758
 20
-77.457553
 11
121.119758
 21
-76.457553
  0
LINE
  8
型材断面
  6
CONTINUOUS
 10
122.286425
 20
-77.790885
 11
121.45309
 21
-77.790885
  0
ARC
  8
型材断面
  6
CONTINUOUS
 10
121.453094
 20
-77.457554
 40
0.333333
 50
180.0
 51
270.0
  0
LINE
  8
型材断面
  6
CONTINUOUS
 62
    47
 10
122.81979
 20
-80.457553
 11
122.286457
 21
-80.457553
  0
LINE
  8
型材断面
  6
CONTINUOUS
 10
122.28642
 20
-60.923237
 11
122.28645
 21
-77.290885
  0
LINE
  8
型材断面
  6
CONTINUOUS
 10
122.286453
 20
-77.790885
 11
122.286457
 21
-80.457553
  0
LINE
  8
型材断面
  6
CONTINUOUS
 10
118.024748
 20
-60.342015
 11
117.93284
 21
-61.003725
  0
LINE
  8
型材断面
  6
CONTINUOUS
 10
117.93284
 20
-61.003725
 11
116.677732
 21
-60.83296
  0
LINE
  8
型材断面
  6
CONTINUOUS
 10
116.677732
 20
-60.83296
 11
116.608945
 21
-61.32821
  0
LINE
  8
型材断面
  6
CONTINUOUS
 10
116.608945
 20
-61.32821
 11
118.359492
 21
-61.56638
  0
LINE
  8
型材断面
  6
CONTINUOUS
 10
118.519995
 20
-60.4108
 11
118.359492
 21
-61.56638
  0
LINE
  8
型材断面
  6
CONTINUOUS
 10
98.53109
 20
-57.689815
 11
98.44287
 21
-58.352025
  0
LINE
  8
型材断面
  6
CONTINUOUS
 10
98.44287
 20
-58.352025
 11
99.69798
 21
-58.52279
  0
LINE
  8
型材断面
  6
CONTINUOUS
 10
99.69798
 20
-58.52279
 11
99.631953
 21
-59.018415
  0
LINE
  8
型材断面
  6
CONTINUOUS
 10
99.631953
 20
-59.018415
 11
97.881405
 21
-58.780245
  0
LINE
  8
型材断面
  6
CONTINUOUS
 10
98.035468
 20
-57.62379
 11
97.881405
 21
-58.780245
  0
LINE
  8
型材断面
  6
CONTINUOUS
 10
86.37181
 20
-56.709705
 11
86.303023
 21
-57.204953
  0
LINE
  8
型材断面
  6
CONTINUOUS
 10
84.486418
 20
-56.957795
 11
86.303023
 21
-57.204953
  0
LINE
  8
型材断面
  6
CONTINUOUS
 10
86.37181
 20
-56.709705
 11
84.986418
 21
-56.521215
  0
LINE
  8
型材断面
  6
CONTINUOUS
 10
84.986418
 20
-56.521215
 11
84.986418
 21
-55.848408
  0
LINE
  8
型材断面
  6
CONTINUOUS
 10
122.28642
 20
-60.923237
 11
118.519995
 21
-60.4108
  0
LINE
  8
型材断面
  6
CONTINUOUS
 10
118.024555
 20
-60.343393
 11
98.530905
 21
-57.691195
  0
LINE
  8
型材断面
  6
CONTINUOUS
 10
98.035468
 20
-57.62379
 11
84.986418
 21
-55.848408
  0
LINE
  8
型材断面
  6
CONTINUOUS
 10
85.01975
 20
-51.414695
 11
84.486418
 21
-51.414695
  0
LINE
  8
型材断面
  6
CONTINUOUS
 62
    47
 10
84.486418
 20
-56.924155
 11
84.486418
 21
-51.414695
  0
LINE
  8
型材断面
  6
CONTINUOUS
 10
85.01975
 20
-51.414695
 11
85.01975
 21
-55.314695
  0
LINE
  8
型材断面
  6
CONTINUOUS
 10
122.81975
 20
-60.457553
 11
85.01975
 21
-55.314695
  0
ENDBLK
  0
BLOCK
  2
*GRP_0004
 70
    65
 10
0.0
 20
0.0
  0
LINE
  8
型材断面
  6
CONTINUOUS
 62
    47
 10
-59.017502
 20
-50.255772
 11
-59.017502
 21
-39.931908
  0
LINE
  8
型材断面
  6
CONTINUOUS
 62
    47
 10
-97.684238
 20
-46.485603
 11
-59.017502
 21
-39.931908
  0
LINE
  8
型材断面
  6
CONTINUOUS
 62
    47
 10
-97.684238
 20
-46.485603
 11
-97.684238
 21
-50.255772
  0
LINE
  8
型材断面
  6
CONTINUOUS
 62
    47
 10
-93.350865
 20
-50.922397
 11
-98.350782
 21
-50.922397
  0
LINE
  8
型材断面
  6
CONTINUOUS
 62
    47
 10
-64.884133
 20
-50.255772
 11
-59.017502
 21
-50.255772
  0
LINE
  8
型材断面
  6
CONTINUOUS
 62
    47
 10
-64.884133
 20
-50.922397
 11
-58.350845
 21
-50.922397
  0
LINE
  8
型材断面
  6
CONTINUOUS
 62
    47
 10
-65.017522
 20
-50.789067
 11
-65.017522
 21
-50.389045
  0
LINE
  8
型材断面
  6
CONTINUOUS
 62
    47
 10
-90.1508
 20
-50.255772
 11
-97.684238
 21
-50.255772
  0
LINE
  8
型材断面
  6
CONTINUOUS
 62
    47
 10
-90.1508
 20
-50.922397
 11
-92.68415
 21
-50.922397
  0
LINE
  8
型材断面
  6
CONTINUOUS
 62
    47
 10
-90.017527
 20
-50.789067
 11
-90.017527
 21
-50.389045
  0
LINE
  8
型材断面
  6
CONTINUOUS
 62
    47
 10
-98.350782
 20
-50.922397
 11
-98.350782
 21
-45.92242
  0
LINE
  8
型材断面
  6
CONTINUOUS
 62
    47
 10
-98.350782
 20
-45.92242
 11
-69.017468
 21
-40.950615
  0
LINE
  8
型材断面
  6
CONTINUOUS
 62
    47
 10
-68.35086
 20
-40.837615
 11
-59.017502
 21
-39.25574
  0
LINE
  8
型材断面
  6
CONTINUOUS
 62
    47
 10
-68.35086
 20
-38.255763
 11
-66.850925
 21
-38.255763
  0
LINE
  8
型材断面
  6
CONTINUOUS
 62
    47
 10
-66.850925
 20
-36.589092
 11
-67.25086
 21
-36.589092
  0
LINE
  8
型材断面
  6
CONTINUOUS
 62
    47
 10
-67.25086
 20
-36.589092
 11
-67.25086
 21
-37.589083
  0
LINE
  8
型材断面
  6
CONTINUOUS
 62
    47
 10
-67.25086
 20
-37.589083
 11
-68.35086
 21
-37.589083
  0
LINE
  8
型材断面
  6
CONTINUOUS
 62
    47
 10
-68.35086
 20
-38.255763
 11
-68.35086
 21
-40.837615
  0
LINE
  8
型材断面
  6
CONTINUOUS
 62
    47
 10
-66.850925
 20
-36.589092
 11
-66.850925
 21
-38.255763
  0
ARC
  8
型材断面
  6
CONTINUOUS
 62
    47
 10
-64.884133
 20
-50.389046
 40
0.133333
 50
90.001373
 51
180.002747
  0
ARC
  8
型材断面
  6
CONTINUOUS
 62
    47
 10
-64.884133
 20
-50.789069
 40
0.133333
 50
180.002747
 51
270.00412
  0
ARC
  8
型材断面
  6
CONTINUOUS
 62
    47
 10
-90.1508
 20
-50.389046
 40
0.133333
 50
0.0
 51
90.001373
  0
ARC
  8
型材断面
  6
CONTINUOUS
 62
    47
 10
-90.1508
 20
-50.789069
 40
0.133333
 50
270.00412
 51
360.0
  0
LINE
  8
型材断面
  6
CONTINUOUS
 62
    47
 10
-67.25086
 20
-23.589167
 11
-66.850925
 21
-23.589167
  0
LINE
  8
型材断面
  6
CONTINUOUS
 62
    47
 10
-67.25086
 20
-24.255847
 11
-68.35086
 21
-24.255847
  0
LINE
  8
型材断面
  6
CONTINUOUS
 62
    47
 10
-66.850925
 20
-23.589167
 11
-69.017468
 21
-23.589167
  0
LINE
  8
型材断面
  6
CONTINUOUS
 62
    47
 10
-69.017468
 20
-24.25572
 11
-69.017468
 21
-23.589167
  0
LINE
  8
型材断面
  6
CONTINUOUS
 62
    47
 10
-68.35086
 20
-24.25572
 11
-67.25086
 21
-24.25572
  0
LINE
  8
型材断面
  6
CONTINUOUS
 62
    47
 10
-68.35086
 20
-31.25576
 11
-60.6842
 21
-31.25576
  0
LINE
  8
型材断面
  6
CONTINUOUS
 62
    47
 10
-60.6842
 20
-31.25576
 11
-60.6842
 21
-29.922443
  0
LINE
  8
型材断面
  6
CONTINUOUS
 62
    47
 10
-60.6842
 20
-29.922443
 11
-61.084135
 21
-29.922443
  0
LINE
  8
型材断面
  6
CONTINUOUS
 62
    47
 10
-61.084135
 20
-30.589063
 11
-61.084135
 21
-29.922443
  0
LINE
  8
型材断面
  6
CONTINUOUS
 62
    47
 10
-66.017635
 20
-29.322462
 11
-64.684265
 21
-29.322462
  0
LINE
  8
型材断面
  6
CONTINUOUS
 62
    47
 10
-64.684265
 20
-29.322462
 11
-64.684265
 21
-30.589132
  0
LINE
  8
型材断面
  6
CONTINUOUS
 62
    47
 10
-65.184227
 20
-30.589132
 11
-65.184227
 21
-29.822462
  0
LINE
  8
型材断面
  6
CONTINUOUS
 62
    47
 10
-65.184227
 20
-29.822462
 11
-66.017635
 21
-29.822462
  0
LINE
  8
型材断面
  6
CONTINUOUS
 62
    47
 10
-66.017635
 20
-29.822462
 11
-66.017635
 21
-29.322462
  0
LINE
  8
型材断面
  6
CONTINUOUS
 62
    47
 10
-61.084135
 20
-30.589063
 11
-64.684265
 21
-30.589063
  0
LINE
  8
型材断面
  6
CONTINUOUS
 62
    47
 10
-65.184227
 20
-30.589132
 11
-68.35086
 21
-30.589132
  0
LINE
  8
型材断面
  6
CONTINUOUS
 62
    47
 10
-68.35086
 20
-37.589083
 11
-68.35086
 21
-31.25576
  0
LINE
  8
型材断面
  6
CONTINUOUS
 62
    47
 10
-68.35086
 20
-24.25572
 11
-68.35086
 21
-30.589132
  0
LINE
  8
型材断面
  6
CONTINUOUS
 10
-66.850925
 20
-25.255832
 11
-67.25086
 21
-25.255832
  0
LINE
  8
型材断面
  6
CONTINUOUS
 62
    47
 10
-67.25086
 20
-24.255847
 11
-67.25086
 21
-25.255832
  0
LINE
  8
型材断面
  6
CONTINUOUS
 62
    47
 10
-69.884167
 20
-26.355755
 11
-69.017468
 21
-26.355755
  0
LINE
  8
型材断面
  6
CONTINUOUS
 62
    47
 10
-69.884167
 20
-26.755732
 11
-69.017468
 21
-26.755732
  0
LINE
  8
型材断面
  6
CONTINUOUS
 62
    47
 10
-70.01744
 20
-26.6224
 11
-70.01744
 21
-26.48907
  0
ARC
  8
型材断面
  6
CONTINUOUS
 62
    47
 10
-69.884168
 20
-26.489071
 40
0.133333
 50
90.001373
 51
180.002747
  0
ARC
  8
型材断面
  6
CONTINUOUS
 62
    47
 10
-69.884168
 20
-26.622402
 40
0.133333
 50
180.002747
 51
270.00412
  0
LINE
  8
型材断面
  6
CONTINUOUS
 62
    47
 10
-78.88363
 20
-26.755732
 11
-80.416938
 21
-26.755732
  0
LINE
  8
型材断面
  6
CONTINUOUS
 62
    47
 10
-78.88363
 20
-26.355755
 11
-79.750353
 21
-26.355755
  0
LINE
  8
型材断面
  6
CONTINUOUS
 62
    47
 10
-78.750357
 20
-26.48907
 11
-78.750357
 21
-26.6224
  0
ARC
  8
型材断面
  6
CONTINUOUS
 62
    47
 10
-78.88363
 20
-26.622402
 40
0.133333
 50
270.00412
 51
360.0
  0
ARC
  8
型材断面
  6
CONTINUOUS
 62
    47
 10
-78.88363
 20
-26.489071
 40
0.133333
 50
0.0
 51
90.001373
  0
LINE
  8
型材断面
  6
CONTINUOUS
 62
    47
 10
-69.017468
 20
-40.950615
 11
-69.017468
 21
-26.755732
  0
LINE
  8
型材断面
  6
CONTINUOUS
 10
-69.017468
 20
-25.25572
 11
-79.750353
 21
-25.25572
  0
LINE
  8
型材断面
  6
CONTINUOUS
 62
    47
 10
-79.750353
 20
-26.355755
 11
-79.750353
 21
-25.25572
  0
LINE
  8
型材断面
  6
CONTINUOUS
 62
    47
 10
-69.017468
 20
-26.355755
 11
-69.017468
 21
-25.25572
  0
LINE
  8
型材断面
  6
CONTINUOUS
 10
-75.017003
 20
-24.35572
 11
-74.917003
 21
-24.25572
  0
LINE
  8
型材断面
  6
CONTINUOUS
 62
    47
 10
-69.017468
 20
-24.25572
 11
-74.917003
 21
-24.25572
  0
LINE
  8
型材断面
  6
CONTINUOUS
 10
-75.017003
 20
-24.35572
 11
-75.117003
 21
-24.25572
  0
LINE
  8
型材断面
  6
CONTINUOUS
 62
    47
 10
-75.117003
 20
-24.25572
 11
-80.416938
 21
-24.25572
  0
LINE
  8
型材断面
  6
CONTINUOUS
 10
-80.416938
 20
-26.755732
 11
-80.416938
 21
-24.25572
  0
LINE
  8
型材断面
  6
CONTINUOUS
 62
    47
 10
-92.68415
 20
-50.922397
 11
-92.68415
 21
-55.922397
  0
LINE
  8
型材断面
  6
CONTINUOUS
 10
-93.350878
 20
-55.922397
 11
-92.68415
 21
-55.922397
  0
LINE
  8
型材断面
  6
CONTINUOUS
 10
-93.250878
 20
-53.422397
 11
-93.350878
 21
-53.322397
  0
LINE
  8
型材断面
  6
CONTINUOUS
 10
-93.250878
 20
-53.422397
 11
-93.350878
 21
-53.522397
  0
LINE
  8
型材断面
  6
CONTINUOUS
 62
    47
 10
-93.350865
 20
-50.922397
 11
-93.350865
 21
-53.32241
  0
LINE
  8
型材断面
  6
CONTINUOUS
 62
    47
 10
-93.350865
 20
-53.522385
 11
-93.350865
 21
-55.922397
  0
LINE
  8
型材断面
  6
CONTINUOUS
 10
-59.017502
 20
-36.25574
 11
-58.350845
 21
-36.25574
  0
LINE
  8
型材断面
  6
CONTINUOUS
 62
    47
 10
-59.017502
 20
-39.25574
 11
-59.017502
 21
-36.25574
  0
LINE
  8
型材断面
  6
CONTINUOUS
 62
    47
 10
-58.350845
 20
-50.922397
 11
-58.350845
 21
-36.25574
  0
LINE
  8
型材断面
  6
CONTINUOUS
 10
-66.850925
 20
-23.589167
 11
-66.850925
 21
-25.255832
  0
CIRCLE
  8
LAYER010
  6
CONTINUOUS
 62
     7
 10
-98.350782
 20
-45.92242
 40
0.11111
  0
ENDBLK
  0
BLOCK
  2
*GRP_0005
 70
    65
 10
0.0
 20
0.0
  0
LINE
  8
型材断面
  6
CONTINUOUS
 62
    47
 10
50.153043
 20
-50.255772
 11
50.153043
 21
-39.931908
  0
LINE
  8
型材断面
  6
CONTINUOUS
 62
    47
 10
88.819778
 20
-46.485603
 11
50.153043
 21
-39.931908
  0
LINE
  8
型材断面
  6
CONTINUOUS
 62
    47
 10
88.819778
 20
-46.485603
 11
88.819778
 21
-50.255772
  0
LINE
  8
型材断面
  6
CONTINUOUS
 62
    47
 10
84.486405
 20
-50.922397
 11
89.486322
 21
-50.922397
  0
LINE
  8
型材断面
  6
CONTINUOUS
 62
    47
 10
56.019672
 20
-50.255772
 11
50.153043
 21
-50.255772
  0
LINE
  8
型材断面
  6
CONTINUOUS
 62
    47
 10
56.019672
 20
-50.922397
 11
49.486385
 21
-50.922397
  0
LINE
  8
型材断面
  6
CONTINUOUS
 62
    47
 10
56.153062
 20
-50.789067
 11
56.153062
 21
-50.389045
  0
LINE
  8
型材断面
  6
CONTINUOUS
 62
    47
 10
81.28634
 20
-50.255772
 11
88.819778
 21
-50.255772
  0
LINE
  8
型材断面
  6
CONTINUOUS
 62
    47
 10
81.28634
 20
-50.922397
 11
83.81969
 21
-50.922397
  0
LINE
  8
型材断面
  6
CONTINUOUS
 62
    47
 10
81.153067
 20
-50.789067
 11
81.153067
 21
-50.389045
  0
LINE
  8
型材断面
  6
CONTINUOUS
 62
    47
 10
89.486322
 20
-50.922397
 11
89.486322
 21
-45.92242
  0
LINE
  8
型材断面
  6
CONTINUOUS
 62
    47
 10
89.486322
 20
-45.92242
 11
60.153008
 21
-40.950615
  0
LINE
  8
型材断面
  6
CONTINUOUS
 62
    47
 10
59.4864
 20
-40.837615
 11
50.153043
 21
-39.25574
  0
LINE
  8
型材断面
  6
CONTINUOUS
 62
    47
 10
59.4864
 20
-38.255763
 11
57.986465
 21
-38.255763
  0
LINE
  8
型材断面
  6
CONTINUOUS
 62
    47
 10
57.986465
 20
-36.589092
 11
58.3864
 21
-36.589092
  0
LINE
  8
型材断面
  6
CONTINUOUS
 62
    47
 10
58.3864
 20
-36.589092
 11
58.3864
 21
-37.589083
  0
LINE
  8
型材断面
  6
CONTINUOUS
 62
    47
 10
58.3864
 20
-37.589083
 11
59.4864
 21
-37.589083
  0
LINE
  8
型材断面
  6
CONTINUOUS
 62
    47
 10
59.4864
 20
-38.255763
 11
59.4864
 21
-40.837615
  0
LINE
  8
型材断面
  6
CONTINUOUS
 62
    47
 10
57.986465
 20
-36.589092
 11
57.986465
 21
-38.255763
  0
ARC
  8
型材断面
  6
CONTINUOUS
 62
    47
 10
56.019673
 20
-50.389046
 40
0.133333
 50
359.997253
 51
449.998627
  0
ARC
  8
型材断面
  6
CONTINUOUS
 62
    47
 10
56.019673
 20
-50.789069
 40
0.133333
 50
269.99588
 51
359.997253
  0
ARC
  8
型材断面
  6
CONTINUOUS
 62
    47
 10
81.28634
 20
-50.389046
 40
0.133333
 50
89.998627
 51
180.0
  0
ARC
  8
型材断面
  6
CONTINUOUS
 62
    47
 10
81.28634
 20
-50.789069
 40
0.133333
 50
180.0
 51
269.99588
  0
LINE
  8
型材断面
  6
CONTINUOUS
 62
    47
 10
58.3864
 20
-23.589167
 11
57.986465
 21
-23.589167
  0
LINE
  8
型材断面
  6
CONTINUOUS
 62
    47
 10
58.3864
 20
-24.255847
 11
59.4864
 21
-24.255847
  0
LINE
  8
型材断面
  6
CONTINUOUS
 62
    47
 10
57.986465
 20
-23.589167
 11
60.153008
 21
-23.589167
  0
LINE
  8
型材断面
  6
CONTINUOUS
 62
    47
 10
60.153008
 20
-24.25572
 11
60.153008
 21
-23.589167
  0
LINE
  8
型材断面
  6
CONTINUOUS
 62
    47
 10
59.4864
 20
-24.25572
 11
58.3864
 21
-24.25572
  0
LINE
  8
型材断面
  6
CONTINUOUS
 62
    47
 10
59.4864
 20
-31.25576
 11
51.81974
 21
-31.25576
  0
LINE
  8
型材断面
  6
CONTINUOUS
 62
    47
 10
51.81974
 20
-31.25576
 11
51.81974
 21
-29.922443
  0
LINE
  8
型材断面
  6
CONTINUOUS
 62
    47
 10
51.81974
 20
-29.922443
 11
52.219675
 21
-29.922443
  0
LINE
  8
型材断面
  6
CONTINUOUS
 62
    47
 10
52.219675
 20
-30.589063
 11
52.219675
 21
-29.922443
  0
LINE
  8
型材断面
  6
CONTINUOUS
 62
    47
 10
57.153175
 20
-29.322462
 11
55.819805
 21
-29.322462
  0
LINE
  8
型材断面
  6
CONTINUOUS
 62
    47
 10
55.819805
 20
-29.322462
 11
55.819805
 21
-30.589132
  0
LINE
  8
型材断面
  6
CONTINUOUS
 62
    47
 10
56.319767
 20
-30.589132
 11
56.319767
 21
-29.822462
  0
LINE
  8
型材断面
  6
CONTINUOUS
 62
    47
 10
56.319767
 20
-29.822462
 11
57.153175
 21
-29.822462
  0
LINE
  8
型材断面
  6
CONTINUOUS
 62
    47
 10
57.153175
 20
-29.822462
 11
57.153175
 21
-29.322462
  0
LINE
  8
型材断面
  6
CONTINUOUS
 62
    47
 10
52.219675
 20
-30.589063
 11
55.819805
 21
-30.589063
  0
LINE
  8
型材断面
  6
CONTINUOUS
 62
    47
 10
56.319767
 20
-30.589132
 11
59.4864
 21
-30.589132
  0
LINE
  8
型材断面
  6
CONTINUOUS
 62
    47
 10
59.4864
 20
-37.589083
 11
59.4864
 21
-31.25576
  0
LINE
  8
型材断面
  6
CONTINUOUS
 62
    47
 10
59.4864
 20
-24.25572
 11
59.4864
 21
-30.589132
  0
LINE
  8
型材断面
  6
CONTINUOUS
 10
57.986465
 20
-25.255832
 11
58.3864
 21
-25.255832
  0
LINE
  8
型材断面
  6
CONTINUOUS
 62
    47
 10
58.3864
 20
-24.255847
 11
58.3864
 21
-25.255832
  0
LINE
  8
型材断面
  6
CONTINUOUS
 62
    47
 10
61.019708
 20
-26.355755
 11
60.153008
 21
-26.355755
  0
LINE
  8
型材断面
  6
CONTINUOUS
 62
    47
 10
61.019708
 20
-26.755732
 11
60.153008
 21
-26.755732
  0
LINE
  8
型材断面
  6
CONTINUOUS
 62
    47
 10
61.15298
 20
-26.6224
 11
61.15298
 21
-26.48907
  0
ARC
  8
型材断面
  6
CONTINUOUS
 62
    47
 10
61.019708
 20
-26.489071
 40
0.133333
 50
359.997253
 51
449.998627
  0
ARC
  8
型材断面
  6
CONTINUOUS
 62
    47
 10
61.019708
 20
-26.622402
 40
0.133333
 50
269.99588
 51
359.997253
  0
LINE
  8
型材断面
  6
CONTINUOUS
 62
    47
 10
70.01917
 20
-26.755732
 11
71.552477
 21
-26.755732
  0
LINE
  8
型材断面
  6
CONTINUOUS
 62
    47
 10
70.01917
 20
-26.355755
 11
70.885893
 21
-26.355755
  0
LINE
  8
型材断面
  6
CONTINUOUS
 62
    47
 10
69.885897
 20
-26.48907
 11
69.885897
 21
-26.6224
  0
ARC
  8
型材断面
  6
CONTINUOUS
 62
    47
 10
70.01917
 20
-26.622402
 40
0.133333
 50
180.0
 51
269.99588
  0
ARC
  8
型材断面
  6
CONTINUOUS
 62
    47
 10
70.01917
 20
-26.489071
 40
0.133333
 50
89.998627
 51
180.0
  0
LINE
  8
型材断面
  6
CONTINUOUS
 62
    47
 10
60.153008
 20
-40.950615
 11
60.153008
 21
-26.755732
  0
LINE
  8
型材断面
  6
CONTINUOUS
 10
60.153008
 20
-25.25572
 11
70.885893
 21
-25.25572
  0
LINE
  8
型材断面
  6
CONTINUOUS
 62
    47
 10
70.885893
 20
-26.355755
 11
70.885893
 21
-25.25572
  0
LINE
  8
型材断面
  6
CONTINUOUS
 62
    47
 10
60.153008
 20
-26.355755
 11
60.153008
 21
-25.25572
  0
LINE
  8
型材断面
  6
CONTINUOUS
 10
66.152542
 20
-24.35572
 11
66.052542
 21
-24.25572
  0
LINE
  8
型材断面
  6
CONTINUOUS
 62
    47
 10
60.153008
 20
-24.25572
 11
66.052542
 21
-24.25572
  0
LINE
  8
型材断面
  6
CONTINUOUS
 10
66.152542
 20
-24.35572
 11
66.252542
 21
-24.25572
  0
LINE
  8
型材断面
  6
CONTINUOUS
 62
    47
 10
66.252542
 20
-24.25572
 11
71.552477
 21
-24.25572
  0
LINE
  8
型材断面
  6
CONTINUOUS
 10
71.552477
 20
-26.755732
 11
71.552477
 21
-24.25572
  0
LINE
  8
型材断面
  6
CONTINUOUS
 62
    47
 10
83.81969
 20
-50.922397
 11
83.81969
 21
-55.922397
  0
LINE
  8
型材断面
  6
CONTINUOUS
 10
84.486418
 20
-55.922397
 11
83.81969
 21
-55.922397
  0
LINE
  8
型材断面
  6
CONTINUOUS
 10
84.386418
 20
-53.422397
 11
84.486418
 21
-53.322397
  0
LINE
  8
型材断面
  6
CONTINUOUS
 10
84.386418
 20
-53.422397
 11
84.486418
 21
-53.522397
  0
LINE
  8
型材断面
  6
CONTINUOUS
 62
    47
 10
84.486405
 20
-50.922397
 11
84.486405
 21
-53.32241
  0
LINE
  8
型材断面
  6
CONTINUOUS
 62
    47
 10
84.486405
 20
-53.522385
 11
84.486405
 21
-55.922397
  0
LINE
  8
型材断面
  6
CONTINUOUS
 10
50.153043
 20
-36.25574
 11
49.486385
 21
-36.25574
  0
LINE
  8
型材断面
  6
CONTINUOUS
 62
    47
 10
50.153043
 20
-39.25574
 11
50.153043
 21
-36.25574
  0
LINE
  8
型材断面
  6
CONTINUOUS
 62
    47
 10
49.486385
 20
-50.922397
 11
49.486385
 21
-36.25574
  0
LINE
  8
型材断面
  6
CONTINUOUS
 10
57.986465
 20
-23.589167
 11
57.986465
 21
-25.255832
  0
CIRCLE
  8
LAYER010
  6
CONTINUOUS
 62
     7
 10
89.486322
 20
-45.92242
 40
0.11111
  0
ENDBLK
  0
BLOCK
  2
*GRP_0006
 70
    65
 10
0.0
 20
0.0
  0
LINE
  8
ボルト／ビス
  6
CONTINUOUS
 62
    64
 10
-93.88421
 20
-52.248898
 11
-94.233598
 21
-52.279465
  0
ARC
  8
ボルト／ビス
  6
CONTINUOUS
 62
    64
 10
-94.18421
 20
-52.843976
 40
0.566667
 50
94.999989
 51
180.0
  0
LINE
  8
ボルト／ビス
  6
CONTINUOUS
 62
    64
 10
-94.750878
 20
-52.843975
 11
-94.750878
 21
-53.415565
  0
LINE
  8
ボルト／ビス
  6
CONTINUOUS
 62
    64
 10
-93.88421
 20
-54.582233
 11
-94.233598
 21
-54.551665
  0
ARC
  8
ボルト／ビス
  6
CONTINUOUS
 62
    64
 10
-94.18421
 20
-53.987154
 40
0.566667
 50
180.0
 51
265.000011
  0
LINE
  8
ボルト／ビス
  6
CONTINUOUS
 62
    64
 10
-94.750878
 20
-53.987155
 11
-94.750878
 21
-53.415565
  0
LINE
  8
ボルト／ビス
  6
CONTINUOUS
 62
    64
 10
-94.622575
 20
-52.616685
 11
-94.703295
 21
-52.616685
  0
LINE
  8
ボルト／ビス
  6
CONTINUOUS
 62
    64
 10
-94.40588
 20
-53.182233
 11
-94.40588
 21
-53.415565
  0
LINE
  8
ボルト／ビス
  6
CONTINUOUS
 62
    64
 10
-94.622575
 20
-53.048898
 11
-94.622575
 21
-52.616685
  0
LINE
  8
ボルト／ビス
  6
CONTINUOUS
 62
    64
 10
-94.40588
 20
-53.182233
 11
-94.489243
 21
-53.182233
  0
ARC
  8
ボルト／ビス
  6
CONTINUOUS
 62
    64
 10
-94.489242
 20
-53.048898
 40
0.133333
 50
180.0
 51
270.0
  0
LINE
  8
ボルト／ビス
  6
CONTINUOUS
 62
    64
 10
-94.622575
 20
-54.214445
 11
-94.703295
 21
-54.214445
  0
LINE
  8
ボルト／ビス
  6
CONTINUOUS
 62
    64
 10
-94.40588
 20
-53.648898
 11
-94.40588
 21
-53.415565
  0
LINE
  8
ボルト／ビス
  6
CONTINUOUS
 62
    64
 10
-94.622575
 20
-53.782233
 11
-94.622575
 21
-54.214445
  0
LINE
  8
ボルト／ビス
  6
CONTINUOUS
 62
    64
 10
-94.40588
 20
-53.648898
 11
-94.489243
 21
-53.648898
  0
ARC
  8
ボルト／ビス
  6
CONTINUOUS
 62
    64
 10
-94.489242
 20
-53.782231
 40
0.133333
 50
90.0
 51
180.0
  0
LINE
  8
ボルト／ビス
  6
CONTINUOUS
 62
    64
 10
-93.88421
 20
-52.248898
 11
-93.88421
 21
-54.582233
  0
LINE
  8
ボルト／ビス
  6
CONTINUOUS
 62
    64
 10
-90.717543
 20
-52.748898
 11
-90.550878
 21
-52.915565
  0
LINE
  8
ボルト／ビス
  6
CONTINUOUS
 62
    64
 10
-90.717543
 20
-54.082233
 11
-90.550878
 21
-53.915565
  0
LINE
  8
ボルト／ビス
  6
CONTINUOUS
 62
    64
 10
-90.717543
 20
-52.748898
 11
-90.717543
 21
-54.082233
  0
LINE
  8
ボルト／ビス
  6
CONTINUOUS
 62
    64
 10
-90.550878
 20
-52.915565
 11
-90.550878
 21
-53.915565
  0
LINE
  8
ボルト／ビス
  6
CONTINUOUS
 62
    64
 10
-95.408005
 20
-53.415565
 11
-90.02592
 21
-53.415565
  0
LINE
  8
ボルト／ビス
  6
CONTINUOUS
 62
    64
 10
-93.88421
 20
-52.748898
 11
-90.717543
 21
-52.748898
  0
LINE
  8
ボルト／ビス
  6
CONTINUOUS
 62
    64
 10
-93.88421
 20
-54.082233
 11
-90.717543
 21
-54.082233
  0
LINE
  8
ボルト／ビス
  6
CONTINUOUS
 62
    64
 10
-93.88421
 20
-53.915565
 11
-90.550878
 21
-53.915565
  0
LINE
  8
ボルト／ビス
  6
CONTINUOUS
 62
    64
 10
-93.88421
 20
-52.915565
 11
-90.550878
 21
-52.915565
  0
ENDBLK
  0
BLOCK
  2
*GRP_0007
 70
    65
 10
0.0
 20
0.0
  0
LINE
  8
ボルト／ビス
  6
CONTINUOUS
 62
    64
 10
85.01975
 20
-52.248898
 11
85.369138
 21
-52.279465
  0
ARC
  8
ボルト／ビス
  6
CONTINUOUS
 62
    64
 10
85.31975
 20
-52.843976
 40
0.566667
 50
0.0
 51
85.000011
  0
LINE
  8
ボルト／ビス
  6
CONTINUOUS
 62
    64
 10
85.886418
 20
-52.843975
 11
85.886418
 21
-53.415565
  0
LINE
  8
ボルト／ビス
  6
CONTINUOUS
 62
    64
 10
85.01975
 20
-54.582233
 11
85.369138
 21
-54.551665
  0
ARC
  8
ボルト／ビス
  6
CONTINUOUS
 62
    64
 10
85.31975
 20
-53.987154
 40
0.566667
 50
274.999989
 51
360.0
  0
LINE
  8
ボルト／ビス
  6
CONTINUOUS
 62
    64
 10
85.886418
 20
-53.987155
 11
85.886418
 21
-53.415565
  0
LINE
  8
ボルト／ビス
  6
CONTINUOUS
 62
    64
 10
85.758115
 20
-52.616685
 11
85.838835
 21
-52.616685
  0
LINE
  8
ボルト／ビス
  6
CONTINUOUS
 62
    64
 10
85.54142
 20
-53.182233
 11
85.54142
 21
-53.415565
  0
LINE
  8
ボルト／ビス
  6
CONTINUOUS
 62
    64
 10
85.758115
 20
-53.048898
 11
85.758115
 21
-52.616685
  0
LINE
  8
ボルト／ビス
  6
CONTINUOUS
 62
    64
 10
85.54142
 20
-53.182233
 11
85.624783
 21
-53.182233
  0
ARC
  8
ボルト／ビス
  6
CONTINUOUS
 62
    64
 10
85.624782
 20
-53.048898
 40
0.133333
 50
270.0
 51
360.0
  0
LINE
  8
ボルト／ビス
  6
CONTINUOUS
 62
    64
 10
85.758115
 20
-54.214445
 11
85.838835
 21
-54.214445
  0
LINE
  8
ボルト／ビス
  6
CONTINUOUS
 62
    64
 10
85.54142
 20
-53.648898
 11
85.54142
 21
-53.415565
  0
LINE
  8
ボルト／ビス
  6
CONTINUOUS
 62
    64
 10
85.758115
 20
-53.782233
 11
85.758115
 21
-54.214445
  0
LINE
  8
ボルト／ビス
  6
CONTINUOUS
 62
    64
 10
85.54142
 20
-53.648898
 11
85.624783
 21
-53.648898
  0
ARC
  8
ボルト／ビス
  6
CONTINUOUS
 62
    64
 10
85.624782
 20
-53.782231
 40
0.133333
 50
0.0
 51
90.0
  0
LINE
  8
ボルト／ビス
  6
CONTINUOUS
 62
    64
 10
85.01975
 20
-52.248898
 11
85.01975
 21
-54.582233
  0
LINE
  8
ボルト／ビス
  6
CONTINUOUS
 62
    64
 10
81.853082
 20
-52.748898
 11
81.686418
 21
-52.915565
  0
LINE
  8
ボルト／ビス
  6
CONTINUOUS
 62
    64
 10
81.853082
 20
-54.082233
 11
81.686418
 21
-53.915565
  0
LINE
  8
ボルト／ビス
  6
CONTINUOUS
 62
    64
 10
81.853082
 20
-52.748898
 11
81.853082
 21
-54.082233
  0
LINE
  8
ボルト／ビス
  6
CONTINUOUS
 62
    64
 10
81.686418
 20
-52.915565
 11
81.686418
 21
-53.915565
  0
LINE
  8
ボルト／ビス
  6
CONTINUOUS
 62
    64
 10
86.543545
 20
-53.415565
 11
81.16146
 21
-53.415565
  0
LINE
  8
ボルト／ビス
  6
CONTINUOUS
 62
    64
 10
85.01975
 20
-52.748898
 11
81.853082
 21
-52.748898
  0
LINE
  8
ボルト／ビス
  6
CONTINUOUS
 62
    64
 10
85.01975
 20
-54.082233
 11
81.853082
 21
-54.082233
  0
LINE
  8
ボルト／ビス
  6
CONTINUOUS
 62
    64
 10
85.01975
 20
-53.915565
 11
81.686418
 21
-53.915565
  0
LINE
  8
ボルト／ビス
  6
CONTINUOUS
 62
    64
 10
85.01975
 20
-52.915565
 11
81.686418
 21
-52.915565
  0
ENDBLK
  0
BLOCK
  2
*GRP_0008
 70
    65
 10
0.0
 20
0.0
  0
POLYLINE
  8
ボルト／ビス
  6
CONTINUOUS
 62
    64
 66
     1
  0
VERTEX
  8
ボルト／ビス
 10
55.985602
 20
-52.655728
  0
VERTEX
  8
ボルト／ビス
 10
55.981603
 20
-52.672052
  0
VERTEX
  8
ボルト／ビス
 10
55.969602
 20
-52.688227
  0
VERTEX
  8
ボルト／ビス
 10
55.949725
 20
-52.704108
  0
VERTEX
  8
ボルト／ビス
 10
55.922172
 20
-52.719507
  0
VERTEX
  8
ボルト／ビス
 10
55.887203
 20
-52.73428
  0
VERTEX
  8
ボルト／ビス
 10
55.845175
 20
-52.748308
  0
VERTEX
  8
ボルト／ビス
 10
55.796445
 20
-52.761452
  0
VERTEX
  8
ボルト／ビス
 10
55.741525
 20
-52.77358
  0
VERTEX
  8
ボルト／ビス
 10
55.680925
 20
-52.784552
  0
VERTEX
  8
ボルト／ビス
 10
55.615245
 20
-52.794308
  0
VERTEX
  8
ボルト／ビス
 10
55.545103
 20
-52.802707
  0
VERTEX
  8
ボルト／ビス
 10
55.471185
 20
-52.809707
  0
VERTEX
  8
ボルト／ビス
 10
55.394175
 20
-52.815208
  0
VERTEX
  8
ボルト／ビス
 10
55.314862
 20
-52.81918
  0
VERTEX
  8
ボルト／ビス
 10
55.233945
 20
-52.82158
  0
VERTEX
  8
ボルト／ビス
 10
55.152285
 20
-52.82238
  0
VERTEX
  8
ボルト／ビス
 10
55.070605
 20
-52.82158
  0
VERTEX
  8
ボルト／ビス
 10
54.989705
 20
-52.81918
  0
VERTEX
  8
ボルト／ビス
 10
54.910385
 20
-52.815208
  0
VERTEX
  8
ボルト／ビス
 10
54.833385
 20
-52.809707
  0
VERTEX
  8
ボルト／ビス
 10
54.759462
 20
-52.802707
  0
VERTEX
  8
ボルト／ビス
 10
54.689305
 20
-52.794308
  0
VERTEX
  8
ボルト／ビス
 10
54.623632
 20
-52.784552
  0
VERTEX
  8
ボルト／ビス
 10
54.563033
 20
-52.77358
  0
VERTEX
  8
ボルト／ビス
 10
54.508105
 20
-52.761452
  0
VERTEX
  8
ボルト／ビス
 10
54.459385
 20
-52.748308
  0
VERTEX
  8
ボルト／ビス
 10
54.417362
 20
-52.73428
  0
VERTEX
  8
ボルト／ビス
 10
54.382385
 20
-52.719507
  0
VERTEX
  8
ボルト／ビス
 10
54.354835
 20
-52.704108
  0
VERTEX
  8
ボルト／ビス
 10
54.334963
 20
-52.688227
  0
VERTEX
  8
ボルト／ビス
 10
54.322945
 20
-52.672052
  0
VERTEX
  8
ボルト／ビス
 10
54.318963
 20
-52.655728
  0
SEQEND
  0
LINE
  8
ボルト／ビス
  6
CONTINUOUS
 62
    64
 10
55.985602
 20
-52.655728
 11
56.152275
 21
-52.212987
  0
LINE
  8
ボルト／ビス
  6
CONTINUOUS
 62
    64
 10
54.322945
 20
-52.672052
 11
54.152285
 21
-52.212987
  0
LINE
  8
ボルト／ビス
  6
CONTINUOUS
 62
    64
 10
54.152285
 20
-51.989052
 11
54.152285
 21
-52.212987
  0
LINE
  8
ボルト／ビス
  6
CONTINUOUS
 62
    64
 10
56.152275
 20
-51.989052
 11
56.152275
 21
-52.212987
  0
ARC
  8
ボルト／ビス
  6
CONTINUOUS
 62
    64
 10
55.152279
 20
-52.545735
 40
0.033333
 50
9.840875
 51
170.159125
  0
LINE
  8
ボルト／ビス
  6
CONTINUOUS
 62
    64
 10
55.220472
 20
-52.743828
 11
55.545103
 21
-52.802707
  0
LINE
  8
ボルト／ビス
  6
CONTINUOUS
 62
    64
 10
55.084085
 20
-52.743828
 11
54.759462
 21
-52.802707
  0
LINE
  8
ボルト／ビス
  6
CONTINUOUS
 62
    64
 10
55.185132
 20
-52.540027
 11
55.220472
 21
-52.743828
  0
LINE
  8
ボルト／ビス
  6
CONTINUOUS
 62
    64
 10
55.119425
 20
-52.540027
 11
55.084085
 21
-52.743828
  0
LINE
  8
ボルト／ビス
  6
CONTINUOUS
 62
    64
 10
56.152275
 20
-51.989052
 11
54.152285
 21
-51.989052
  0
LINE
  8
ボルト／ビス
  6
CONTINUOUS
 62
    64
 10
55.818945
 20
-49.155747
 11
55.652275
 21
-48.989073
  0
LINE
  8
ボルト／ビス
  6
CONTINUOUS
 62
    64
 10
54.652285
 20
-48.989073
 11
54.485605
 21
-49.155747
  0
LINE
  8
ボルト／ビス
  6
CONTINUOUS
 62
    64
 10
54.652285
 20
-51.989052
 11
54.652285
 21
-48.989073
  0
LINE
  8
ボルト／ビス
  6
CONTINUOUS
 62
    64
 10
54.652285
 20
-48.989073
 11
55.652275
 21
-48.989073
  0
LINE
  8
ボルト／ビス
  6
CONTINUOUS
 62
    64
 10
55.652275
 20
-51.989052
 11
55.652275
 21
-48.989073
  0
LINE
  8
ボルト／ビス
  6
CONTINUOUS
 62
    64
 10
55.818945
 20
-51.989052
 11
55.818945
 21
-49.155747
  0
LINE
  8
ボルト／ビス
  6
CONTINUOUS
 62
    64
 10
55.818945
 20
-49.155747
 11
54.485605
 21
-49.155747
  0
LINE
  8
ボルト／ビス
  6
CONTINUOUS
 62
    64
 10
54.485605
 20
-51.989052
 11
54.485605
 21
-49.155747
  0
LINE
  8
ボルト／ビス
  6
CONTINUOUS
 62
    64
 10
55.152285
 20
-54.291972
 11
55.152285
 21
-48.4034
  0
ENDBLK
  0
BLOCK
  2
*GRP_0009
 70
    65
 10
0.0
 20
0.0
  0
POLYLINE
  8
ボルト／ビス
  6
CONTINUOUS
 62
    64
 66
     1
  0
VERTEX
  8
ボルト／ビス
 10
82.986335
 20
-52.655728
  0
VERTEX
  8
ボルト／ビス
 10
82.982332
 20
-52.672052
  0
VERTEX
  8
ボルト／ビス
 10
82.970333
 20
-52.688227
  0
VERTEX
  8
ボルト／ビス
 10
82.950462
 20
-52.704108
  0
VERTEX
  8
ボルト／ビス
 10
82.922905
 20
-52.719507
  0
VERTEX
  8
ボルト／ビス
 10
82.887935
 20
-52.73428
  0
VERTEX
  8
ボルト／ビス
 10
82.845905
 20
-52.748308
  0
VERTEX
  8
ボルト／ビス
 10
82.797183
 20
-52.761452
  0
VERTEX
  8
ボルト／ビス
 10
82.742262
 20
-52.77358
  0
VERTEX
  8
ボルト／ビス
 10
82.681662
 20
-52.784552
  0
VERTEX
  8
ボルト／ビス
 10
82.615983
 20
-52.794308
  0
VERTEX
  8
ボルト／ビス
 10
82.545832
 20
-52.802707
  0
VERTEX
  8
ボルト／ビス
 10
82.471923
 20
-52.809707
  0
VERTEX
  8
ボルト／ビス
 10
82.394905
 20
-52.815208
  0
VERTEX
  8
ボルト／ビス
 10
82.315592
 20
-52.81918
  0
VERTEX
  8
ボルト／ビス
 10
82.234683
 20
-52.82158
  0
VERTEX
  8
ボルト／ビス
 10
82.153023
 20
-52.82238
  0
VERTEX
  8
ボルト／ビス
 10
82.071342
 20
-52.82158
  0
VERTEX
  8
ボルト／ビス
 10
81.990443
 20
-52.81918
  0
VERTEX
  8
ボルト／ビス
 10
81.911123
 20
-52.815208
  0
VERTEX
  8
ボルト／ビス
 10
81.834123
 20
-52.809707
  0
VERTEX
  8
ボルト／ビス
 10
81.760193
 20
-52.802707
  0
VERTEX
  8
ボルト／ビス
 10
81.690042
 20
-52.794308
  0
VERTEX
  8
ボルト／ビス
 10
81.624365
 20
-52.784552
  0
VERTEX
  8
ボルト／ビス
 10
81.563765
 20
-52.77358
  0
VERTEX
  8
ボルト／ビス
 10
81.508842
 20
-52.761452
  0
VERTEX
  8
ボルト／ビス
 10
81.460123
 20
-52.748308
  0
VERTEX
  8
ボルト／ビス
 10
81.418095
 20
-52.73428
  0
VERTEX
  8
ボルト／ビス
 10
81.383122
 20
-52.719507
  0
VERTEX
  8
ボルト／ビス
 10
81.355565
 20
-52.704108
  0
VERTEX
  8
ボルト／ビス
 10
81.335693
 20
-52.688227
  0
VERTEX
  8
ボルト／ビス
 10
81.323682
 20
-52.672052
  0
VERTEX
  8
ボルト／ビス
 10
81.319695
 20
-52.655728
  0
SEQEND
  0
LINE
  8
ボルト／ビス
  6
CONTINUOUS
 62
    64
 10
82.986335
 20
-52.655728
 11
83.153005
 21
-52.212987
  0
LINE
  8
ボルト／ビス
  6
CONTINUOUS
 62
    64
 10
81.323682
 20
-52.672052
 11
81.153023
 21
-52.212987
  0
LINE
  8
ボルト／ビス
  6
CONTINUOUS
 62
    64
 10
81.153023
 20
-51.989052
 11
81.153023
 21
-52.212987
  0
LINE
  8
ボルト／ビス
  6
CONTINUOUS
 62
    64
 10
83.153005
 20
-51.989052
 11
83.153005
 21
-52.212987
  0
ARC
  8
ボルト／ビス
  6
CONTINUOUS
 62
    64
 10
82.153014
 20
-52.545735
 40
0.033333
 50
9.840875
 51
170.159125
  0
LINE
  8
ボルト／ビス
  6
CONTINUOUS
 62
    64
 10
82.221205
 20
-52.743828
 11
82.545832
 21
-52.802707
  0
LINE
  8
ボルト／ビス
  6
CONTINUOUS
 62
    64
 10
82.084822
 20
-52.743828
 11
81.760193
 21
-52.802707
  0
LINE
  8
ボルト／ビス
  6
CONTINUOUS
 62
    64
 10
82.185865
 20
-52.540027
 11
82.221205
 21
-52.743828
  0
LINE
  8
ボルト／ビス
  6
CONTINUOUS
 62
    64
 10
82.120162
 20
-52.540027
 11
82.084822
 21
-52.743828
  0
LINE
  8
ボルト／ビス
  6
CONTINUOUS
 62
    64
 10
83.153005
 20
-51.989052
 11
81.153023
 21
-51.989052
  0
LINE
  8
ボルト／ビス
  6
CONTINUOUS
 62
    64
 10
82.819683
 20
-49.155747
 11
82.653005
 21
-48.989073
  0
LINE
  8
ボルト／ビス
  6
CONTINUOUS
 62
    64
 10
81.653023
 20
-48.989073
 11
81.486342
 21
-49.155747
  0
LINE
  8
ボルト／ビス
  6
CONTINUOUS
 62
    64
 10
81.653023
 20
-51.989052
 11
81.653023
 21
-48.989073
  0
LINE
  8
ボルト／ビス
  6
CONTINUOUS
 62
    64
 10
81.653023
 20
-48.989073
 11
82.653005
 21
-48.989073
  0
LINE
  8
ボルト／ビス
  6
CONTINUOUS
 62
    64
 10
82.653005
 20
-51.989052
 11
82.653005
 21
-48.989073
  0
LINE
  8
ボルト／ビス
  6
CONTINUOUS
 62
    64
 10
82.819683
 20
-51.989052
 11
82.819683
 21
-49.155747
  0
LINE
  8
ボルト／ビス
  6
CONTINUOUS
 62
    64
 10
82.819683
 20
-49.155747
 11
81.486342
 21
-49.155747
  0
LINE
  8
ボルト／ビス
  6
CONTINUOUS
 62
    64
 10
81.486342
 20
-51.989052
 11
81.486342
 21
-49.155747
  0
LINE
  8
ボルト／ビス
  6
CONTINUOUS
 62
    64
 10
82.153023
 20
-54.291972
 11
82.153023
 21
-48.4034
  0
ENDBLK
  0
BLOCK
  2
*GRP_0010
 70
    65
 10
0.0
 20
0.0
  0
LINE
  8
ボルト／ビス
  6
CONTINUOUS
 62
    64
 10
74.870003
 20
-64.673942
 11
74.718235
 21
-65.090917
  0
ARC
  8
ボルト／ビス
  6
CONTINUOUS
 62
    64
 10
73.50528
 20
-64.465455
 40
1.364723
 50
0.0
 51
27.277966
  0
LINE
  8
ボルト／ビス
  6
CONTINUOUS
 62
    64
 10
74.870003
 20
-60.50419
 11
74.718235
 21
-60.087215
  0
ARC
  8
ボルト／ビス
  6
CONTINUOUS
 62
    64
 10
73.50528
 20
-60.712676
 40
1.364723
 50
332.722034
 51
360.0
  0
ARC
  8
ボルト／ビス
  6
CONTINUOUS
 62
    64
 10
69.638759
 20
-62.589066
 40
5.231244
 50
346.165046
 51
373.834954
  0
LINE
  8
ボルト／ビス
  6
CONTINUOUS
 62
    64
 10
73.153335
 20
-65.090917
 11
74.718235
 21
-65.090917
  0
LINE
  8
ボルト／ビス
  6
CONTINUOUS
 62
    64
 10
73.153335
 20
-60.087215
 11
74.718235
 21
-60.087215
  0
LINE
  8
ボルト／ビス
  6
CONTINUOUS
 62
    64
 10
74.870003
 20
-60.50419
 11
74.870003
 21
-64.673942
  0
LINE
  8
ボルト／ビス
  6
CONTINUOUS
 62
    64
 10
74.718235
 20
-61.33814
 11
73.153335
 21
-61.33814
  0
LINE
  8
ボルト／ビス
  6
CONTINUOUS
 62
    64
 10
74.718235
 20
-63.839992
 11
73.153335
 21
-63.839992
  0
LINE
  8
ボルト／ビス
  6
CONTINUOUS
 62
    64
 10
73.153335
 20
-60.087215
 11
73.153335
 21
-65.090917
  0
LINE
  8
ボルト／ビス
  6
CONTINUOUS
 62
    64
 10
72.553335
 20
-65.505732
 11
72.220003
 21
-65.505732
  0
LINE
  8
ボルト／ビス
  6
CONTINUOUS
 62
    64
 10
72.553335
 20
-59.6724
 11
72.220003
 21
-59.6724
  0
LINE
  8
ボルト／ビス
  6
CONTINUOUS
 62
    64
 10
72.553335
 20
-65.505732
 11
72.553335
 21
-59.6724
  0
LINE
  8
ボルト／ビス
  6
CONTINUOUS
 62
    64
 10
72.220003
 20
-65.505732
 11
72.220003
 21
-59.6724
  0
LINE
  8
ボルト／ビス
  6
CONTINUOUS
 62
    64
 10
73.153335
 20
-62.589065
 11
72.553335
 21
-62.589065
  0
LINE
  8
ボルト／ビス
  6
CONTINUOUS
 62
    64
 10
73.153335
 20
-59.955732
 11
72.553335
 21
-59.955732
  0
LINE
  8
ボルト／ビス
  6
CONTINUOUS
 62
    64
 10
73.153335
 20
-65.2224
 11
72.553335
 21
-65.2224
  0
LINE
  8
ボルト／ビス
  6
CONTINUOUS
 62
    64
 10
73.153335
 20
-59.955732
 11
73.153335
 21
-65.2224
  0
LINE
  8
ボルト／ビス
  6
CONTINUOUS
 62
    64
 10
76.536667
 20
-62.589065
 11
63.153335
 21
-62.589065
  0
LINE
  8
ボルト／ビス
  6
CONTINUOUS
 62
    64
 10
64.820003
 20
-61.5224
 11
64.820003
 21
-63.655732
  0
LINE
  8
ボルト／ビス
  6
CONTINUOUS
 62
    64
 10
65.220003
 20
-61.255732
 11
64.820003
 21
-61.5224
  0
LINE
  8
ボルト／ビス
  6
CONTINUOUS
 62
    64
 10
65.220003
 20
-63.9224
 11
64.820003
 21
-63.655732
  0
LINE
  8
ボルト／ビス
  6
CONTINUOUS
 62
    64
 10
64.820003
 20
-61.5224
 11
64.820003
 21
-63.655732
  0
LINE
  8
ボルト／ビス
  6
CONTINUOUS
 62
    64
 10
65.220003
 20
-61.255732
 11
65.220003
 21
-63.9224
  0
LINE
  8
ボルト／ビス
  6
CONTINUOUS
 62
    64
 10
72.220003
 20
-61.255732
 11
65.220003
 21
-61.255732
  0
LINE
  8
ボルト／ビス
  6
CONTINUOUS
 62
    64
 10
72.220003
 20
-63.9224
 11
65.220003
 21
-63.9224
  0
LINE
  8
ボルト／ビス
  6
CONTINUOUS
 62
    64
 10
72.220003
 20
-61.5224
 11
64.820003
 21
-61.5224
  0
LINE
  8
ボルト／ビス
  6
CONTINUOUS
 62
    64
 10
72.220003
 20
-63.655732
 11
64.820003
 21
-63.655732
  0
ENDBLK
  0
BLOCK
  2
*GRP_0011
 70
    65
 10
0.0
 20
0.0
  0
LINE
  8
ボルト／ビス
  6
CONTINUOUS
 62
    64
 10
67.436667
 20
-64.67394
 11
67.588433
 21
-65.090915
  0
ARC
  8
ボルト／ビス
  6
CONTINUOUS
 62
    64
 10
68.80139
 20
-64.465454
 40
1.364723
 50
152.722034
 51
180.0
  0
LINE
  8
ボルト／ビス
  6
CONTINUOUS
 62
    64
 10
67.436667
 20
-60.504187
 11
67.588433
 21
-60.087212
  0
ARC
  8
ボルト／ビス
  6
CONTINUOUS
 62
    64
 10
68.80139
 20
-60.712675
 40
1.364723
 50
180.0
 51
207.277966
  0
ARC
  8
ボルト／ビス
  6
CONTINUOUS
 62
    64
 10
72.667911
 20
-62.589064
 40
5.231244
 50
166.165046
 51
193.834954
  0
LINE
  8
ボルト／ビス
  6
CONTINUOUS
 62
    64
 10
69.153335
 20
-65.090915
 11
67.588433
 21
-65.090915
  0
LINE
  8
ボルト／ビス
  6
CONTINUOUS
 62
    64
 10
69.153335
 20
-60.087212
 11
67.588433
 21
-60.087212
  0
LINE
  8
ボルト／ビス
  6
CONTINUOUS
 62
    64
 10
67.436667
 20
-60.504187
 11
67.436667
 21
-64.67394
  0
LINE
  8
ボルト／ビス
  6
CONTINUOUS
 62
    64
 10
67.588433
 20
-61.338137
 11
69.153335
 21
-61.338137
  0
LINE
  8
ボルト／ビス
  6
CONTINUOUS
 62
    64
 10
67.588433
 20
-63.83999
 11
69.153335
 21
-63.83999
  0
LINE
  8
ボルト／ビス
  6
CONTINUOUS
 62
    64
 10
69.153335
 20
-60.087212
 11
69.153335
 21
-65.090915
  0
LINE
  8
ボルト／ビス
  6
CONTINUOUS
 62
    64
 10
69.753335
 20
-65.50573
 11
70.086667
 21
-65.50573
  0
LINE
  8
ボルト／ビス
  6
CONTINUOUS
 62
    64
 10
69.753335
 20
-59.672397
 11
70.086667
 21
-59.672397
  0
LINE
  8
ボルト／ビス
  6
CONTINUOUS
 62
    64
 10
69.753335
 20
-65.50573
 11
69.753335
 21
-59.672397
  0
LINE
  8
ボルト／ビス
  6
CONTINUOUS
 62
    64
 10
70.086667
 20
-65.50573
 11
70.086667
 21
-59.672397
  0
LINE
  8
ボルト／ビス
  6
CONTINUOUS
 62
    64
 10
69.153335
 20
-62.589062
 11
69.753335
 21
-62.589062
  0
LINE
  8
ボルト／ビス
  6
CONTINUOUS
 62
    64
 10
69.153335
 20
-59.95573
 11
69.753335
 21
-59.95573
  0
LINE
  8
ボルト／ビス
  6
CONTINUOUS
 62
    64
 10
69.153335
 20
-65.222397
 11
69.753335
 21
-65.222397
  0
LINE
  8
ボルト／ビス
  6
CONTINUOUS
 62
    64
 10
69.153335
 20
-59.95573
 11
69.153335
 21
-65.222397
  0
ENDBLK
  0
BLOCK
  2
*GRP_0012
 70
    65
 10
0.0
 20
0.0
  0
POLYLINE
  8
ボルト／ビス
  6
CONTINUOUS
 62
    64
 66
     1
  0
VERTEX
  8
ボルト／ビス
 10
-64.850062
 20
-52.655728
  0
VERTEX
  8
ボルト／ビス
 10
-64.846062
 20
-52.672052
  0
VERTEX
  8
ボルト／ビス
 10
-64.834062
 20
-52.688227
  0
VERTEX
  8
ボルト／ビス
 10
-64.814185
 20
-52.704108
  0
VERTEX
  8
ボルト／ビス
 10
-64.786632
 20
-52.719507
  0
VERTEX
  8
ボルト／ビス
 10
-64.751663
 20
-52.73428
  0
VERTEX
  8
ボルト／ビス
 10
-64.709635
 20
-52.748308
  0
VERTEX
  8
ボルト／ビス
 10
-64.660905
 20
-52.761452
  0
VERTEX
  8
ボルト／ビス
 10
-64.605985
 20
-52.77358
  0
VERTEX
  8
ボルト／ビス
 10
-64.545385
 20
-52.784552
  0
VERTEX
  8
ボルト／ビス
 10
-64.479705
 20
-52.794308
  0
VERTEX
  8
ボルト／ビス
 10
-64.409562
 20
-52.802707
  0
VERTEX
  8
ボルト／ビス
 10
-64.335645
 20
-52.809707
  0
VERTEX
  8
ボルト／ビス
 10
-64.258635
 20
-52.815208
  0
VERTEX
  8
ボルト／ビス
 10
-64.179323
 20
-52.81918
  0
VERTEX
  8
ボルト／ビス
 10
-64.098405
 20
-52.82158
  0
VERTEX
  8
ボルト／ビス
 10
-64.016745
 20
-52.82238
  0
VERTEX
  8
ボルト／ビス
 10
-63.935065
 20
-52.82158
  0
VERTEX
  8
ボルト／ビス
 10
-63.854165
 20
-52.81918
  0
VERTEX
  8
ボルト／ビス
 10
-63.774845
 20
-52.815208
  0
VERTEX
  8
ボルト／ビス
 10
-63.697845
 20
-52.809707
  0
VERTEX
  8
ボルト／ビス
 10
-63.623923
 20
-52.802707
  0
VERTEX
  8
ボルト／ビス
 10
-63.553765
 20
-52.794308
  0
VERTEX
  8
ボルト／ビス
 10
-63.488093
 20
-52.784552
  0
VERTEX
  8
ボルト／ビス
 10
-63.427492
 20
-52.77358
  0
VERTEX
  8
ボルト／ビス
 10
-63.372565
 20
-52.761452
  0
VERTEX
  8
ボルト／ビス
 10
-63.323845
 20
-52.748308
  0
VERTEX
  8
ボルト／ビス
 10
-63.281822
 20
-52.73428
  0
VERTEX
  8
ボルト／ビス
 10
-63.246845
 20
-52.719507
  0
VERTEX
  8
ボルト／ビス
 10
-63.219295
 20
-52.704108
  0
VERTEX
  8
ボルト／ビス
 10
-63.199423
 20
-52.688227
  0
VERTEX
  8
ボルト／ビス
 10
-63.187405
 20
-52.672052
  0
VERTEX
  8
ボルト／ビス
 10
-63.183422
 20
-52.655728
  0
SEQEND
  0
LINE
  8
ボルト／ビス
  6
CONTINUOUS
 62
    64
 10
-64.850062
 20
-52.655728
 11
-65.016735
 21
-52.212987
  0
LINE
  8
ボルト／ビス
  6
CONTINUOUS
 62
    64
 10
-63.187405
 20
-52.672052
 11
-63.016745
 21
-52.212987
  0
LINE
  8
ボルト／ビス
  6
CONTINUOUS
 62
    64
 10
-63.016745
 20
-51.989052
 11
-63.016745
 21
-52.212987
  0
LINE
  8
ボルト／ビス
  6
CONTINUOUS
 62
    64
 10
-65.016735
 20
-51.989052
 11
-65.016735
 21
-52.212987
  0
ARC
  8
ボルト／ビス
  6
CONTINUOUS
 62
    64
 10
-64.016739
 20
-52.545735
 40
0.033333
 50
9.840875
 51
170.159125
  0
LINE
  8
ボルト／ビス
  6
CONTINUOUS
 62
    64
 10
-64.084933
 20
-52.743828
 11
-64.409562
 21
-52.802707
  0
LINE
  8
ボルト／ビス
  6
CONTINUOUS
 62
    64
 10
-63.948545
 20
-52.743828
 11
-63.623923
 21
-52.802707
  0
LINE
  8
ボルト／ビス
  6
CONTINUOUS
 62
    64
 10
-64.049593
 20
-52.540027
 11
-64.084933
 21
-52.743828
  0
LINE
  8
ボルト／ビス
  6
CONTINUOUS
 62
    64
 10
-63.983885
 20
-52.540027
 11
-63.948545
 21
-52.743828
  0
LINE
  8
ボルト／ビス
  6
CONTINUOUS
 62
    64
 10
-65.016735
 20
-51.989052
 11
-63.016745
 21
-51.989052
  0
LINE
  8
ボルト／ビス
  6
CONTINUOUS
 62
    64
 10
-64.683405
 20
-49.155747
 11
-64.516735
 21
-48.989073
  0
LINE
  8
ボルト／ビス
  6
CONTINUOUS
 62
    64
 10
-63.516745
 20
-48.989073
 11
-63.350065
 21
-49.155747
  0
LINE
  8
ボルト／ビス
  6
CONTINUOUS
 62
    64
 10
-63.516745
 20
-51.989052
 11
-63.516745
 21
-48.989073
  0
LINE
  8
ボルト／ビス
  6
CONTINUOUS
 62
    64
 10
-63.516745
 20
-48.989073
 11
-64.516735
 21
-48.989073
  0
LINE
  8
ボルト／ビス
  6
CONTINUOUS
 62
    64
 10
-64.516735
 20
-51.989052
 11
-64.516735
 21
-48.989073
  0
LINE
  8
ボルト／ビス
  6
CONTINUOUS
 62
    64
 10
-64.683405
 20
-51.989052
 11
-64.683405
 21
-49.155747
  0
LINE
  8
ボルト／ビス
  6
CONTINUOUS
 62
    64
 10
-64.683405
 20
-49.155747
 11
-63.350065
 21
-49.155747
  0
LINE
  8
ボルト／ビス
  6
CONTINUOUS
 62
    64
 10
-63.350065
 20
-51.989052
 11
-63.350065
 21
-49.155747
  0
LINE
  8
ボルト／ビス
  6
CONTINUOUS
 62
    64
 10
-64.016745
 20
-54.291972
 11
-64.016745
 21
-48.4034
  0
ENDBLK
  0
BLOCK
  2
*GRP_0013
 70
    65
 10
0.0
 20
0.0
  0
POLYLINE
  8
ボルト／ビス
  6
CONTINUOUS
 62
    64
 66
     1
  0
VERTEX
  8
ボルト／ビス
 10
-91.850795
 20
-52.655728
  0
VERTEX
  8
ボルト／ビス
 10
-91.846792
 20
-52.672052
  0
VERTEX
  8
ボルト／ビス
 10
-91.834793
 20
-52.688227
  0
VERTEX
  8
ボルト／ビス
 10
-91.814923
 20
-52.704108
  0
VERTEX
  8
ボルト／ビス
 10
-91.787365
 20
-52.719507
  0
VERTEX
  8
ボルト／ビス
 10
-91.752395
 20
-52.73428
  0
VERTEX
  8
ボルト／ビス
 10
-91.710365
 20
-52.748308
  0
VERTEX
  8
ボルト／ビス
 10
-91.661643
 20
-52.761452
  0
VERTEX
  8
ボルト／ビス
 10
-91.606722
 20
-52.77358
  0
VERTEX
  8
ボルト／ビス
 10
-91.546122
 20
-52.784552
  0
VERTEX
  8
ボルト／ビス
 10
-91.480443
 20
-52.794308
  0
VERTEX
  8
ボルト／ビス
 10
-91.410293
 20
-52.802707
  0
VERTEX
  8
ボルト／ビス
 10
-91.336383
 20
-52.809707
  0
VERTEX
  8
ボルト／ビス
 10
-91.259365
 20
-52.815208
  0
VERTEX
  8
ボルト／ビス
 10
-91.180052
 20
-52.81918
  0
VERTEX
  8
ボルト／ビス
 10
-91.099143
 20
-52.82158
  0
VERTEX
  8
ボルト／ビス
 10
-91.017483
 20
-52.82238
  0
VERTEX
  8
ボルト／ビス
 10
-90.935803
 20
-52.82158
  0
VERTEX
  8
ボルト／ビス
 10
-90.854903
 20
-52.81918
  0
VERTEX
  8
ボルト／ビス
 10
-90.775583
 20
-52.815208
  0
VERTEX
  8
ボルト／ビス
 10
-90.698582
 20
-52.809707
  0
VERTEX
  8
ボルト／ビス
 10
-90.624652
 20
-52.802707
  0
VERTEX
  8
ボルト／ビス
 10
-90.554503
 20
-52.794308
  0
VERTEX
  8
ボルト／ビス
 10
-90.488825
 20
-52.784552
  0
VERTEX
  8
ボルト／ビス
 10
-90.428225
 20
-52.77358
  0
VERTEX
  8
ボルト／ビス
 10
-90.373303
 20
-52.761452
  0
VERTEX
  8
ボルト／ビス
 10
-90.324582
 20
-52.748308
  0
VERTEX
  8
ボルト／ビス
 10
-90.282555
 20
-52.73428
  0
VERTEX
  8
ボルト／ビス
 10
-90.247583
 20
-52.719507
  0
VERTEX
  8
ボルト／ビス
 10
-90.220025
 20
-52.704108
  0
VERTEX
  8
ボルト／ビス
 10
-90.200152
 20
-52.688227
  0
VERTEX
  8
ボルト／ビス
 10
-90.188142
 20
-52.672052
  0
VERTEX
  8
ボルト／ビス
 10
-90.184155
 20
-52.655728
  0
SEQEND
  0
LINE
  8
ボルト／ビス
  6
CONTINUOUS
 62
    64
 10
-91.850795
 20
-52.655728
 11
-92.017465
 21
-52.212987
  0
LINE
  8
ボルト／ビス
  6
CONTINUOUS
 62
    64
 10
-90.188142
 20
-52.672052
 11
-90.017483
 21
-52.212987
  0
LINE
  8
ボルト／ビス
  6
CONTINUOUS
 62
    64
 10
-90.017483
 20
-51.989052
 11
-90.017483
 21
-52.212987
  0
LINE
  8
ボルト／ビス
  6
CONTINUOUS
 62
    64
 10
-92.017465
 20
-51.989052
 11
-92.017465
 21
-52.212987
  0
ARC
  8
ボルト／ビス
  6
CONTINUOUS
 62
    64
 10
-91.017474
 20
-52.545735
 40
0.033333
 50
9.840875
 51
170.159125
  0
LINE
  8
ボルト／ビス
  6
CONTINUOUS
 62
    64
 10
-91.085665
 20
-52.743828
 11
-91.410293
 21
-52.802707
  0
LINE
  8
ボルト／ビス
  6
CONTINUOUS
 62
    64
 10
-90.949283
 20
-52.743828
 11
-90.624652
 21
-52.802707
  0
LINE
  8
ボルト／ビス
  6
CONTINUOUS
 62
    64
 10
-91.050325
 20
-52.540027
 11
-91.085665
 21
-52.743828
  0
LINE
  8
ボルト／ビス
  6
CONTINUOUS
 62
    64
 10
-90.984623
 20
-52.540027
 11
-90.949283
 21
-52.743828
  0
LINE
  8
ボルト／ビス
  6
CONTINUOUS
 62
    64
 10
-92.017465
 20
-51.989052
 11
-90.017483
 21
-51.989052
  0
LINE
  8
ボルト／ビス
  6
CONTINUOUS
 62
    64
 10
-91.684142
 20
-49.155747
 11
-91.517465
 21
-48.989073
  0
LINE
  8
ボルト／ビス
  6
CONTINUOUS
 62
    64
 10
-90.517483
 20
-48.989073
 11
-90.350803
 21
-49.155747
  0
LINE
  8
ボルト／ビス
  6
CONTINUOUS
 62
    64
 10
-90.517483
 20
-51.989052
 11
-90.517483
 21
-48.989073
  0
LINE
  8
ボルト／ビス
  6
CONTINUOUS
 62
    64
 10
-90.517483
 20
-48.989073
 11
-91.517465
 21
-48.989073
  0
LINE
  8
ボルト／ビス
  6
CONTINUOUS
 62
    64
 10
-91.517465
 20
-51.989052
 11
-91.517465
 21
-48.989073
  0
LINE
  8
ボルト／ビス
  6
CONTINUOUS
 62
    64
 10
-91.684142
 20
-51.989052
 11
-91.684142
 21
-49.155747
  0
LINE
  8
ボルト／ビス
  6
CONTINUOUS
 62
    64
 10
-91.684142
 20
-49.155747
 11
-90.350803
 21
-49.155747
  0
LINE
  8
ボルト／ビス
  6
CONTINUOUS
 62
    64
 10
-90.350803
 20
-51.989052
 11
-90.350803
 21
-49.155747
  0
LINE
  8
ボルト／ビス
  6
CONTINUOUS
 62
    64
 10
-91.017483
 20
-54.291972
 11
-91.017483
 21
-48.4034
  0
ENDBLK
  0
BLOCK
  2
*GRP_0014
 70
    65
 10
0.0
 20
0.0
  0
LINE
  8
ボルト／ビス
  6
CONTINUOUS
 62
    64
 10
-83.734462
 20
-64.673942
 11
-83.582695
 21
-65.090917
  0
ARC
  8
ボルト／ビス
  6
CONTINUOUS
 62
    64
 10
-82.36974
 20
-64.465455
 40
1.364723
 50
152.722034
 51
180.0
  0
LINE
  8
ボルト／ビス
  6
CONTINUOUS
 62
    64
 10
-83.734462
 20
-60.50419
 11
-83.582695
 21
-60.087215
  0
ARC
  8
ボルト／ビス
  6
CONTINUOUS
 62
    64
 10
-82.36974
 20
-60.712676
 40
1.364723
 50
180.0
 51
207.277966
  0
ARC
  8
ボルト／ビス
  6
CONTINUOUS
 62
    64
 10
-78.503219
 20
-62.589066
 40
5.231244
 50
166.165046
 51
193.834954
  0
LINE
  8
ボルト／ビス
  6
CONTINUOUS
 62
    64
 10
-82.017795
 20
-65.090917
 11
-83.582695
 21
-65.090917
  0
LINE
  8
ボルト／ビス
  6
CONTINUOUS
 62
    64
 10
-82.017795
 20
-60.087215
 11
-83.582695
 21
-60.087215
  0
LINE
  8
ボルト／ビス
  6
CONTINUOUS
 62
    64
 10
-83.734462
 20
-60.50419
 11
-83.734462
 21
-64.673942
  0
LINE
  8
ボルト／ビス
  6
CONTINUOUS
 62
    64
 10
-83.582695
 20
-61.33814
 11
-82.017795
 21
-61.33814
  0
LINE
  8
ボルト／ビス
  6
CONTINUOUS
 62
    64
 10
-83.582695
 20
-63.839992
 11
-82.017795
 21
-63.839992
  0
LINE
  8
ボルト／ビス
  6
CONTINUOUS
 62
    64
 10
-82.017795
 20
-60.087215
 11
-82.017795
 21
-65.090917
  0
LINE
  8
ボルト／ビス
  6
CONTINUOUS
 62
    64
 10
-81.417795
 20
-65.505732
 11
-81.084462
 21
-65.505732
  0
LINE
  8
ボルト／ビス
  6
CONTINUOUS
 62
    64
 10
-81.417795
 20
-59.6724
 11
-81.084462
 21
-59.6724
  0
LINE
  8
ボルト／ビス
  6
CONTINUOUS
 62
    64
 10
-81.417795
 20
-65.505732
 11
-81.417795
 21
-59.6724
  0
LINE
  8
ボルト／ビス
  6
CONTINUOUS
 62
    64
 10
-81.084462
 20
-65.505732
 11
-81.084462
 21
-59.6724
  0
LINE
  8
ボルト／ビス
  6
CONTINUOUS
 62
    64
 10
-82.017795
 20
-62.589065
 11
-81.417795
 21
-62.589065
  0
LINE
  8
ボルト／ビス
  6
CONTINUOUS
 62
    64
 10
-82.017795
 20
-59.955732
 11
-81.417795
 21
-59.955732
  0
LINE
  8
ボルト／ビス
  6
CONTINUOUS
 62
    64
 10
-82.017795
 20
-65.2224
 11
-81.417795
 21
-65.2224
  0
LINE
  8
ボルト／ビス
  6
CONTINUOUS
 62
    64
 10
-82.017795
 20
-59.955732
 11
-82.017795
 21
-65.2224
  0
LINE
  8
ボルト／ビス
  6
CONTINUOUS
 62
    64
 10
-85.401127
 20
-62.589065
 11
-72.017795
 21
-62.589065
  0
LINE
  8
ボルト／ビス
  6
CONTINUOUS
 62
    64
 10
-73.684462
 20
-61.5224
 11
-73.684462
 21
-63.655732
  0
LINE
  8
ボルト／ビス
  6
CONTINUOUS
 62
    64
 10
-74.084462
 20
-61.255732
 11
-73.684462
 21
-61.5224
  0
LINE
  8
ボルト／ビス
  6
CONTINUOUS
 62
    64
 10
-74.084462
 20
-63.9224
 11
-73.684462
 21
-63.655732
  0
LINE
  8
ボルト／ビス
  6
CONTINUOUS
 62
    64
 10
-73.684462
 20
-61.5224
 11
-73.684462
 21
-63.655732
  0
LINE
  8
ボルト／ビス
  6
CONTINUOUS
 62
    64
 10
-74.084462
 20
-61.255732
 11
-74.084462
 21
-63.9224
  0
LINE
  8
ボルト／ビス
  6
CONTINUOUS
 62
    64
 10
-81.084462
 20
-61.255732
 11
-74.084462
 21
-61.255732
  0
LINE
  8
ボルト／ビス
  6
CONTINUOUS
 62
    64
 10
-81.084462
 20
-63.9224
 11
-74.084462
 21
-63.9224
  0
LINE
  8
ボルト／ビス
  6
CONTINUOUS
 62
    64
 10
-81.084462
 20
-61.5224
 11
-73.684462
 21
-61.5224
  0
LINE
  8
ボルト／ビス
  6
CONTINUOUS
 62
    64
 10
-81.084462
 20
-63.655732
 11
-73.684462
 21
-63.655732
  0
ENDBLK
  0
BLOCK
  2
*GRP_0015
 70
    65
 10
0.0
 20
0.0
  0
LINE
  8
ボルト／ビス
  6
CONTINUOUS
 62
    64
 10
-76.301127
 20
-64.67394
 11
-76.452892
 21
-65.090915
  0
ARC
  8
ボルト／ビス
  6
CONTINUOUS
 62
    64
 10
-77.66585
 20
-64.465454
 40
1.364723
 50
0.0
 51
27.277966
  0
LINE
  8
ボルト／ビス
  6
CONTINUOUS
 62
    64
 10
-76.301127
 20
-60.504187
 11
-76.452892
 21
-60.087212
  0
ARC
  8
ボルト／ビス
  6
CONTINUOUS
 62
    64
 10
-77.66585
 20
-60.712675
 40
1.364723
 50
332.722034
 51
360.0
  0
ARC
  8
ボルト／ビス
  6
CONTINUOUS
 62
    64
 10
-81.532371
 20
-62.589064
 40
5.231244
 50
346.165046
 51
373.834954
  0
LINE
  8
ボルト／ビス
  6
CONTINUOUS
 62
    64
 10
-78.017795
 20
-65.090915
 11
-76.452892
 21
-65.090915
  0
LINE
  8
ボルト／ビス
  6
CONTINUOUS
 62
    64
 10
-78.017795
 20
-60.087212
 11
-76.452892
 21
-60.087212
  0
LINE
  8
ボルト／ビス
  6
CONTINUOUS
 62
    64
 10
-76.301127
 20
-60.504187
 11
-76.301127
 21
-64.67394
  0
LINE
  8
ボルト／ビス
  6
CONTINUOUS
 62
    64
 10
-76.452892
 20
-61.338137
 11
-78.017795
 21
-61.338137
  0
LINE
  8
ボルト／ビス
  6
CONTINUOUS
 62
    64
 10
-76.452892
 20
-63.83999
 11
-78.017795
 21
-63.83999
  0
LINE
  8
ボルト／ビス
  6
CONTINUOUS
 62
    64
 10
-78.017795
 20
-60.087212
 11
-78.017795
 21
-65.090915
  0
LINE
  8
ボルト／ビス
  6
CONTINUOUS
 62
    64
 10
-78.617795
 20
-65.50573
 11
-78.951127
 21
-65.50573
  0
LINE
  8
ボルト／ビス
  6
CONTINUOUS
 62
    64
 10
-78.617795
 20
-59.672397
 11
-78.951127
 21
-59.672397
  0
LINE
  8
ボルト／ビス
  6
CONTINUOUS
 62
    64
 10
-78.617795
 20
-65.50573
 11
-78.617795
 21
-59.672397
  0
LINE
  8
ボルト／ビス
  6
CONTINUOUS
 62
    64
 10
-78.951127
 20
-65.50573
 11
-78.951127
 21
-59.672397
  0
LINE
  8
ボルト／ビス
  6
CONTINUOUS
 62
    64
 10
-78.017795
 20
-62.589062
 11
-78.617795
 21
-62.589062
  0
LINE
  8
ボルト／ビス
  6
CONTINUOUS
 62
    64
 10
-78.017795
 20
-59.95573
 11
-78.617795
 21
-59.95573
  0
LINE
  8
ボルト／ビス
  6
CONTINUOUS
 62
    64
 10
-78.017795
 20
-65.222397
 11
-78.617795
 21
-65.222397
  0
LINE
  8
ボルト／ビス
  6
CONTINUOUS
 62
    64
 10
-78.017795
 20
-59.95573
 11
-78.017795
 21
-65.222397
  0
ENDBLK
  0
BLOCK
  2
*GRP_0016
 70
    65
 10
0.0
 20
0.0
  0
POLYLINE
  8
寸法
  6
BYBLOCK
 62
     0
 66
     1
  0
VERTEX
  8
寸法
 10
-107.834213
 20
-55.359175
  0
VERTEX
  8
寸法
 10
-105.236135
 20
-56.859175
  0
VERTEX
  8
寸法
 10
-106.736135
 20
-54.261097
  0
SEQEND
  0
POLYLINE
  8
寸法
  6
BYBLOCK
 62
     0
 66
     1
  0
VERTEX
  8
寸法
 10
-105.236135
 20
-56.859175
  0
VERTEX
  8
寸法
 10
-114.274377
 20
-47.820932
  0
VERTEX
  8
寸法
 10
-117.19589
 20
-47.820932
  0
SEQEND
  0
ENDBLK
  0
BLOCK
  2
*GRP_0017
 70
    65
 10
0.0
 20
0.0
  0
ARC
  8
St
  6
CONTINUOUS
 62
   127
 10
70.086668
 20
-51.989063
 40
1.066667
 50
360.0
 51
450.0
  0
LINE
  8
St
  6
CONTINUOUS
 62
   127
 10
83.81969
 20
-50.922397
 11
53.819982
 21
-50.922397
  0
LINE
  8
St
  6
CONTINUOUS
 62
   127
 10
83.81969
 20
-51.989063
 11
53.819982
 21
-51.989063
  0
LINE
  8
St
  6
CONTINUOUS
 62
   127
 10
53.819982
 20
-50.922397
 11
53.819982
 21
-51.989063
  0
LINE
  8
St
  6
CONTINUOUS
 10
56.421912
 20
-50.922397
 11
57.488578
 21
-51.989063
  0
LINE
  8
St
  6
CONTINUOUS
 10
56.18621
 20
-50.922397
 11
57.252875
 21
-51.989063
  0
LINE
  8
St
  6
CONTINUOUS
 10
77.497703
 20
-50.922397
 11
78.564367
 21
-51.989063
  0
LINE
  8
St
  6
CONTINUOUS
 10
77.262
 20
-50.922397
 11
78.328665
 21
-51.989063
  0
LINE
  8
St
  6
CONTINUOUS
 62
   127
 10
71.153335
 20
-67.589062
 11
70.08667
 21
-67.589062
  0
LINE
  8
St
  6
CONTINUOUS
 62
   127
 10
70.08667
 20
-51.989063
 11
70.08667
 21
-67.589062
  0
LINE
  8
St
  6
CONTINUOUS
 62
   127
 10
71.153335
 20
-51.989063
 11
71.153335
 21
-67.589062
  0
LINE
  8
St
  6
CONTINUOUS
 10
83.81969
 20
-50.922397
 11
83.81969
 21
-51.989063
  0
LINE
  8
St
  6
CONTINUOUS
 10
55.902422
 20
-50.922385
 11
55.902422
 21
-51.989052
  0
LINE
  8
St
  6
CONTINUOUS
 10
54.402422
 20
-50.922385
 11
54.402422
 21
-51.989052
  0
LINE
  8
St
  6
CONTINUOUS
 10
54.402422
 20
-51.189052
 11
55.902422
 21
-51.189052
  0
LINE
  8
St
  6
CONTINUOUS
 10
54.402422
 20
-51.455717
 11
55.902422
 21
-51.455717
  0
LINE
  8
St
  6
CONTINUOUS
 10
54.402422
 20
-51.722385
 11
55.902422
 21
-51.722385
  0
LINE
  8
St
  6
CONTINUOUS
 10
55.152422
 20
-53.00601
 11
55.152422
 21
-49.848465
  0
LINE
  8
St
  6
CONTINUOUS
 10
82.903023
 20
-50.922385
 11
82.903023
 21
-51.989052
  0
LINE
  8
St
  6
CONTINUOUS
 10
81.403023
 20
-50.922385
 11
81.403023
 21
-51.989052
  0
LINE
  8
St
  6
CONTINUOUS
 10
81.403023
 20
-51.189052
 11
82.903023
 21
-51.189052
  0
LINE
  8
St
  6
CONTINUOUS
 10
81.403023
 20
-51.455717
 11
82.903023
 21
-51.455717
  0
LINE
  8
St
  6
CONTINUOUS
 10
81.403023
 20
-51.722385
 11
82.903023
 21
-51.722385
  0
LINE
  8
St
  6
CONTINUOUS
 10
82.153023
 20
-53.00601
 11
82.153023
 21
-49.848465
  0
LINE
  8
St
  6
CONTINUOUS
 10
70.08667
 20
-64.255732
 11
71.153335
 21
-64.255732
  0
LINE
  8
St
  6
CONTINUOUS
 10
70.08667
 20
-60.922397
 11
71.153335
 21
-60.922397
  0
LINE
  8
St
  6
CONTINUOUS
 10
70.353338
 20
-60.922397
 11
70.353338
 21
-64.255732
  0
LINE
  8
St
  6
CONTINUOUS
 10
70.620003
 20
-60.922397
 11
70.620003
 21
-64.255732
  0
LINE
  8
St
  6
CONTINUOUS
 10
70.88667
 20
-60.922397
 11
70.88667
 21
-64.255732
  0
LINE
  8
St
  6
CONTINUOUS
 10
69.109245
 20
-62.589065
 11
72.089072
 21
-62.589065
  0
ENDBLK
  0
BLOCK
  2
*GRP_0018
 70
    65
 10
0.0
 20
0.0
  0
ARC
  8
St
  6
CONTINUOUS
 62
   127
 10
-78.951128
 20
-51.989063
 40
1.066667
 50
90.0
 51
180.0
  0
LINE
  8
St
  6
CONTINUOUS
 62
   127
 10
-92.68415
 20
-50.922397
 11
-62.684443
 21
-50.922397
  0
LINE
  8
St
  6
CONTINUOUS
 62
   127
 10
-92.68415
 20
-51.989063
 11
-62.684443
 21
-51.989063
  0
LINE
  8
St
  6
CONTINUOUS
 62
   127
 10
-62.684443
 20
-50.922397
 11
-62.684443
 21
-51.989063
  0
LINE
  8
St
  6
CONTINUOUS
 10
-65.286373
 20
-50.922397
 11
-66.353038
 21
-51.989063
  0
LINE
  8
St
  6
CONTINUOUS
 10
-65.05067
 20
-50.922397
 11
-66.117335
 21
-51.989063
  0
LINE
  8
St
  6
CONTINUOUS
 10
-86.362162
 20
-50.922397
 11
-87.428827
 21
-51.989063
  0
LINE
  8
St
  6
CONTINUOUS
 10
-86.12646
 20
-50.922397
 11
-87.193125
 21
-51.989063
  0
LINE
  8
St
  6
CONTINUOUS
 62
   127
 10
-80.017795
 20
-67.589062
 11
-78.95113
 21
-67.589062
  0
LINE
  8
St
  6
CONTINUOUS
 62
   127
 10
-78.95113
 20
-51.989063
 11
-78.95113
 21
-67.589062
  0
LINE
  8
St
  6
CONTINUOUS
 62
   127
 10
-80.017795
 20
-51.989063
 11
-80.017795
 21
-67.589062
  0
LINE
  8
St
  6
CONTINUOUS
 10
-92.68415
 20
-50.922397
 11
-92.68415
 21
-51.989063
  0
LINE
  8
St
  6
CONTINUOUS
 10
-64.766882
 20
-50.922385
 11
-64.766882
 21
-51.989052
  0
LINE
  8
St
  6
CONTINUOUS
 10
-63.266882
 20
-50.922385
 11
-63.266882
 21
-51.989052
  0
LINE
  8
St
  6
CONTINUOUS
 10
-63.266882
 20
-51.189052
 11
-64.766882
 21
-51.189052
  0
LINE
  8
St
  6
CONTINUOUS
 10
-63.266882
 20
-51.455717
 11
-64.766882
 21
-51.455717
  0
LINE
  8
St
  6
CONTINUOUS
 10
-63.266882
 20
-51.722385
 11
-64.766882
 21
-51.722385
  0
LINE
  8
St
  6
CONTINUOUS
 10
-64.016882
 20
-53.00601
 11
-64.016882
 21
-49.848465
  0
LINE
  8
St
  6
CONTINUOUS
 10
-91.767483
 20
-50.922385
 11
-91.767483
 21
-51.989052
  0
LINE
  8
St
  6
CONTINUOUS
 10
-90.267483
 20
-50.922385
 11
-90.267483
 21
-51.989052
  0
LINE
  8
St
  6
CONTINUOUS
 10
-90.267483
 20
-51.189052
 11
-91.767483
 21
-51.189052
  0
LINE
  8
St
  6
CONTINUOUS
 10
-90.267483
 20
-51.455717
 11
-91.767483
 21
-51.455717
  0
LINE
  8
St
  6
CONTINUOUS
 10
-90.267483
 20
-51.722385
 11
-91.767483
 21
-51.722385
  0
LINE
  8
St
  6
CONTINUOUS
 10
-91.017483
 20
-53.00601
 11
-91.017483
 21
-49.848465
  0
LINE
  8
St
  6
CONTINUOUS
 10
-78.95113
 20
-64.255732
 11
-80.017795
 21
-64.255732
  0
LINE
  8
St
  6
CONTINUOUS
 10
-78.95113
 20
-60.922397
 11
-80.017795
 21
-60.922397
  0
LINE
  8
St
  6
CONTINUOUS
 10
-79.217797
 20
-60.922397
 11
-79.217797
 21
-64.255732
  0
LINE
  8
St
  6
CONTINUOUS
 10
-79.484462
 20
-60.922397
 11
-79.484462
 21
-64.255732
  0
LINE
  8
St
  6
CONTINUOUS
 10
-79.75113
 20
-60.922397
 11
-79.75113
 21
-64.255732
  0
LINE
  8
St
  6
CONTINUOUS
 10
-77.973705
 20
-62.589065
 11
-80.953532
 21
-62.589065
  0
ENDBLK
  0
BLOCK
  2
*DIM_0019
 70
    65
 10
0.0
 20
0.0
  0
LINE
  8
寸法
  6
BYBLOCK
 62
     0
 10
-68.350335
 20
7.87597
 11
-68.350335
 21
75.32749
  0
LINE
  8
寸法
  6
BYBLOCK
 62
     0
 10
-98.350782
 20
-44.92242
 11
-98.350782
 21
75.32749
  0
LINE
  8
寸法
  6
BYBLOCK
 62
     0
 10
-68.350335
 20
75.32749
 11
-98.350782
 21
75.32749
  0
POINT
  8
寸法
 62
     0
 10
-68.350335
 20
75.32749
  0
POINT
  8
寸法
 62
     0
 10
-98.350782
 20
75.32749
  0
TEXT
  7
TextStyle03
  8
寸法
  6
CONTINUOUS
 62
     0
 10
-85.5
 20
75.7
  1
90
 40
4.0
 72
     5
 11
-81.25
 21
75.7
  0
ENDBLK
  0
BLOCK
  2
*DIM_0020
 70
    65
 10
0.0
 20
0.0
  0
LINE
  8
寸法
  6
BYBLOCK
 62
     0
 10
89.486322
 20
-44.92242
 11
89.486322
 21
75.32749
  0
LINE
  8
寸法
  6
BYBLOCK
 62
     0
 10
59.486855
 20
75.32749
 11
89.486322
 21
75.32749
  0
POINT
  8
寸法
 62
     0
 10
59.486855
 20
75.32749
  0
POINT
  8
寸法
 62
     0
 10
89.486322
 20
75.32749
  0
TEXT
  7
TextStyle03
  8
寸法
  6
CONTINUOUS
 62
     0
 10
72.35
 20
75.7
  1
90
 40
4.0
 72
     5
 11
76.6
 21
75.7
  0
ENDBLK
  0
BLOCK
  2
*DIM_0021
 70
    65
 10
0.0
 20
0.0
  0
LINE
  8
寸法
  6
BYBLOCK
 62
     0
 10
-98.350782
 20
67.394865
 11
-98.350782
 21
67.996005
  0
LINE
  8
寸法
  6
BYBLOCK
 62
     0
 10
-58.350845
 20
-36.589083
 11
-58.350845
 21
67.996005
  0
LINE
  8
寸法
  6
BYBLOCK
 62
     0
 10
-98.350782
 20
67.996005
 11
-58.350845
 21
67.996005
  0
POINT
  8
寸法
 62
     0
 10
-98.350782
 20
67.996005
  0
POINT
  8
寸法
 62
     0
 10
-58.350845
 20
67.996005
  0
TEXT
  7
TextStyle03
  8
寸法
  6
CONTINUOUS
 62
     0
 10
-81.625
 20
68.375
  1
120
 40
4.0
 72
     5
 11
-75.125
 21
68.375
  0
ENDBLK
  0
BLOCK
  2
*DIM_0022
 70
    65
 10
0.0
 20
0.0
  0
LINE
  8
寸法
  6
BYBLOCK
 62
     0
 10
49.486385
 20
-36.589083
 11
49.486385
 21
67.996005
  0
LINE
  8
寸法
  6
BYBLOCK
 62
     0
 10
-58.350845
 20
67.996005
 11
49.486385
 21
67.996005
  0
POINT
  8
寸法
 62
     0
 10
49.486385
 20
67.996005
  0
TEXT
  7
TextStyle03
  8
寸法
  6
CONTINUOUS
 62
     0
 10
-13.2
 20
68.375
  1
有効開口
 40
4.0
 72
     5
 11
4.3
 21
68.375
  0
ENDBLK
  0
BLOCK
  2
*DIM_0023
 70
    65
 10
0.0
 20
0.0
  0
LINE
  8
寸法
  6
BYBLOCK
 62
     0
 10
89.486322
 20
-36.589083
 11
89.486322
 21
67.996005
  0
LINE
  8
寸法
  6
BYBLOCK
 62
     0
 10
49.486385
 20
67.996005
 11
89.486322
 21
67.996005
  0
POINT
  8
寸法
 62
     0
 10
89.486322
 20
67.996005
  0
TEXT
  7
TextStyle03
  8
寸法
  6
CONTINUOUS
 62
     0
 10
66.225
 20
68.375
  1
120
 40
4.0
 72
     5
 11
72.725
 21
68.375
  0
ENDBLK
  0
BLOCK
  2
*DIM_0024
 70
    65
 10
0.0
 20
0.0
  0
LINE
  8
寸法
  6
BYBLOCK
 62
     0
 10
-68.350335
 20
60.16618
 11
-58.350845
 21
60.16618
  0
POINT
  8
寸法
 62
     0
 10
-68.350335
 20
60.16618
  0
POINT
  8
寸法
 62
     0
 10
-58.350845
 20
60.16618
  0
TEXT
  7
TextStyle03
  8
寸法
  6
CONTINUOUS
 62
     0
 10
-65.5
 20
60.525
  1
30
 40
4.0
 72
     5
 11
-61.25
 21
60.525
  0
ENDBLK
  0
BLOCK
  2
*DIM_0025
 70
    65
 10
0.0
 20
0.0
  0
LINE
  8
寸法
  6
BYBLOCK
 62
     0
 10
59.485875
 20
60.16618
 11
49.486385
 21
60.16618
  0
POINT
  8
寸法
 62
     0
 10
59.485875
 20
60.16618
  0
POINT
  8
寸法
 62
     0
 10
49.486385
 20
60.16618
  0
TEXT
  7
TextStyle03
  8
寸法
  6
CONTINUOUS
 62
     0
 10
52.35
 20
60.525
  1
30
 40
4.0
 72
     5
 11
56.6
 21
60.525
  0
ENDBLK
  0
BLOCK
  2
*DIM_0026
 70
    65
 10
0.0
 20
0.0
  0
LINE
  8
寸法
  6
BYBLOCK
 62
     0
 10
90.486322
 20
-50.922397
 11
155.715907
 21
-50.922397
  0
LINE
  8
寸法
  6
BYBLOCK
 62
     0
 10
155.715907
 20
-45.92242
 11
155.715907
 21
-50.922397
  0
POINT
  8
寸法
 62
     0
 10
155.715907
 20
-50.922397
  0
TEXT
  7
TextStyle03
  8
寸法
  6
CONTINUOUS
 62
     0
 10
155.325
 20
-50.55
  1
15
 40
4.0
 50
90.0
 72
     5
 11
155.325
 21
-46.3
  0
ENDBLK
  0
BLOCK
  2
*DIM_0027
 70
    65
 10
0.0
 20
0.0
  0
LINE
  8
寸法
  6
BYBLOCK
 62
     0
 10
91.48633
 20
-55.922397
 11
155.715907
 21
-55.922397
  0
LINE
  8
寸法
  6
BYBLOCK
 62
     0
 10
155.715907
 20
-50.922397
 11
155.715907
 21
-55.922397
  0
POINT
  8
寸法
 62
     0
 10
155.715907
 20
-55.922397
  0
TEXT
  7
TextStyle03
  8
寸法
  6
CONTINUOUS
 62
     0
 10
155.325
 20
-55.55
  1
15
 40
4.0
 50
90.0
 72
     5
 11
155.325
 21
-51.3
  0
ENDBLK
  0
BLOCK
  2
*DIM_0028
 70
    65
 10
0.0
 20
0.0
  0
LINE
  8
寸法
  6
BYBLOCK
 62
     0
 10
92.486322
 20
-45.92242
 11
155.715907
 21
-45.92242
  0
LINE
  8
寸法
  6
BYBLOCK
 62
     0
 10
80.717703
 20
-30.755735
 11
155.715907
 21
-30.755735
  0
LINE
  8
寸法
  6
BYBLOCK
 62
     0
 10
155.715907
 20
-45.92242
 11
155.715907
 21
-30.755735
  0
POINT
  8
寸法
 62
     0
 10
155.715907
 20
-45.92242
  0
POINT
  8
寸法
 62
     0
 10
155.715907
 20
-30.755735
  0
TEXT
  7
TextStyle03
  8
寸法
  6
CONTINUOUS
 62
     0
 10
155.325
 20
-42.725
  1
45.5
 40
4.0
 50
90.0
 72
     5
 11
155.325
 21
-33.975
  0
ENDBLK
  0
BLOCK
  2
*GRP_0029
 70
    65
 10
0.0
 20
0.0
  0
LINE
  8
ボルト／ビス
  6
CONTINUOUS
 62
    64
 10
-80.916935
 20
-28.755713
 11
-81.266317
 21
-28.786277
  0
ARC
  8
ボルト／ビス
  6
CONTINUOUS
 62
    64
 10
-81.216939
 20
-29.350802
 40
0.566667
 50
94.999989
 51
180.0
  0
LINE
  8
ボルト／ビス
  6
CONTINUOUS
 62
    64
 10
-81.7836
 20
-29.350795
 11
-81.7836
 21
-29.922378
  0
LINE
  8
ボルト／ビス
  6
CONTINUOUS
 62
    64
 10
-80.916935
 20
-31.089045
 11
-81.266317
 21
-31.058478
  0
ARC
  8
ボルト／ビス
  6
CONTINUOUS
 62
    64
 10
-81.216939
 20
-30.49398
 40
0.566667
 50
180.0
 51
265.000011
  0
LINE
  8
ボルト／ビス
  6
CONTINUOUS
 62
    64
 10
-81.7836
 20
-30.493962
 11
-81.7836
 21
-29.922378
  0
LINE
  8
ボルト／ビス
  6
CONTINUOUS
 62
    64
 10
-81.6553
 20
-29.123495
 11
-81.736017
 21
-29.123495
  0
LINE
  8
ボルト／ビス
  6
CONTINUOUS
 62
    64
 10
-81.4386
 20
-29.689045
 11
-81.4386
 21
-29.922378
  0
LINE
  8
ボルト／ビス
  6
CONTINUOUS
 62
    64
 10
-81.6553
 20
-29.555713
 11
-81.6553
 21
-29.123495
  0
LINE
  8
ボルト／ビス
  6
CONTINUOUS
 62
    64
 10
-81.4386
 20
-29.689045
 11
-81.521968
 21
-29.689045
  0
ARC
  8
ボルト／ビス
  6
CONTINUOUS
 62
    64
 10
-81.52197
 20
-29.555724
 40
0.133333
 50
180.0
 51
270.0
  0
LINE
  8
ボルト／ビス
  6
CONTINUOUS
 62
    64
 10
-81.6553
 20
-30.721263
 11
-81.736017
 21
-30.721263
  0
LINE
  8
ボルト／ビス
  6
CONTINUOUS
 62
    64
 10
-81.4386
 20
-30.155713
 11
-81.4386
 21
-29.922378
  0
LINE
  8
ボルト／ビス
  6
CONTINUOUS
 62
    64
 10
-81.6553
 20
-30.289045
 11
-81.6553
 21
-30.721263
  0
LINE
  8
ボルト／ビス
  6
CONTINUOUS
 62
    64
 10
-81.4386
 20
-30.155713
 11
-81.521968
 21
-30.155713
  0
ARC
  8
ボルト／ビス
  6
CONTINUOUS
 62
    64
 10
-81.52197
 20
-30.289058
 40
0.133333
 50
90.0
 51
180.0
  0
LINE
  8
ボルト／ビス
  6
CONTINUOUS
 62
    64
 10
-80.916935
 20
-28.755713
 11
-80.916935
 21
-31.089045
  0
LINE
  8
ボルト／ビス
  6
CONTINUOUS
 62
    64
 10
-77.0836
 20
-29.255713
 11
-76.916935
 21
-29.422378
  0
LINE
  8
ボルト／ビス
  6
CONTINUOUS
 62
    64
 10
-77.0836
 20
-30.589045
 11
-76.916935
 21
-30.422378
  0
LINE
  8
ボルト／ビス
  6
CONTINUOUS
 62
    64
 10
-77.0836
 20
-29.255713
 11
-77.0836
 21
-30.589045
  0
LINE
  8
ボルト／ビス
  6
CONTINUOUS
 62
    64
 10
-76.916935
 20
-29.422378
 11
-76.916935
 21
-30.422378
  0
LINE
  8
ボルト／ビス
  6
CONTINUOUS
 62
    64
 10
-80.916935
 20
-29.422378
 11
-76.916935
 21
-29.422378
  0
LINE
  8
ボルト／ビス
  6
CONTINUOUS
 62
    64
 10
-80.916935
 20
-30.422378
 11
-76.916935
 21
-30.422378
  0
LINE
  8
ボルト／ビス
  6
CONTINUOUS
 62
    64
 10
-80.916935
 20
-30.589045
 11
-77.0836
 21
-30.589045
  0
LINE
  8
ボルト／ビス
  6
CONTINUOUS
 62
    64
 10
-80.916935
 20
-29.255713
 11
-77.0836
 21
-29.255713
  0
LINE
  8
ボルト／ビス
  6
DASHDOT
 62
    64
 10
-82.7836
 20
-29.922378
 11
-75.916935
 21
-29.922378
  0
ENDBLK
  0
BLOCK
  2
*GRP_0030
 70
    65
 10
0.0
 20
0.0
  0
LINE
  8
ボルト／ビス
  6
CONTINUOUS
 62
    64
 10
-76.417
 20
-24.25572
 11
-75.683667
 21
-25.15572
  0
LINE
  8
ボルト／ビス
  6
CONTINUOUS
 62
    64
 10
-73.617
 20
-24.25572
 11
-74.350335
 21
-25.15572
  0
LINE
  8
ボルト／ビス
  6
CONTINUOUS
 62
    64
 10
-73.617
 20
-24.25572
 11
-76.417
 21
-24.25572
  0
LINE
  8
ボルト／ビス
  6
CONTINUOUS
 62
    64
 10
-75.017
 20
-29.001353
 11
-75.017
 21
-22.849695
  0
LINE
  8
ボルト／ビス
  6
CONTINUOUS
 62
    64
 10
-74.350335
 20
-25.15572
 11
-75.683667
 21
-25.15572
  0
LINE
  8
ボルト／ビス
  6
CONTINUOUS
 62
    64
 10
-74.350335
 20
-28.089052
 11
-74.517
 21
-28.25572
  0
LINE
  8
ボルト／ビス
  6
CONTINUOUS
 62
    64
 10
-75.683667
 20
-28.089052
 11
-75.517
 21
-28.25572
  0
LINE
  8
ボルト／ビス
  6
CONTINUOUS
 62
    64
 10
-75.683667
 20
-28.089052
 11
-74.350335
 21
-28.089052
  0
LINE
  8
ボルト／ビス
  6
CONTINUOUS
 62
    64
 10
-74.517
 20
-28.25572
 11
-75.517
 21
-28.25572
  0
LINE
  8
ボルト／ビス
  6
CONTINUOUS
 62
    64
 10
-74.350335
 20
-25.15572
 11
-74.350335
 21
-28.089052
  0
LINE
  8
ボルト／ビス
  6
CONTINUOUS
 62
    64
 10
-75.683667
 20
-25.15572
 11
-75.683667
 21
-28.089052
  0
LINE
  8
ボルト／ビス
  6
CONTINUOUS
 62
    64
 10
-75.517
 20
-25.15572
 11
-75.517
 21
-28.25572
  0
LINE
  8
ボルト／ビス
  6
CONTINUOUS
 62
    64
 10
-74.517
 20
-25.15572
 11
-74.517
 21
-28.25572
  0
ENDBLK
  0
BLOCK
  2
*GRP_0031
 70
    65
 10
0.0
 20
0.0
  0
LINE
  8
別途部材
  6
CONTINUOUS
 10
-84.815485
 20
-19.422378
 11
-84.315485
 21
-19.422378
  0
LINE
  8
別途部材
  6
CONTINUOUS
 10
-84.815485
 20
-18.755713
 11
-84.815485
 21
-19.422378
  0
ARC
  8
別途部材
  6
CONTINUOUS
 10
-83.815489
 20
-18.755716
 40
1.0
 50
90.0
 51
180.0
  0
LINE
  8
別途部材
  6
CONTINUOUS
 10
-84.315485
 20
-18.755713
 11
-84.315485
 21
-19.422378
  0
ARC
  8
別途部材
  6
CONTINUOUS
 10
-83.815489
 20
-18.755716
 40
0.5
 50
90.0
 51
180.0
  0
LINE
  8
別途部材
  6
CONTINUOUS
 10
-83.815485
 20
-18.255713
 11
-83.250267
 21
-18.255713
  0
LINE
  8
別途部材
  6
CONTINUOUS
 10
-62.48215
 20
-18.822378
 11
-62.48215
 21
-18.422378
  0
LINE
  8
別途部材
  6
CONTINUOUS
 10
-59.815485
 20
-18.089045
 11
-59.815485
 21
-18.822378
  0
ARC
  8
別途部材
  6
CONTINUOUS
 10
-60.148822
 20
-18.089049
 40
0.333333
 50
0.0
 51
90.0
  0
LINE
  8
別途部材
  6
CONTINUOUS
 10
-59.815485
 20
-18.822378
 11
-62.48215
 21
-18.822378
  0
LINE
  8
別途部材
  6
CONTINUOUS
 10
-83.815485
 20
-17.755713
 11
-60.148818
 21
-17.755713
  0
LINE
  8
別途部材
  6
CONTINUOUS
 10
-69.0836
 20
-18.422378
 11
-62.48215
 21
-18.422378
  0
ARC
  8
別途部材
  6
CONTINUOUS
 10
-69.083608
 20
-19.422386
 40
1.0
 50
90.0
 51
180.0
  0
LINE
  8
別途部材
  6
CONTINUOUS
 10
-70.1836
 20
-22.089045
 11
-70.0836
 21
-21.989045
  0
LINE
  8
別途部材
  6
CONTINUOUS
 10
-70.1836
 20
-22.089045
 11
-70.0836
 21
-22.189045
  0
LINE
  8
別途部材
  6
CONTINUOUS
 10
-70.0836
 20
-19.422378
 11
-70.0836
 21
-21.989045
  0
LINE
  8
別途部材
  6
CONTINUOUS
 10
-70.0836
 20
-22.189045
 11
-70.0836
 21
-24.255713
  0
LINE
  8
別途部材
  6
CONTINUOUS
 10
-83.150267
 20
-29.922378
 11
-83.250267
 21
-29.822378
  0
LINE
  8
別途部材
  6
CONTINUOUS
 10
-83.150267
 20
-29.922378
 11
-83.250267
 21
-30.022378
  0
LINE
  8
別途部材
  6
CONTINUOUS
 10
-83.250267
 20
-18.255713
 11
-83.250267
 21
-29.822378
  0
LINE
  8
別途部材
  6
CONTINUOUS
 10
-83.250267
 20
-30.022378
 11
-83.250267
 21
-34.422378
  0
LINE
  8
別途部材
  6
CONTINUOUS
 10
-80.416935
 20
-25.922378
 11
-80.416935
 21
-31.589045
  0
LINE
  8
別途部材
  6
CONTINUOUS
 10
-80.916935
 20
-31.589045
 11
-80.416935
 21
-31.589045
  0
LINE
  8
別途部材
  6
CONTINUOUS
 10
-83.250267
 20
-34.422378
 11
-82.750267
 21
-34.422378
  0
LINE
  8
別途部材
  6
CONTINUOUS
 10
-80.416935
 20
-25.922378
 11
-82.750267
 21
-25.922378
  0
LINE
  8
別途部材
  6
CONTINUOUS
 10
-80.916935
 20
-26.422378
 11
-82.750267
 21
-26.422378
  0
LINE
  8
別途部材
  6
CONTINUOUS
 10
-82.750267
 20
-26.422378
 11
-82.750267
 21
-34.422378
  0
LINE
  8
別途部材
  6
CONTINUOUS
 10
-82.750267
 20
-24.255713
 11
-82.750267
 21
-25.922378
  0
LINE
  8
別途部材
  6
CONTINUOUS
 10
-80.816935
 20
-29.922378
 11
-80.916935
 21
-29.822378
  0
LINE
  8
別途部材
  6
CONTINUOUS
 10
-80.816935
 20
-29.922378
 11
-80.916935
 21
-30.022378
  0
LINE
  8
別途部材
  6
CONTINUOUS
 10
-80.916935
 20
-26.422378
 11
-80.916935
 21
-29.822378
  0
LINE
  8
別途部材
  6
CONTINUOUS
 10
-80.916935
 20
-30.022378
 11
-80.916935
 21
-31.589045
  0
LINE
  8
別途部材
  6
DOT
 10
-83.250267
 20
-28.255713
 11
-82.750267
 21
-28.255713
  0
LINE
  8
別途部材
  6
DOT
 10
-83.250267
 20
-31.589045
 11
-82.750267
 21
-31.589045
  0
LINE
  8
別途部材
  6
CONTINUOUS
 10
-82.750267
 20
-18.255713
 11
-70.5836
 21
-18.255713
  0
LINE
  8
別途部材
  6
DOT
 10
-83.125267
 20
-28.255713
 11
-83.125267
 21
-31.589045
  0
LINE
  8
別途部材
  6
DOT
 10
-83.000267
 20
-28.255713
 11
-83.000267
 21
-31.589045
  0
LINE
  8
別途部材
  6
DOT
 10
-82.875267
 20
-28.255713
 11
-82.875267
 21
-31.589045
  0
LINE
  8
別途部材
  6
CONTINUOUS
 10
-70.5836
 20
-18.255713
 11
-70.5836
 21
-23.755713
  0
LINE
  8
別途部材
  6
CONTINUOUS
 10
-82.750267
 20
-18.255713
 11
-82.750267
 21
-23.755713
  0
LINE
  8
別途部材
  6
CONTINUOUS
 10
-70.5836
 20
-23.755713
 11
-82.750267
 21
-23.755713
  0
LINE
  8
別途部材
  6
CONTINUOUS
 10
-77.8336
 20
-24.155713
 11
-77.7336
 21
-24.255713
  0
LINE
  8
別途部材
  6
CONTINUOUS
 10
-77.8336
 20
-24.155713
 11
-77.9336
 21
-24.255713
  0
LINE
  8
別途部材
  6
CONTINUOUS
 10
-73.666935
 20
-24.155713
 11
-73.566935
 21
-24.255713
  0
LINE
  8
別途部材
  6
CONTINUOUS
 10
-73.666935
 20
-24.155713
 11
-73.766935
 21
-24.255713
  0
LINE
  8
別途部材
  6
CONTINUOUS
 10
-77.7336
 20
-24.255713
 11
-73.766935
 21
-24.255713
  0
LINE
  8
別途部材
  6
CONTINUOUS
 10
-70.0836
 20
-24.255713
 11
-73.566935
 21
-24.255713
  0
LINE
  8
別途部材
  6
CONTINUOUS
 10
-82.750267
 20
-24.255713
 11
-77.9336
 21
-24.255713
  0
ENDBLK
  0
BLOCK
  2
*GRP_0032
 70
    65
 10
0.0
 20
0.0
  0
LINE
  8
曲げ物
  6
CONTINUOUS
 10
-79.750267
 20
-27.422395
 11
-69.01745
 21
-27.422395
  0
LINE
  8
曲げ物
  6
CONTINUOUS
 10
-69.01745
 20
-26.755728
 11
-69.01745
 21
-27.422395
  0
LINE
  8
曲げ物
  6
CONTINUOUS
 10
-79.750267
 20
-27.422395
 11
-79.750267
 21
-31.422395
  0
LINE
  8
曲げ物
  6
CONTINUOUS
 10
-79.750267
 20
-31.422395
 11
-80.416935
 21
-31.422395
  0
ARC
  8
曲げ物
  6
CONTINUOUS
 10
-79.750266
 20
-27.422404
 40
0.666667
 50
90.0
 51
180.0
  0
LINE
  8
曲げ物
  6
CONTINUOUS
 10
-69.01745
 20
-26.755728
 11
-79.750267
 21
-26.755728
  0
LINE
  8
曲げ物
  6
CONTINUOUS
 10
-80.416935
 20
-31.422395
 11
-80.416935
 21
-27.422395
  0
ENDBLK
  0
BLOCK
  2
*GRP_0033
 70
    65
 10
0.0
 20
0.0
  0
LINE
  8
ボルト／ビス
  6
CONTINUOUS
 62
    64
 10
72.052475
 20
-28.755713
 11
72.401858
 21
-28.786277
  0
ARC
  8
ボルト／ビス
  6
CONTINUOUS
 62
    64
 10
72.352479
 20
-29.350802
 40
0.566667
 50
0.0
 51
85.000011
  0
LINE
  8
ボルト／ビス
  6
CONTINUOUS
 62
    64
 10
72.91914
 20
-29.350795
 11
72.91914
 21
-29.922378
  0
LINE
  8
ボルト／ビス
  6
CONTINUOUS
 62
    64
 10
72.052475
 20
-31.089045
 11
72.401858
 21
-31.058478
  0
ARC
  8
ボルト／ビス
  6
CONTINUOUS
 62
    64
 10
72.352479
 20
-30.49398
 40
0.566667
 50
274.999989
 51
360.0
  0
LINE
  8
ボルト／ビス
  6
CONTINUOUS
 62
    64
 10
72.91914
 20
-30.493962
 11
72.91914
 21
-29.922378
  0
LINE
  8
ボルト／ビス
  6
CONTINUOUS
 62
    64
 10
72.79084
 20
-29.123495
 11
72.871558
 21
-29.123495
  0
LINE
  8
ボルト／ビス
  6
CONTINUOUS
 62
    64
 10
72.57414
 20
-29.689045
 11
72.57414
 21
-29.922378
  0
LINE
  8
ボルト／ビス
  6
CONTINUOUS
 62
    64
 10
72.79084
 20
-29.555713
 11
72.79084
 21
-29.123495
  0
LINE
  8
ボルト／ビス
  6
CONTINUOUS
 62
    64
 10
72.57414
 20
-29.689045
 11
72.657508
 21
-29.689045
  0
ARC
  8
ボルト／ビス
  6
CONTINUOUS
 62
    64
 10
72.65751
 20
-29.555724
 40
0.133333
 50
270.0
 51
360.0
  0
LINE
  8
ボルト／ビス
  6
CONTINUOUS
 62
    64
 10
72.79084
 20
-30.721263
 11
72.871558
 21
-30.721263
  0
LINE
  8
ボルト／ビス
  6
CONTINUOUS
 62
    64
 10
72.57414
 20
-30.155713
 11
72.57414
 21
-29.922378
  0
LINE
  8
ボルト／ビス
  6
CONTINUOUS
 62
    64
 10
72.79084
 20
-30.289045
 11
72.79084
 21
-30.721263
  0
LINE
  8
ボルト／ビス
  6
CONTINUOUS
 62
    64
 10
72.57414
 20
-30.155713
 11
72.657508
 21
-30.155713
  0
ARC
  8
ボルト／ビス
  6
CONTINUOUS
 62
    64
 10
72.65751
 20
-30.289058
 40
0.133333
 50
0.0
 51
90.0
  0
LINE
  8
ボルト／ビス
  6
CONTINUOUS
 62
    64
 10
72.052475
 20
-28.755713
 11
72.052475
 21
-31.089045
  0
LINE
  8
ボルト／ビス
  6
CONTINUOUS
 62
    64
 10
68.21914
 20
-29.255713
 11
68.052475
 21
-29.422378
  0
LINE
  8
ボルト／ビス
  6
CONTINUOUS
 62
    64
 10
68.21914
 20
-30.589045
 11
68.052475
 21
-30.422378
  0
LINE
  8
ボルト／ビス
  6
CONTINUOUS
 62
    64
 10
68.21914
 20
-29.255713
 11
68.21914
 21
-30.589045
  0
LINE
  8
ボルト／ビス
  6
CONTINUOUS
 62
    64
 10
68.052475
 20
-29.422378
 11
68.052475
 21
-30.422378
  0
LINE
  8
ボルト／ビス
  6
CONTINUOUS
 62
    64
 10
72.052475
 20
-29.422378
 11
68.052475
 21
-29.422378
  0
LINE
  8
ボルト／ビス
  6
CONTINUOUS
 62
    64
 10
72.052475
 20
-30.422378
 11
68.052475
 21
-30.422378
  0
LINE
  8
ボルト／ビス
  6
CONTINUOUS
 62
    64
 10
72.052475
 20
-30.589045
 11
68.21914
 21
-30.589045
  0
LINE
  8
ボルト／ビス
  6
CONTINUOUS
 62
    64
 10
72.052475
 20
-29.255713
 11
68.21914
 21
-29.255713
  0
LINE
  8
ボルト／ビス
  6
DASHDOT
 62
    64
 10
73.91914
 20
-29.922378
 11
67.052475
 21
-29.922378
  0
ENDBLK
  0
BLOCK
  2
*GRP_0034
 70
    65
 10
0.0
 20
0.0
  0
LINE
  8
ボルト／ビス
  6
CONTINUOUS
 62
    64
 10
67.55254
 20
-24.25572
 11
66.819208
 21
-25.15572
  0
LINE
  8
ボルト／ビス
  6
CONTINUOUS
 62
    64
 10
64.75254
 20
-24.25572
 11
65.485875
 21
-25.15572
  0
LINE
  8
ボルト／ビス
  6
CONTINUOUS
 62
    64
 10
64.75254
 20
-24.25572
 11
67.55254
 21
-24.25572
  0
LINE
  8
ボルト／ビス
  6
CONTINUOUS
 62
    64
 10
66.15254
 20
-29.001353
 11
66.15254
 21
-22.849695
  0
LINE
  8
ボルト／ビス
  6
CONTINUOUS
 62
    64
 10
65.485875
 20
-25.15572
 11
66.819208
 21
-25.15572
  0
LINE
  8
ボルト／ビス
  6
CONTINUOUS
 62
    64
 10
65.485875
 20
-28.089052
 11
65.65254
 21
-28.25572
  0
LINE
  8
ボルト／ビス
  6
CONTINUOUS
 62
    64
 10
66.819208
 20
-28.089052
 11
66.65254
 21
-28.25572
  0
LINE
  8
ボルト／ビス
  6
CONTINUOUS
 62
    64
 10
66.819208
 20
-28.089052
 11
65.485875
 21
-28.089052
  0
LINE
  8
ボルト／ビス
  6
CONTINUOUS
 62
    64
 10
65.65254
 20
-28.25572
 11
66.65254
 21
-28.25572
  0
LINE
  8
ボルト／ビス
  6
CONTINUOUS
 62
    64
 10
65.485875
 20
-25.15572
 11
65.485875
 21
-28.089052
  0
LINE
  8
ボルト／ビス
  6
CONTINUOUS
 62
    64
 10
66.819208
 20
-25.15572
 11
66.819208
 21
-28.089052
  0
LINE
  8
ボルト／ビス
  6
CONTINUOUS
 62
    64
 10
66.65254
 20
-25.15572
 11
66.65254
 21
-28.25572
  0
LINE
  8
ボルト／ビス
  6
CONTINUOUS
 62
    64
 10
65.65254
 20
-25.15572
 11
65.65254
 21
-28.25572
  0
ENDBLK
  0
BLOCK
  2
*GRP_0035
 70
    65
 10
0.0
 20
0.0
  0
LINE
  8
別途部材
  6
CONTINUOUS
 10
75.951025
 20
-19.422378
 11
75.451025
 21
-19.422378
  0
LINE
  8
別途部材
  6
CONTINUOUS
 10
75.951025
 20
-18.755713
 11
75.951025
 21
-19.422378
  0
ARC
  8
別途部材
  6
CONTINUOUS
 10
74.951029
 20
-18.755716
 40
1.0
 50
0.0
 51
90.0
  0
LINE
  8
別途部材
  6
CONTINUOUS
 10
75.451025
 20
-18.755713
 11
75.451025
 21
-19.422378
  0
ARC
  8
別途部材
  6
CONTINUOUS
 10
74.951029
 20
-18.755716
 40
0.5
 50
0.0
 51
90.0
  0
LINE
  8
別途部材
  6
CONTINUOUS
 10
74.951025
 20
-18.255713
 11
74.385808
 21
-18.255713
  0
LINE
  8
別途部材
  6
CONTINUOUS
 10
53.61769
 20
-18.822378
 11
53.61769
 21
-18.422378
  0
LINE
  8
別途部材
  6
CONTINUOUS
 10
50.951025
 20
-18.089045
 11
50.951025
 21
-18.822378
  0
ARC
  8
別途部材
  6
CONTINUOUS
 10
51.284362
 20
-18.089049
 40
0.333333
 50
90.0
 51
180.0
  0
LINE
  8
別途部材
  6
CONTINUOUS
 10
50.951025
 20
-18.822378
 11
53.61769
 21
-18.822378
  0
LINE
  8
別途部材
  6
CONTINUOUS
 10
74.951025
 20
-17.755713
 11
51.284358
 21
-17.755713
  0
LINE
  8
別途部材
  6
CONTINUOUS
 10
60.21914
 20
-18.422378
 11
53.61769
 21
-18.422378
  0
ARC
  8
別途部材
  6
CONTINUOUS
 10
60.219148
 20
-19.422386
 40
1.0
 50
0.0
 51
90.0
  0
LINE
  8
別途部材
  6
CONTINUOUS
 10
61.31914
 20
-22.089045
 11
61.21914
 21
-21.989045
  0
LINE
  8
別途部材
  6
CONTINUOUS
 10
61.31914
 20
-22.089045
 11
61.21914
 21
-22.189045
  0
LINE
  8
別途部材
  6
CONTINUOUS
 10
61.21914
 20
-19.422378
 11
61.21914
 21
-21.989045
  0
LINE
  8
別途部材
  6
CONTINUOUS
 10
61.21914
 20
-22.189045
 11
61.21914
 21
-24.255713
  0
LINE
  8
別途部材
  6
CONTINUOUS
 10
74.285808
 20
-29.922378
 11
74.385808
 21
-29.822378
  0
LINE
  8
別途部材
  6
CONTINUOUS
 10
74.285808
 20
-29.922378
 11
74.385808
 21
-30.022378
  0
LINE
  8
別途部材
  6
CONTINUOUS
 10
74.385808
 20
-18.255713
 11
74.385808
 21
-29.822378
  0
LINE
  8
別途部材
  6
CONTINUOUS
 10
74.385808
 20
-30.022378
 11
74.385808
 21
-34.422378
  0
LINE
  8
別途部材
  6
CONTINUOUS
 10
71.552475
 20
-25.922378
 11
71.552475
 21
-31.589045
  0
LINE
  8
別途部材
  6
CONTINUOUS
 10
72.052475
 20
-31.589045
 11
71.552475
 21
-31.589045
  0
LINE
  8
別途部材
  6
CONTINUOUS
 10
74.385808
 20
-34.422378
 11
73.885808
 21
-34.422378
  0
LINE
  8
別途部材
  6
CONTINUOUS
 10
71.552475
 20
-25.922378
 11
73.885808
 21
-25.922378
  0
LINE
  8
別途部材
  6
CONTINUOUS
 10
72.052475
 20
-26.422378
 11
73.885808
 21
-26.422378
  0
LINE
  8
別途部材
  6
CONTINUOUS
 10
73.885808
 20
-26.422378
 11
73.885808
 21
-34.422378
  0
LINE
  8
別途部材
  6
CONTINUOUS
 10
73.885808
 20
-24.255713
 11
73.885808
 21
-25.922378
  0
LINE
  8
別途部材
  6
CONTINUOUS
 10
71.952475
 20
-29.922378
 11
72.052475
 21
-29.822378
  0
LINE
  8
別途部材
  6
CONTINUOUS
 10
71.952475
 20
-29.922378
 11
72.052475
 21
-30.022378
  0
LINE
  8
別途部材
  6
CONTINUOUS
 10
72.052475
 20
-26.422378
 11
72.052475
 21
-29.822378
  0
LINE
  8
別途部材
  6
CONTINUOUS
 10
72.052475
 20
-30.022378
 11
72.052475
 21
-31.589045
  0
LINE
  8
別途部材
  6
DOT
 10
74.385808
 20
-28.255713
 11
73.885808
 21
-28.255713
  0
LINE
  8
別途部材
  6
DOT
 10
74.385808
 20
-31.589045
 11
73.885808
 21
-31.589045
  0
LINE
  8
別途部材
  6
CONTINUOUS
 10
73.885808
 20
-18.255713
 11
61.71914
 21
-18.255713
  0
LINE
  8
別途部材
  6
DOT
 10
74.260808
 20
-28.255713
 11
74.260808
 21
-31.589045
  0
LINE
  8
別途部材
  6
DOT
 10
74.135808
 20
-28.255713
 11
74.135808
 21
-31.589045
  0
LINE
  8
別途部材
  6
DOT
 10
74.010808
 20
-28.255713
 11
74.010808
 21
-31.589045
  0
LINE
  8
別途部材
  6
CONTINUOUS
 10
61.71914
 20
-18.255713
 11
61.71914
 21
-23.755713
  0
LINE
  8
別途部材
  6
CONTINUOUS
 10
73.885808
 20
-18.255713
 11
73.885808
 21
-23.755713
  0
LINE
  8
別途部材
  6
CONTINUOUS
 10
61.71914
 20
-23.755713
 11
73.885808
 21
-23.755713
  0
LINE
  8
別途部材
  6
CONTINUOUS
 10
68.96914
 20
-24.155713
 11
68.86914
 21
-24.255713
  0
LINE
  8
別途部材
  6
CONTINUOUS
 10
68.96914
 20
-24.155713
 11
69.06914
 21
-24.255713
  0
LINE
  8
別途部材
  6
CONTINUOUS
 10
64.802475
 20
-24.155713
 11
64.702475
 21
-24.255713
  0
LINE
  8
別途部材
  6
CONTINUOUS
 10
64.802475
 20
-24.155713
 11
64.902475
 21
-24.255713
  0
LINE
  8
別途部材
  6
CONTINUOUS
 10
68.86914
 20
-24.255713
 11
64.902475
 21
-24.255713
  0
LINE
  8
別途部材
  6
CONTINUOUS
 10
61.21914
 20
-24.255713
 11
64.702475
 21
-24.255713
  0
LINE
  8
別途部材
  6
CONTINUOUS
 10
73.885808
 20
-24.255713
 11
69.06914
 21
-24.255713
  0
ENDBLK
  0
BLOCK
  2
*GRP_0036
 70
    65
 10
0.0
 20
0.0
  0
LINE
  8
曲げ物
  6
CONTINUOUS
 10
70.885808
 20
-27.422395
 11
60.15299
 21
-27.422395
  0
LINE
  8
曲げ物
  6
CONTINUOUS
 10
60.15299
 20
-26.755728
 11
60.15299
 21
-27.422395
  0
LINE
  8
曲げ物
  6
CONTINUOUS
 10
70.885808
 20
-27.422395
 11
70.885808
 21
-31.422395
  0
LINE
  8
曲げ物
  6
CONTINUOUS
 10
70.885808
 20
-31.422395
 11
71.552475
 21
-31.422395
  0
ARC
  8
曲げ物
  6
CONTINUOUS
 10
70.885806
 20
-27.422404
 40
0.666667
 50
0.0
 51
90.0
  0
LINE
  8
曲げ物
  6
CONTINUOUS
 10
60.15299
 20
-26.755728
 11
70.885808
 21
-26.755728
  0
LINE
  8
曲げ物
  6
CONTINUOUS
 10
71.552475
 20
-31.422395
 11
71.552475
 21
-27.422395
  0
ENDBLK
  0
BLOCK
  2
*DIM_0037
 70
    65
 10
0.0
 20
0.0
  0
LINE
  8
寸法
  6
CONTINUOUS
 10
-84.815485
 20
-14.422378
 11
-84.815485
 21
60.16618
  0
LINE
  8
寸法
  6
CONTINUOUS
 10
-68.350335
 20
60.16618
 11
-84.815485
 21
60.16618
  0
POINT
  8
寸法
 10
-68.350335
 20
60.16618
  0
POINT
  8
寸法
 10
-84.815485
 20
60.16618
  0
TEXT
  7
TextStyle03
  8
寸法
  6
CONTINUOUS
 10
-80.975
 20
60.525
  1
49.4
 40
4.0
 72
     5
 11
-72.225
 21
60.525
  0
ENDBLK
  0
BLOCK
  2
*DIM_0038
 70
    65
 10
0.0
 20
0.0
  0
LINE
  8
寸法
  6
CONTINUOUS
 10
-98.350782
 20
-40.92242
 11
-98.350782
 21
60.16618
  0
LINE
  8
寸法
  6
CONTINUOUS
 10
-84.815485
 20
60.16618
 11
-98.350782
 21
60.16618
  0
POINT
  8
寸法
 10
-98.350782
 20
60.16618
  0
TEXT
  7
TextStyle03
  8
寸法
  6
CONTINUOUS
 10
-95.975
 20
60.525
  1
40.6
 40
4.0
 72
     5
 11
-87.225
 21
60.525
  0
ENDBLK
  0
BLOCK
  2
*DIM_0039
 70
    65
 10
0.0
 20
0.0
  0
LINE
  8
寸法
  6
CONTINUOUS
 10
75.951025
 20
-14.422378
 11
75.951025
 21
60.16618
  0
LINE
  8
寸法
  6
CONTINUOUS
 10
59.485875
 20
60.16618
 11
75.951025
 21
60.16618
  0
POINT
  8
寸法
 10
59.485875
 20
60.16618
  0
POINT
  8
寸法
 10
75.951025
 20
60.16618
  0
TEXT
  7
TextStyle03
  8
寸法
  6
CONTINUOUS
 10
63.325
 20
60.525
  1
49.4
 40
4.0
 72
     5
 11
72.075
 21
60.525
  0
ENDBLK
  0
BLOCK
  2
*DIM_0040
 70
    65
 10
0.0
 20
0.0
  0
LINE
  8
寸法
  6
CONTINUOUS
 10
89.486322
 20
-40.92242
 11
89.486322
 21
60.16618
  0
LINE
  8
寸法
  6
CONTINUOUS
 10
75.951025
 20
60.16618
 11
89.486322
 21
60.16618
  0
POINT
  8
寸法
 10
89.486322
 20
60.16618
  0
TEXT
  7
TextStyle03
  8
寸法
  6
CONTINUOUS
 10
78.325
 20
60.525
  1
40.6
 40
4.0
 72
     5
 11
87.075
 21
60.525
  0
ENDBLK
  0
BLOCK
  2
*GRP_0041
 70
    65
 10
0.0
 20
0.0
  0
LINE
  8
ゴム等
  6
CONTINUOUS
 10
-61.084135
 20
-27.922395
 11
-61.084135
 21
-30.589063
  0
LINE
  8
ゴム等
  6
CONTINUOUS
 10
-61.084135
 20
-27.922395
 11
-63.250803
 21
-27.922395
  0
LINE
  8
ゴム等
  6
CONTINUOUS
 10
-61.084135
 20
-30.589063
 11
-62.917468
 21
-30.589063
  0
LINE
  8
ゴム等
  6
CONTINUOUS
 10
-63.250803
 20
-30.25573
 11
-63.250803
 21
-27.922395
  0
LINE
  8
ゴム等
  6
CONTINUOUS
 10
-62.917468
 20
-30.589063
 11
-63.250803
 21
-30.25573
  0
INSERT
  2
*HAT_0001
  8
ゴム等
 10
0.0
 20
0.0
  0
ENDBLK
  0
BLOCK
  2
*GRP_0042
 70
    65
 10
0.0
 20
0.0
  0
LINE
  8
ゴム等
  6
CONTINUOUS
 10
52.219675
 20
-27.922395
 11
52.219675
 21
-30.589063
  0
LINE
  8
ゴム等
  6
CONTINUOUS
 10
52.219675
 20
-27.922395
 11
54.386342
 21
-27.922395
  0
LINE
  8
ゴム等
  6
CONTINUOUS
 10
52.219675
 20
-30.589063
 11
54.053008
 21
-30.589063
  0
LINE
  8
ゴム等
  6
CONTINUOUS
 10
54.386342
 20
-30.25573
 11
54.386342
 21
-27.922395
  0
LINE
  8
ゴム等
  6
CONTINUOUS
 10
54.053008
 20
-30.589063
 11
54.386342
 21
-30.25573
  0
INSERT
  2
*HAT_0002
  8
ゴム等
 10
0.0
 20
0.0
  0
ENDBLK
  0
BLOCK
  2
*DIM_0043
 70
    65
 10
0.0
 20
0.0
  0
LINE
  8
寸法
  6
CONTINUOUS
 10
94.486318
 20
-55.922393
 11
162.228125
 21
-55.922393
  0
LINE
  8
寸法
  6
CONTINUOUS
 10
79.95103
 20
-17.755715
 11
162.228125
 21
-17.755715
  0
LINE
  8
寸法
  6
CONTINUOUS
 10
162.228125
 20
-55.922393
 11
162.228125
 21
-17.755715
  0
POINT
  8
寸法
 10
162.228125
 20
-55.922393
  0
POINT
  8
寸法
 10
162.228125
 20
-17.755715
  0
TEXT
  7
TextStyle03
  8
寸法
  6
CONTINUOUS
 10
161.85
 20
-42.35
  1
114.5
 40
4.0
 50
90.0
 72
     5
 11
161.85
 21
-31.35
  0
ENDBLK
  0
BLOCK
  2
*DIM_0044
 70
    65
 10
0.0
 20
0.0
  0
LINE
  8
寸法
  6
CONTINUOUS
 10
79.231133
 20
-17.755713
 11
155.715907
 21
-17.755713
  0
LINE
  8
寸法
  6
CONTINUOUS
 10
155.715907
 20
-30.755735
 11
155.715907
 21
-17.755713
  0
POINT
  8
寸法
 10
155.715907
 20
-30.755735
  0
POINT
  8
寸法
 10
155.715907
 20
-17.755713
  0
TEXT
  7
TextStyle03
  8
寸法
  6
CONTINUOUS
 10
155.325
 20
-26.4
  1
39
 40
4.0
 50
90.0
 72
     5
 11
155.325
 21
-22.15
  0
ENDBLK
  0
BLOCK
  2
*GRP_0045
 70
    65
 10
0.0
 20
0.0
  0
LINE
  8
ボルト／ビス
  6
CONTINUOUS
 62
    64
 10
84.486667
 20
-63.788558
 11
84.486667
 21
-87.035458
  0
LINE
  8
ボルト／ビス
  6
CONTINUOUS
 62
    64
 10
83.32005
 20
-66.424783
 11
83.555725
 21
-66.18894
  0
LINE
  8
ボルト／ビス
  6
CONTINUOUS
 62
    64
 10
83.32005
 20
-66.424783
 11
83.32005
 21
-68.522265
  0
LINE
  8
ボルト／ビス
  6
CONTINUOUS
 62
    64
 10
83.32005
 20
-66.424783
 11
83.084375
 21
-66.18894
  0
LINE
  8
ボルト／ビス
  6
CONTINUOUS
 62
    64
 10
83.389083
 20
-64.522347
 11
83.389083
 21
-66.18894
  0
LINE
  8
ボルト／ビス
  6
CONTINUOUS
 62
    64
 10
81.820032
 20
-68.522265
 11
81.820032
 21
-69.35564
  0
LINE
  8
ボルト／ビス
  6
CONTINUOUS
 62
    64
 10
83.153307
 20
-76.188983
 11
83.389083
 21
-75.953308
  0
LINE
  8
ボルト／ビス
  6
CONTINUOUS
 62
    64
 10
83.389083
 20
-69.855732
 11
83.389083
 21
-75.953308
  0
LINE
  8
ボルト／ビス
  6
CONTINUOUS
 62
    64
 10
83.153307
 20
-79.322083
 11
81.859243
 21
-84.151747
  0
LINE
  8
ボルト／ビス
  6
CONTINUOUS
 62
    64
 10
83.153307
 20
-69.855732
 11
83.153307
 21
-79.322083
  0
LINE
  8
ボルト／ビス
  6
CONTINUOUS
 62
    64
 10
83.32005
 20
-66.424783
 11
83.555725
 21
-66.18894
  0
LINE
  8
ボルト／ビス
  6
CONTINUOUS
 62
    64
 10
85.633132
 20
-66.424783
 11
85.868808
 21
-66.18894
  0
LINE
  8
ボルト／ビス
  6
CONTINUOUS
 62
    64
 10
85.633132
 20
-66.424783
 11
85.633132
 21
-68.522265
  0
LINE
  8
ボルト／ビス
  6
CONTINUOUS
 62
    64
 10
85.633132
 20
-66.424783
 11
85.397458
 21
-66.18894
  0
LINE
  8
ボルト／ビス
  6
CONTINUOUS
 62
    64
 10
85.584308
 20
-64.522347
 11
85.584308
 21
-66.18894
  0
LINE
  8
ボルト／ビス
  6
CONTINUOUS
 62
    64
 10
87.1534
 20
-68.522265
 11
87.1534
 21
-69.35564
  0
LINE
  8
ボルト／ビス
  6
CONTINUOUS
 62
    64
 10
85.819993
 20
-76.188983
 11
85.584308
 21
-75.953308
  0
LINE
  8
ボルト／ビス
  6
CONTINUOUS
 62
    64
 10
85.584308
 20
-69.855732
 11
85.584308
 21
-75.953308
  0
LINE
  8
ボルト／ビス
  6
CONTINUOUS
 62
    64
 10
85.819993
 20
-79.322083
 11
87.114092
 21
-84.151747
  0
LINE
  8
ボルト／ビス
  6
CONTINUOUS
 62
    64
 10
85.819993
 20
-69.855732
 11
85.819993
 21
-79.322083
  0
LINE
  8
ボルト／ビス
  6
CONTINUOUS
 62
    64
 10
85.819993
 20
-64.758022
 11
85.584308
 21
-64.522347
  0
LINE
  8
ボルト／ビス
  6
CONTINUOUS
 62
    64
 10
85.819993
 20
-66.18894
 11
85.819993
 21
-64.758022
  0
LINE
  8
ボルト／ビス
  6
CONTINUOUS
 62
    64
 10
85.584308
 20
-64.522347
 11
83.389083
 21
-64.522347
  0
LINE
  8
ボルト／ビス
  6
CONTINUOUS
 62
    64
 10
83.389083
 20
-64.522347
 11
83.153307
 21
-64.758022
  0
LINE
  8
ボルト／ビス
  6
CONTINUOUS
 62
    64
 10
85.819993
 20
-64.758022
 11
83.153307
 21
-64.758022
  0
LINE
  8
ボルト／ビス
  6
CONTINUOUS
 62
    64
 10
83.153307
 20
-66.18894
 11
83.153307
 21
-64.758022
  0
LINE
  8
ボルト／ビス
  6
CONTINUOUS
 62
    64
 10
81.553375
 20
-66.424783
 11
81.78905
 21
-66.18894
  0
LINE
  8
ボルト／ビス
  6
CONTINUOUS
 62
    64
 10
81.553375
 20
-66.424783
 11
81.553375
 21
-68.522265
  0
LINE
  8
ボルト／ビス
  6
CONTINUOUS
 62
    64
 10
81.78905
 20
-66.18894
 11
87.184282
 21
-66.18894
  0
LINE
  8
ボルト／ビス
  6
CONTINUOUS
 62
    64
 10
87.419958
 20
-66.424783
 11
87.184282
 21
-66.18894
  0
LINE
  8
ボルト／ビス
  6
CONTINUOUS
 62
    64
 10
87.419958
 20
-66.424783
 11
87.419958
 21
-68.522265
  0
LINE
  8
ボルト／ビス
  6
CONTINUOUS
 62
    64
 10
81.553375
 20
-68.522265
 11
87.419958
 21
-68.522265
  0
LINE
  8
ボルト／ビス
  6
CONTINUOUS
 62
    64
 10
87.736725
 20
-69.35564
 11
87.736725
 21
-69.855732
  0
LINE
  8
ボルト／ビス
  6
CONTINUOUS
 62
    64
 10
87.736725
 20
-69.35564
 11
81.236667
 21
-69.35564
  0
LINE
  8
ボルト／ビス
  6
CONTINUOUS
 62
    64
 10
81.236667
 20
-69.35564
 11
81.236667
 21
-69.855732
  0
LINE
  8
ボルト／ビス
  6
CONTINUOUS
 62
    64
 10
87.736725
 20
-69.855732
 11
81.236667
 21
-69.855732
  0
LINE
  8
ボルト／ビス
  6
CONTINUOUS
 62
    64
 10
84.486667
 20
-79.541572
 11
85.815308
 21
-84.499798
  0
LINE
  8
ボルト／ビス
  6
CONTINUOUS
 62
    64
 10
87.114092
 20
-84.151747
 11
85.815308
 21
-84.499798
  0
LINE
  8
ボルト／ビス
  6
CONTINUOUS
 62
    64
 10
84.486667
 20
-79.541572
 11
83.158117
 21
-84.499798
  0
LINE
  8
ボルト／ビス
  6
CONTINUOUS
 62
    64
 10
81.859243
 20
-84.151747
 11
83.158117
 21
-84.499798
  0
LINE
  8
ボルト／ビス
  6
CONTINUOUS
 62
    64
 10
83.153307
 20
-85.188933
 11
83.583308
 21
-82.750233
  0
LINE
  8
ボルト／ビス
  6
CONTINUOUS
 62
    64
 10
85.819993
 20
-85.188933
 11
85.390025
 21
-82.750233
  0
LINE
  8
ボルト／ビス
  6
CONTINUOUS
 62
    64
 10
83.153307
 20
-85.188933
 11
85.819993
 21
-85.188933
  0
LINE
  8
ボルト／ビス
  6
CONTINUOUS
 62
    64
 10
83.583308
 20
-82.750233
 11
85.390025
 21
-82.750233
  0
ENDBLK
  0
BLOCK
  2
*GRP_0046
 70
    65
 10
0.0
 20
0.0
  0
LINE
  8
ボルト／ビス
  6
CONTINUOUS
 62
    64
 10
-93.351127
 20
-63.788558
 11
-93.351127
 21
-87.035458
  0
LINE
  8
ボルト／ビス
  6
CONTINUOUS
 62
    64
 10
-94.517745
 20
-66.424783
 11
-94.28207
 21
-66.18894
  0
LINE
  8
ボルト／ビス
  6
CONTINUOUS
 62
    64
 10
-94.517745
 20
-66.424783
 11
-94.517745
 21
-68.522265
  0
LINE
  8
ボルト／ビス
  6
CONTINUOUS
 62
    64
 10
-94.517745
 20
-66.424783
 11
-94.75342
 21
-66.18894
  0
LINE
  8
ボルト／ビス
  6
CONTINUOUS
 62
    64
 10
-94.448712
 20
-64.522347
 11
-94.448712
 21
-66.18894
  0
LINE
  8
ボルト／ビス
  6
CONTINUOUS
 62
    64
 10
-96.017763
 20
-68.522265
 11
-96.017763
 21
-69.35564
  0
LINE
  8
ボルト／ビス
  6
CONTINUOUS
 62
    64
 10
-94.684487
 20
-76.188983
 11
-94.448712
 21
-75.953308
  0
LINE
  8
ボルト／ビス
  6
CONTINUOUS
 62
    64
 10
-94.448712
 20
-69.855732
 11
-94.448712
 21
-75.953308
  0
LINE
  8
ボルト／ビス
  6
CONTINUOUS
 62
    64
 10
-94.684487
 20
-79.322083
 11
-95.978553
 21
-84.151747
  0
LINE
  8
ボルト／ビス
  6
CONTINUOUS
 62
    64
 10
-94.684487
 20
-69.855732
 11
-94.684487
 21
-79.322083
  0
LINE
  8
ボルト／ビス
  6
CONTINUOUS
 62
    64
 10
-94.517745
 20
-66.424783
 11
-94.28207
 21
-66.18894
  0
LINE
  8
ボルト／ビス
  6
CONTINUOUS
 62
    64
 10
-92.204662
 20
-66.424783
 11
-91.968987
 21
-66.18894
  0
LINE
  8
ボルト／ビス
  6
CONTINUOUS
 62
    64
 10
-92.204662
 20
-66.424783
 11
-92.204662
 21
-68.522265
  0
LINE
  8
ボルト／ビス
  6
CONTINUOUS
 62
    64
 10
-92.204662
 20
-66.424783
 11
-92.440337
 21
-66.18894
  0
LINE
  8
ボルト／ビス
  6
CONTINUOUS
 62
    64
 10
-92.253488
 20
-64.522347
 11
-92.253488
 21
-66.18894
  0
LINE
  8
ボルト／ビス
  6
CONTINUOUS
 62
    64
 10
-90.684395
 20
-68.522265
 11
-90.684395
 21
-69.35564
  0
LINE
  8
ボルト／ビス
  6
CONTINUOUS
 62
    64
 10
-92.017803
 20
-76.188983
 11
-92.253488
 21
-75.953308
  0
LINE
  8
ボルト／ビス
  6
CONTINUOUS
 62
    64
 10
-92.253488
 20
-69.855732
 11
-92.253488
 21
-75.953308
  0
LINE
  8
ボルト／ビス
  6
CONTINUOUS
 62
    64
 10
-92.017803
 20
-79.322083
 11
-90.723703
 21
-84.151747
  0
LINE
  8
ボルト／ビス
  6
CONTINUOUS
 62
    64
 10
-92.017803
 20
-69.855732
 11
-92.017803
 21
-79.322083
  0
LINE
  8
ボルト／ビス
  6
CONTINUOUS
 62
    64
 10
-92.017803
 20
-64.758022
 11
-92.253488
 21
-64.522347
  0
LINE
  8
ボルト／ビス
  6
CONTINUOUS
 62
    64
 10
-92.017803
 20
-66.18894
 11
-92.017803
 21
-64.758022
  0
LINE
  8
ボルト／ビス
  6
CONTINUOUS
 62
    64
 10
-92.253488
 20
-64.522347
 11
-94.448712
 21
-64.522347
  0
LINE
  8
ボルト／ビス
  6
CONTINUOUS
 62
    64
 10
-94.448712
 20
-64.522347
 11
-94.684487
 21
-64.758022
  0
LINE
  8
ボルト／ビス
  6
CONTINUOUS
 62
    64
 10
-92.017803
 20
-64.758022
 11
-94.684487
 21
-64.758022
  0
LINE
  8
ボルト／ビス
  6
CONTINUOUS
 62
    64
 10
-94.684487
 20
-66.18894
 11
-94.684487
 21
-64.758022
  0
LINE
  8
ボルト／ビス
  6
CONTINUOUS
 62
    64
 10
-96.28442
 20
-66.424783
 11
-96.048745
 21
-66.18894
  0
LINE
  8
ボルト／ビス
  6
CONTINUOUS
 62
    64
 10
-96.28442
 20
-66.424783
 11
-96.28442
 21
-68.522265
  0
LINE
  8
ボルト／ビス
  6
CONTINUOUS
 62
    64
 10
-96.048745
 20
-66.18894
 11
-90.653513
 21
-66.18894
  0
LINE
  8
ボルト／ビス
  6
CONTINUOUS
 62
    64
 10
-90.417838
 20
-66.424783
 11
-90.653513
 21
-66.18894
  0
LINE
  8
ボルト／ビス
  6
CONTINUOUS
 62
    64
 10
-90.417838
 20
-66.424783
 11
-90.417838
 21
-68.522265
  0
LINE
  8
ボルト／ビス
  6
CONTINUOUS
 62
    64
 10
-96.28442
 20
-68.522265
 11
-90.417838
 21
-68.522265
  0
LINE
  8
ボルト／ビス
  6
CONTINUOUS
 62
    64
 10
-90.10107
 20
-69.35564
 11
-90.10107
 21
-69.855732
  0
LINE
  8
ボルト／ビス
  6
CONTINUOUS
 62
    64
 10
-90.10107
 20
-69.35564
 11
-96.601127
 21
-69.35564
  0
LINE
  8
ボルト／ビス
  6
CONTINUOUS
 62
    64
 10
-96.601127
 20
-69.35564
 11
-96.601127
 21
-69.855732
  0
LINE
  8
ボルト／ビス
  6
CONTINUOUS
 62
    64
 10
-90.10107
 20
-69.855732
 11
-96.601127
 21
-69.855732
  0
LINE
  8
ボルト／ビス
  6
CONTINUOUS
 62
    64
 10
-93.351127
 20
-79.541572
 11
-92.022487
 21
-84.499798
  0
LINE
  8
ボルト／ビス
  6
CONTINUOUS
 62
    64
 10
-90.723703
 20
-84.151747
 11
-92.022487
 21
-84.499798
  0
LINE
  8
ボルト／ビス
  6
CONTINUOUS
 62
    64
 10
-93.351127
 20
-79.541572
 11
-94.679677
 21
-84.499798
  0
LINE
  8
ボルト／ビス
  6
CONTINUOUS
 62
    64
 10
-95.978553
 20
-84.151747
 11
-94.679677
 21
-84.499798
  0
LINE
  8
ボルト／ビス
  6
CONTINUOUS
 62
    64
 10
-94.684487
 20
-85.188933
 11
-94.254487
 21
-82.750233
  0
LINE
  8
ボルト／ビス
  6
CONTINUOUS
 62
    64
 10
-92.017803
 20
-85.188933
 11
-92.44777
 21
-82.750233
  0
LINE
  8
ボルト／ビス
  6
CONTINUOUS
 62
    64
 10
-94.684487
 20
-85.188933
 11
-92.017803
 21
-85.188933
  0
LINE
  8
ボルト／ビス
  6
CONTINUOUS
 62
    64
 10
-94.254487
 20
-82.750233
 11
-92.44777
 21
-82.750233
  0
ENDBLK
  0
BLOCK
  2
*DIM_0047
 70
    65
 10
0.0
 20
0.0
  0
LINE
  8
寸法
  6
BYBLOCK
 62
     0
 10
62.81987
 20
-103.329555
 11
62.81987
 21
-116.957097
  0
LINE
  8
寸法
  6
BYBLOCK
 62
     0
 10
51.153205
 20
-116.957097
 11
62.81987
 21
-116.957097
  0
POINT
  8
寸法
 62
     0
 10
62.81987
 20
-116.957097
  0
TEXT
  7
TextStyle03
  8
寸法
  6
CONTINUOUS
 62
     0
 10
55.38125
 20
-116.575
  1
35
 40
3.0
 72
     5
 11
58.56875
 21
-116.575
  0
ENDBLK
  0
BLOCK
  2
*DIM_0048
 70
    65
 10
0.0
 20
0.0
  0
LINE
  8
寸法
  6
BYBLOCK
 62
     0
 10
112.81991
 20
-103.329555
 11
112.81991
 21
-116.957097
  0
LINE
  8
寸法
  6
BYBLOCK
 62
     0
 10
62.81987
 20
-116.957097
 11
112.81991
 21
-116.957097
  0
POINT
  8
寸法
 62
     0
 10
112.81991
 20
-116.957097
  0
TEXT
  7
TextStyle03
  8
寸法
  6
CONTINUOUS
 62
     0
 10
85.3625
 20
-116.575
  1
150
 40
3.0
 72
     5
 11
90.2375
 21
-116.575
  0
ENDBLK
  0
BLOCK
  2
*DIM_0049
 70
    65
 10
0.0
 20
0.0
  0
LINE
  8
寸法
  6
BYBLOCK
 62
     0
 10
116.15324
 20
-103.329555
 11
116.15324
 21
-116.957097
  0
LINE
  8
寸法
  6
BYBLOCK
 62
     0
 10
112.81991
 20
-116.957097
 11
116.15324
 21
-116.957097
  0
POINT
  8
寸法
 62
     0
 10
116.15324
 20
-116.957097
  0
TEXT
  7
TextStyle03
  8
寸法
  6
CONTINUOUS
 62
     0
 10
112.88125
 20
-119.95
  1
10
 40
3.0
 72
     5
 11
116.06875
 21
-119.95
  0
ENDBLK
  0
BLOCK
  2
*DIM_0050
 70
    65
 10
0.0
 20
0.0
  0
LINE
  8
寸法
  6
BYBLOCK
 62
     0
 10
-60.017665
 20
-103.329555
 11
-60.017665
 21
-116.957097
  0
LINE
  8
寸法
  6
BYBLOCK
 62
     0
 10
-71.68433
 20
-103.329555
 11
-71.68433
 21
-116.957097
  0
LINE
  8
寸法
  6
BYBLOCK
 62
     0
 10
-60.017665
 20
-116.957097
 11
-71.68433
 21
-116.957097
  0
POINT
  8
寸法
 62
     0
 10
-71.68433
 20
-116.957097
  0
TEXT
  7
TextStyle03
  8
寸法
  6
CONTINUOUS
 62
     0
 10
-67.46875
 20
-116.575
  1
35
 40
3.0
 72
     5
 11
-64.28125
 21
-116.575
  0
ENDBLK
  0
BLOCK
  2
*DIM_0051
 70
    65
 10
0.0
 20
0.0
  0
LINE
  8
寸法
  6
BYBLOCK
 62
     0
 10
-71.68433
 20
-103.329555
 11
-71.68433
 21
-116.957097
  0
LINE
  8
寸法
  6
BYBLOCK
 62
     0
 10
-121.68437
 20
-103.329555
 11
-121.68437
 21
-116.957097
  0
LINE
  8
寸法
  6
BYBLOCK
 62
     0
 10
-71.68433
 20
-116.957097
 11
-121.68437
 21
-116.957097
  0
POINT
  8
寸法
 62
     0
 10
-121.68437
 20
-116.957097
  0
TEXT
  7
TextStyle03
  8
寸法
  6
CONTINUOUS
 62
     0
 10
-99.1375
 20
-116.575
  1
150
 40
3.0
 72
     5
 11
-94.2625
 21
-116.575
  0
ENDBLK
  0
BLOCK
  2
*DIM_0052
 70
    65
 10
0.0
 20
0.0
  0
LINE
  8
寸法
  6
BYBLOCK
 62
     0
 10
-121.68437
 20
-103.329555
 11
-121.68437
 21
-116.957097
  0
LINE
  8
寸法
  6
BYBLOCK
 62
     0
 10
-125.0177
 20
-103.329555
 11
-125.0177
 21
-116.957097
  0
LINE
  8
寸法
  6
BYBLOCK
 62
     0
 10
-121.68437
 20
-116.957097
 11
-125.0177
 21
-116.957097
  0
POINT
  8
寸法
 62
     0
 10
-125.0177
 20
-116.957097
  0
TEXT
  7
TextStyle03
  8
寸法
  6
CONTINUOUS
 62
     0
 10
-124.96875
 20
-119.95
  1
10
 40
3.0
 72
     5
 11
-121.78125
 21
-119.95
  0
ENDBLK
  0
BLOCK
  2
*GRP_0053
 70
    65
 10
0.0
 20
0.0
  0
LINE
  8
曲げ物
  6
CONTINUOUS
 10
120.48658
 20
-74.12422
 11
120.48653
 21
-94.12422
  0
LINE
  8
曲げ物
  6
DOT
 10
120.153255
 20
-74.12422
 11
120.153205
 21
-94.12422
  0
LINE
  8
曲げ物
  6
CONTINUOUS
 10
117.15324
 20
-74.12422
 11
117.153215
 21
-94.12422
  0
LINE
  8
曲げ物
  6
DOT
 10
117.48659
 20
-74.12422
 11
117.48654
 21
-94.12422
  0
LINE
  8
曲げ物
  6
CONTINUOUS
 10
120.48653
 20
-94.12422
 11
117.153215
 21
-94.12422
  0
LINE
  8
曲げ物
  6
CONTINUOUS
 10
120.48658
 20
-74.12422
 11
117.15324
 21
-74.12422
  0
ENDBLK
  0
BLOCK
  2
*GRP_0054
 70
    65
 10
0.0
 20
0.0
  0
POLYLINE
  8
寸法
  6
CONTINUOUS
 66
     1
  0
VERTEX
  8
寸法
 10
119.230142
 20
-74.634338
  0
VERTEX
  8
寸法
 10
127.878655
 20
-65.985827
  0
VERTEX
  8
寸法
 10
133.481285
 20
-65.985827
  0
SEQEND
  0
ENDBLK
  0
BLOCK
  2
*GRP_0055
 70
    65
 10
0.0
 20
0.0
  0
LINE
  8
曲げ物
  6
CONTINUOUS
 10
-126.01768
 20
-74.12422
 11
-126.01773
 21
-94.12422
  0
LINE
  8
曲げ物
  6
DOT
 10
-126.351005
 20
-74.12422
 11
-126.351055
 21
-94.12422
  0
LINE
  8
曲げ物
  6
CONTINUOUS
 10
-129.35102
 20
-74.12422
 11
-129.351045
 21
-94.12422
  0
LINE
  8
曲げ物
  6
DOT
 10
-129.01767
 20
-74.12422
 11
-129.01772
 21
-94.12422
  0
LINE
  8
曲げ物
  6
CONTINUOUS
 10
-126.01773
 20
-94.12422
 11
-129.351045
 21
-94.12422
  0
LINE
  8
曲げ物
  6
CONTINUOUS
 10
-126.01768
 20
-74.12422
 11
-129.35102
 21
-74.12422
  0
ENDBLK
  0
BLOCK
  2
*DIM_0056
 70
    65
 10
0.0
 20
0.0
  0
LINE
  8
寸法
  6
CONTINUOUS
 10
116.15324
 20
-102.20408
 11
116.15324
 21
-116.957097
  0
LINE
  8
寸法
  6
CONTINUOUS
 10
122.819785
 20
-83.016712
 11
122.819785
 21
-116.957097
  0
LINE
  8
寸法
  6
CONTINUOUS
 10
116.15324
 20
-116.957097
 11
122.819785
 21
-116.957097
  0
POINT
  8
寸法
 10
116.15324
 20
-116.957097
  0
POINT
  8
寸法
 10
122.819785
 20
-116.957097
  0
TEXT
  7
TextStyle03
  8
寸法
  6
CONTINUOUS
 10
117.88125
 20
-116.6
  1
20
 40
3.0
 72
     5
 11
121.06875
 21
-116.6
  0
ENDBLK
  0
BLOCK
  2
*DIM_0057
 70
    65
 10
0.0
 20
0.0
  0
LINE
  8
寸法
  6
CONTINUOUS
 10
51.153205
 20
-102.469815
 11
51.153205
 21
-116.957097
  0
LINE
  8
寸法
  6
CONTINUOUS
 10
49.486385
 20
-54.66046
 11
49.486385
 21
-116.957097
  0
LINE
  8
寸法
  6
CONTINUOUS
 10
51.153205
 20
-116.957097
 11
49.486385
 21
-116.957097
  0
POINT
  8
寸法
 10
51.153205
 20
-116.957097
  0
POINT
  8
寸法
 10
49.486385
 20
-116.957097
  0
TEXT
  7
TextStyle03
  8
寸法
  6
CONTINUOUS
 10
49.55
 20
-116.6
  1
5
 40
3.0
 72
     5
 11
51.05
 21
-116.6
  0
ENDBLK
  0
BLOCK
  2
*DIM_0058
 70
    65
 10
0.0
 20
0.0
  0
LINE
  8
寸法
  6
CONTINUOUS
 10
-125.0177
 20
-102.20408
 11
-125.0177
 21
-116.957097
  0
LINE
  8
寸法
  6
CONTINUOUS
 10
-131.684245
 20
-83.016712
 11
-131.684245
 21
-116.957097
  0
LINE
  8
寸法
  6
CONTINUOUS
 10
-125.0177
 20
-116.957097
 11
-131.684245
 21
-116.957097
  0
POINT
  8
寸法
 10
-125.0177
 20
-116.957097
  0
POINT
  8
寸法
 10
-131.684245
 20
-116.957097
  0
TEXT
  7
TextStyle03
  8
寸法
  6
CONTINUOUS
 10
-129.96875
 20
-116.6
  1
20
 40
3.0
 72
     5
 11
-126.78125
 21
-116.6
  0
ENDBLK
  0
BLOCK
  2
*DIM_0059
 70
    65
 10
0.0
 20
0.0
  0
LINE
  8
寸法
  6
CONTINUOUS
 10
-60.017665
 20
-102.469815
 11
-60.017665
 21
-116.957097
  0
LINE
  8
寸法
  6
CONTINUOUS
 10
-58.350845
 20
-54.66046
 11
-58.350845
 21
-116.957097
  0
LINE
  8
寸法
  6
CONTINUOUS
 10
-60.017665
 20
-116.957097
 11
-58.350845
 21
-116.957097
  0
POINT
  8
寸法
 10
-60.017665
 20
-116.957097
  0
POINT
  8
寸法
 10
-58.350845
 20
-116.957097
  0
TEXT
  7
TextStyle03
  8
寸法
  6
CONTINUOUS
 10
-59.95
 20
-116.6
  1
5
 40
3.0
 50
360.0
 72
     5
 11
-58.45
 21
-116.6
  0
ENDBLK
  0
BLOCK
  2
*DIM_0060
 70
    65
 10
0.0
 20
0.0
  0
LINE
  8
寸法
  6
CONTINUOUS
 10
59.486855
 20
7.87597
 11
59.486855
 21
75.32749
  0
LINE
  8
寸法
  6
CONTINUOUS
 10
-68.350335
 20
75.32749
 11
59.486855
 21
75.32749
  0
POINT
  8
寸法
 10
59.486855
 20
75.32749
  0
TEXT
  7
TextStyle03
  8
寸法
  6
CONTINUOUS
 10
-13.2
 20
75.7
  1
呼称寸法
 40
4.0
 72
     5
 11
4.3
 21
75.7
  0
ENDBLK
  0
BLOCK
  2
*DIM_0061
 70
    65
 10
0.0
 20
0.0
  0
LINE
  8
寸法
  6
CONTINUOUS
 10
-171.709055
 20
115.753153
 11
-174.485278
 21
115.753153
  0
LINE
  8
寸法
  6
CONTINUOUS
 10
-171.709055
 20
109.753153
 11
-174.485278
 21
109.753153
  0
LINE
  8
寸法
  6
CONTINUOUS
 10
-174.485278
 20
115.753153
 11
-174.485278
 21
109.753153
  0
POINT
  8
寸法
 10
-174.485278
 20
115.753153
  0
POINT
  8
寸法
 10
-174.485278
 20
109.753153
  0
TEXT
  7
TextStyle03
  8
寸法
  6
CONTINUOUS
 10
-174.85
 20
110.2625
  1
600
 40
3.0
 50
90.0
 72
     5
 11
-174.85
 21
115.1375
  0
ENDBLK
  0
BLOCK
  2
*DIM_0062
 70
    65
 10
0.0
 20
0.0
  0
LINE
  8
寸法
  6
CONTINUOUS
 10
-171.709055
 20
94.14729
 11
-174.485278
 21
94.14729
  0
LINE
  8
寸法
  6
CONTINUOUS
 10
-171.709055
 20
85.14729
 11
-174.485278
 21
85.14729
  0
LINE
  8
寸法
  6
CONTINUOUS
 10
-174.485278
 20
94.14729
 11
-174.485278
 21
85.14729
  0
POINT
  8
寸法
 10
-174.485278
 20
94.14729
  0
POINT
  8
寸法
 10
-174.485278
 20
85.14729
  0
TEXT
  7
TextStyle03
  8
寸法
  6
CONTINUOUS
 10
-174.85
 20
87.1625
  1
900
 40
3.0
 50
90.0
 72
     5
 11
-174.85
 21
92.0375
  0
ENDBLK
  0
BLOCK
  2
*DIM_0063
 70
    65
 10
0.0
 20
0.0
  0
LINE
  8
寸法
  6
CONTINUOUS
 10
-171.709055
 20
68.349243
 11
-174.485278
 21
68.349243
  0
LINE
  8
寸法
  6
CONTINUOUS
 10
-171.709055
 20
55.349243
 11
-174.485278
 21
55.349243
  0
LINE
  8
寸法
  6
CONTINUOUS
 10
-174.485278
 20
68.349243
 11
-174.485278
 21
55.349243
  0
POINT
  8
寸法
 10
-174.485278
 20
68.349243
  0
POINT
  8
寸法
 10
-174.485278
 20
55.349243
  0
TEXT
  7
TextStyle03
  8
寸法
  6
CONTINUOUS
 10
-174.85
 20
58.54375
  1
1300
 40
3.0
 50
90.0
 72
     5
 11
-174.85
 21
65.10625
  0
ENDBLK
  0
BLOCK
  2
*GRP_0064
 70
    65
 10
0.0
 20
0.0
  0
POLYLINE
  8
寸法
  6
CONTINUOUS
 66
     1
  0
VERTEX
  8
寸法
 10
-159.663828
 20
111.501592
  0
VERTEX
  8
寸法
 10
-156.709055
 20
110.982632
  0
VERTEX
  8
寸法
 10
-159.008482
 20
112.90945
  0
SEQEND
  0
LINE
  8
寸法
  6
CONTINUOUS
 10
-156.709055
 20
110.982632
 11
-161.553518
 21
113.23768
  0
ENDBLK
  0
BLOCK
  2
*GRP_0065
 70
    65
 10
0.0
 20
0.0
  0
POLYLINE
  8
寸法
  6
CONTINUOUS
 66
     1
  0
VERTEX
  8
寸法
 10
-149.663828
 20
111.501592
  0
VERTEX
  8
寸法
 10
-146.709055
 20
110.982632
  0
VERTEX
  8
寸法
 10
-149.008482
 20
112.90945
  0
SEQEND
  0
LINE
  8
寸法
  6
CONTINUOUS
 10
-146.709055
 20
110.982632
 11
-151.553518
 21
113.23768
  0
ENDBLK
  0
BLOCK
  2
*GRP_0066
 70
    65
 10
0.0
 20
0.0
  0
POLYLINE
  8
寸法
  6
CONTINUOUS
 66
     1
  0
VERTEX
  8
寸法
 10
-139.663828
 20
111.501592
  0
VERTEX
  8
寸法
 10
-136.709055
 20
110.982632
  0
VERTEX
  8
寸法
 10
-139.008482
 20
112.90945
  0
SEQEND
  0
LINE
  8
寸法
  6
CONTINUOUS
 10
-136.709055
 20
110.982632
 11
-141.553518
 21
113.23768
  0
ENDBLK
  0
BLOCK
  2
*GRP_0067
 70
    65
 10
0.0
 20
0.0
  0
POLYLINE
  8
寸法
  6
CONTINUOUS
 66
     1
  0
VERTEX
  8
寸法
 10
-159.663828
 20
89.08954
  0
VERTEX
  8
寸法
 10
-156.709055
 20
88.57058
  0
VERTEX
  8
寸法
 10
-159.008482
 20
90.497398
  0
SEQEND
  0
LINE
  8
寸法
  6
CONTINUOUS
 10
-156.709055
 20
88.57058
 11
-161.553518
 21
90.825627
  0
ENDBLK
  0
BLOCK
  2
*GRP_0068
 70
    65
 10
0.0
 20
0.0
  0
POLYLINE
  8
寸法
  6
CONTINUOUS
 66
     1
  0
VERTEX
  8
寸法
 10
-149.663828
 20
89.08954
  0
VERTEX
  8
寸法
 10
-146.709055
 20
88.57058
  0
VERTEX
  8
寸法
 10
-149.008482
 20
90.497398
  0
SEQEND
  0
LINE
  8
寸法
  6
CONTINUOUS
 10
-146.709055
 20
88.57058
 11
-151.553518
 21
90.825627
  0
ENDBLK
  0
BLOCK
  2
*GRP_0069
 70
    65
 10
0.0
 20
0.0
  0
POLYLINE
  8
寸法
  6
CONTINUOUS
 66
     1
  0
VERTEX
  8
寸法
 10
-139.663828
 20
89.08954
  0
VERTEX
  8
寸法
 10
-136.709055
 20
88.57058
  0
VERTEX
  8
寸法
 10
-139.008482
 20
90.497398
  0
SEQEND
  0
LINE
  8
寸法
  6
CONTINUOUS
 10
-136.709055
 20
88.57058
 11
-141.553518
 21
90.825627
  0
ENDBLK
  0
BLOCK
  2
*GRP_0070
 70
    65
 10
0.0
 20
0.0
  0
POLYLINE
  8
寸法
  6
CONTINUOUS
 66
     1
  0
VERTEX
  8
寸法
 10
-159.663828
 20
60.550453
  0
VERTEX
  8
寸法
 10
-156.709055
 20
60.031493
  0
VERTEX
  8
寸法
 10
-159.008482
 20
61.95831
  0
SEQEND
  0
LINE
  8
寸法
  6
CONTINUOUS
 10
-156.709055
 20
60.031493
 11
-161.553518
 21
62.28654
  0
ENDBLK
  0
BLOCK
  2
*GRP_0071
 70
    65
 10
0.0
 20
0.0
  0
POLYLINE
  8
寸法
  6
CONTINUOUS
 66
     1
  0
VERTEX
  8
寸法
 10
-149.663828
 20
60.550453
  0
VERTEX
  8
寸法
 10
-146.709055
 20
60.031493
  0
VERTEX
  8
寸法
 10
-149.008482
 20
61.95831
  0
SEQEND
  0
LINE
  8
寸法
  6
CONTINUOUS
 10
-146.709055
 20
60.031493
 11
-151.553518
 21
62.28654
  0
ENDBLK
  0
BLOCK
  2
*GRP_0072
 70
    65
 10
0.0
 20
0.0
  0
POLYLINE
  8
寸法
  6
CONTINUOUS
 66
     1
  0
VERTEX
  8
寸法
 10
-139.663828
 20
60.550453
  0
VERTEX
  8
寸法
 10
-136.709055
 20
60.031493
  0
VERTEX
  8
寸法
 10
-139.008482
 20
61.95831
  0
SEQEND
  0
LINE
  8
寸法
  6
CONTINUOUS
 10
-136.709055
 20
60.031493
 11
-141.553518
 21
62.28654
  0
ENDBLK
  0
BLOCK
  2
*GRP_0073
 70
    65
 10
0.0
 20
0.0
  0
LINE
  8
断面線04
  6
CONTINUOUS
 62
    47
 10
7.734438
 20
-33.922397
 11
7.401095
 21
-35.589062
  0
LINE
  8
断面線04
  6
CONTINUOUS
 62
    47
 10
-8.83223
 20
-30.589063
 11
-8.83223
 21
-29.822397
  0
ARC
  8
断面線04
  6
CONTINUOUS
 62
    47
 10
-7.06558
 20
-24.689061
 40
0.1
 50
90.0
 51
180.0
  0
LINE
  8
断面線04
  6
CONTINUOUS
 62
    47
 10
-7.165563
 20
-25.15573
 11
-7.165563
 21
-24.689062
  0
ARC
  8
断面線04
  6
CONTINUOUS
 62
    47
 10
-7.06558
 20
-25.155727
 40
0.1
 50
180.0
 51
270.0
  0
ARC
  8
断面線04
  6
CONTINUOUS
 62
    47
 10
-8.098913
 20
-29.422394
 40
0.1
 50
0.0
 51
90.0
  0
LINE
  8
断面線04
  6
CONTINUOUS
 62
    47
 10
-7.998905
 20
-29.722397
 11
-7.998905
 21
-29.422397
  0
LINE
  8
断面線04
  6
CONTINUOUS
 62
    47
 10
-8.098905
 20
-29.822397
 11
-8.83223
 21
-29.822397
  0
ARC
  8
断面線04
  6
CONTINUOUS
 62
    47
 10
-8.098913
 20
-29.722394
 40
0.1
 50
270.0
 51
360.0
  0
LINE
  8
断面線04
  6
CONTINUOUS
 62
    47
 10
-8.098905
 20
-29.322397
 11
-9.23223
 21
-29.322397
  0
LINE
  8
断面線04
  6
CONTINUOUS
 62
    47
 10
-9.33223
 20
-30.589063
 11
-9.33223
 21
-29.422397
  0
ARC
  8
断面線04
  6
CONTINUOUS
 62
    47
 10
-9.232246
 20
-29.422394
 40
0.1
 50
90.0
 51
180.0
  0
LINE
  8
断面線04
  6
CONTINUOUS
 62
    47
 10
-8.83223
 20
-30.589063
 11
-6.43223
 21
-30.589063
  0
LINE
  8
断面線04
  6
CONTINUOUS
 62
    47
 10
-13.598905
 20
-30.589063
 11
-13.598905
 21
-30.022397
  0
ARC
  8
断面線04
  6
CONTINUOUS
 62
    47
 10
-13.698913
 20
-30.022394
 40
0.1
 50
0.0
 51
90.0
  0
LINE
  8
断面線04
  6
CONTINUOUS
 62
    47
 10
-13.698905
 20
-29.922397
 11
-13.898905
 21
-29.922397
  0
ARC
  8
断面線04
  6
CONTINUOUS
 62
    47
 10
-13.898913
 20
-30.022394
 40
0.1
 50
90.0
 51
180.0
  0
LINE
  8
断面線04
  6
CONTINUOUS
 62
    47
 10
-16.93223
 20
-36.25573
 11
-16.93223
 21
-33.922397
  0
LINE
  8
断面線04
  6
CONTINUOUS
 62
    47
 10
-13.998905
 20
-35.589062
 11
-16.265563
 21
-35.589062
  0
LINE
  8
断面線04
  6
CONTINUOUS
 62
    47
 10
-9.33223
 20
-30.589063
 11
-13.598905
 21
-30.589063
  0
LINE
  8
断面線04
  6
CONTINUOUS
 62
    47
 10
-7.065563
 20
-24.589063
 11
-4.43223
 21
-24.589063
  0
LINE
  8
断面線04
  6
CONTINUOUS
 62
    47
 10
-6.43223
 20
-30.589063
 11
-6.43223
 21
-25.25573
  0
LINE
  8
断面線04
  6
CONTINUOUS
 62
    47
 10
-7.065563
 20
-25.25573
 11
-6.43223
 21
-25.25573
  0
LINE
  8
断面線04
  6
CONTINUOUS
 62
    47
 10
-0.03223
 20
-30.589063
 11
-0.03223
 21
-29.822397
  0
ARC
  8
断面線04
  6
CONTINUOUS
 62
    47
 10
-1.798913
 20
-24.689061
 40
0.1
 50
0.0
 51
90.0
  0
LINE
  8
断面線04
  6
CONTINUOUS
 62
    47
 10
-1.698905
 20
-25.15573
 11
-1.698905
 21
-24.689062
  0
ARC
  8
断面線04
  6
CONTINUOUS
 62
    47
 10
-1.798913
 20
-25.155727
 40
0.1
 50
270.0
 51
360.0
  0
ARC
  8
断面線04
  6
CONTINUOUS
 62
    47
 10
-0.76558
 20
-29.422394
 40
0.1
 50
90.0
 51
180.0
  0
LINE
  8
断面線04
  6
CONTINUOUS
 62
    47
 10
-0.865563
 20
-29.722397
 11
-0.865563
 21
-29.422397
  0
LINE
  8
断面線04
  6
CONTINUOUS
 62
    47
 10
-0.765563
 20
-29.822397
 11
-0.03223
 21
-29.822397
  0
ARC
  8
断面線04
  6
CONTINUOUS
 62
    47
 10
-0.76558
 20
-29.722394
 40
0.1
 50
180.0
 51
270.0
  0
LINE
  8
断面線04
  6
CONTINUOUS
 62
    47
 10
-0.765563
 20
-29.322397
 11
0.36777
 21
-29.322397
  0
LINE
  8
断面線04
  6
CONTINUOUS
 62
    47
 10
0.46777
 20
-30.589063
 11
0.46777
 21
-29.422397
  0
ARC
  8
断面線04
  6
CONTINUOUS
 62
    47
 10
0.367754
 20
-29.422394
 40
0.1
 50
0.0
 51
90.0
  0
LINE
  8
断面線04
  6
CONTINUOUS
 62
    47
 10
-0.03223
 20
-30.589063
 11
-2.43223
 21
-30.589063
  0
LINE
  8
断面線04
  6
CONTINUOUS
 62
    47
 10
4.734438
 20
-30.589063
 11
4.734438
 21
-30.022397
  0
ARC
  8
断面線04
  6
CONTINUOUS
 62
    47
 10
4.83442
 20
-30.022394
 40
0.1
 50
90.0
 51
180.0
  0
LINE
  8
断面線04
  6
CONTINUOUS
 62
    47
 10
4.834438
 20
-29.922397
 11
5.034438
 21
-29.922397
  0
ARC
  8
断面線04
  6
CONTINUOUS
 62
    47
 10
5.03442
 20
-30.022394
 40
0.1
 50
0.0
 51
90.0
  0
LINE
  8
断面線04
  6
CONTINUOUS
 62
    47
 10
5.134438
 20
-35.589062
 11
7.401095
 21
-35.589062
  0
LINE
  8
断面線04
  6
CONTINUOUS
 62
    47
 10
0.46777
 20
-30.589063
 11
4.734438
 21
-30.589063
  0
LINE
  8
断面線04
  6
CONTINUOUS
 62
    47
 10
-1.798905
 20
-24.589063
 11
-4.43223
 21
-24.589063
  0
LINE
  8
断面線04
  6
CONTINUOUS
 62
    47
 10
-2.43223
 20
-30.589063
 11
-2.43223
 21
-25.25573
  0
LINE
  8
断面線04
  6
CONTINUOUS
 62
    47
 10
-1.798905
 20
-25.25573
 11
-2.43223
 21
-25.25573
  0
LINE
  8
断面線04
  6
CONTINUOUS
 62
    47
 10
8.06777
 20
-33.922397
 11
7.734438
 21
-33.922397
  0
LINE
  8
断面線04
  6
CONTINUOUS
 62
    47
 10
-16.598905
 20
-33.922397
 11
-16.265563
 21
-35.589062
  0
LINE
  8
断面線04
  6
CONTINUOUS
 62
    47
 10
-16.93223
 20
-33.922397
 11
-16.598905
 21
-33.922397
  0
LINE
  8
断面線04
  6
CONTINUOUS
 62
    47
 10
-13.998905
 20
-30.022397
 11
-13.998905
 21
-35.589062
  0
LINE
  8
断面線04
  6
CONTINUOUS
 62
    47
 10
5.134438
 20
-30.022397
 11
5.134438
 21
-35.589062
  0
LINE
  8
断面線04
  6
CONTINUOUS
 62
    47
 10
8.06777
 20
-33.922397
 11
8.06777
 21
-36.25573
  0
LINE
  8
断面線04
  6
CONTINUOUS
 62
    47
 10
-13.998905
 20
-50.922397
 11
5.134438
 21
-50.922397
  0
LINE
  8
断面線04
  6
CONTINUOUS
 62
    47
 10
-13.998905
 20
-50.922397
 11
-13.998905
 21
-36.25573
  0
LINE
  8
断面線04
  6
CONTINUOUS
 62
    47
 10
5.134438
 20
-50.922397
 11
5.134438
 21
-36.25573
  0
LINE
  8
断面線04
  6
CONTINUOUS
 62
    47
 10
-16.93223
 20
-36.25573
 11
-13.998905
 21
-36.25573
  0
LINE
  8
断面線04
  6
CONTINUOUS
 62
    47
 10
5.134438
 20
-36.25573
 11
8.06777
 21
-36.25573
  0
ARC
  8
断面線04
  6
CONTINUOUS
 62
    47
 10
-12.268798
 20
-33.203074
 40
0.25
 50
312.542364
 51
492.542397
  0
ARC
  8
断面線04
  6
CONTINUOUS
 62
    47
 10
-12.832244
 20
-32.589093
 40
0.583333
 50
47.457615
 51
312.542407
  0
ARC
  8
断面線04
  6
CONTINUOUS
 62
    47
 10
-12.832244
 20
-32.589093
 40
1.083333
 50
252.079761
 51
312.542389
  0
ARC
  8
断面線04
  6
CONTINUOUS
 62
    47
 10
-12.268798
 20
-31.975112
 40
0.25
 50
227.457603
 51
407.457636
  0
LINE
  8
断面線04
  6
CONTINUOUS
 62
    47
 10
-5.598905
 20
-31.422397
 11
-12.832237
 21
-31.422397
  0
ARC
  8
断面線04
  6
CONTINUOUS
 62
    47
 10
-12.832244
 20
-32.589093
 40
1.083333
 50
47.457611
 51
90.000025
  0
LINE
  8
断面線04
  6
CONTINUOUS
 62
    47
 10
-12.832237
 20
-31.505763
 11
-12.832237
 21
-31.422397
  0
ARC
  8
断面線04
  6
CONTINUOUS
 62
    47
 10
3.404312
 20
-33.203074
 40
0.25
 50
47.457603
 51
227.457636
  0
ARC
  8
断面線04
  6
CONTINUOUS
 62
    47
 10
3.967758
 20
-32.589093
 40
0.583333
 50
227.457593
 51
492.542385
  0
ARC
  8
断面線04
  6
CONTINUOUS
 62
    47
 10
3.404312
 20
-31.975112
 40
0.25
 50
132.542364
 51
312.542397
  0
ARC
  8
断面線04
  6
CONTINUOUS
 62
    47
 10
3.967758
 20
-32.589093
 40
1.083333
 50
89.999975
 51
132.542389
  0
ARC
  8
断面線04
  6
CONTINUOUS
 62
    47
 10
3.967758
 20
-32.589093
 40
1.083333
 50
227.457611
 51
287.920239
  0
LINE
  8
断面線04
  6
CONTINUOUS
 62
    47
 10
3.96777
 20
-31.505763
 11
3.96777
 21
-31.422397
  0
LINE
  8
断面線04
  6
CONTINUOUS
 62
    47
 10
-3.265563
 20
-31.422397
 11
3.96777
 21
-31.422397
  0
LINE
  8
断面線04
  6
CONTINUOUS
 62
    47
 10
-3.265563
 20
-25.922397
 11
-5.598905
 21
-25.922397
  0
ARC
  8
断面線04
  6
CONTINUOUS
 62
    47
 10
-11.833013
 20
-49.291459
 40
0.25
 50
357.542364
 51
537.542397
  0
ARC
  8
断面線04
  6
CONTINUOUS
 62
    47
 10
-12.66558
 20
-49.255726
 40
0.583333
 50
92.457615
 51
357.542407
  0
ARC
  8
断面線04
  6
CONTINUOUS
 62
    47
 10
-12.701313
 20
-48.423159
 40
0.25
 50
272.457576
 51
452.457618
  0
ARC
  8
断面線04
  6
CONTINUOUS
 62
    47
 10
-12.66558
 20
-49.255726
 40
1.083333
 50
332.513353
 51
357.542389
  0
ARC
  8
断面線04
  6
CONTINUOUS
 62
    47
 10
2.968521
 20
-49.291459
 40
0.25
 50
2.457603
 51
182.457636
  0
ARC
  8
断面線04
  6
CONTINUOUS
 62
    47
 10
3.801088
 20
-49.255726
 40
0.583333
 50
182.457593
 51
447.542385
  0
ARC
  8
断面線04
  6
CONTINUOUS
 62
    47
 10
3.836821
 20
-48.423159
 40
0.25
 50
87.542382
 51
267.542424
  0
ARC
  8
断面線04
  6
CONTINUOUS
 62
    47
 10
3.801088
 20
-49.255726
 40
1.083333
 50
182.457611
 51
207.486647
  0
ARC
  8
断面線04
  6
CONTINUOUS
 62
    47
 10
3.801088
 20
-49.255726
 40
1.083333
 50
62.513336
 51
87.542389
  0
ARC
  8
断面線04
  6
CONTINUOUS
 62
    47
 10
-12.66558
 20
-49.255726
 40
1.083333
 50
92.457611
 51
117.486331
  0
LINE
  8
断面線04
  6
CONTINUOUS
 62
    47
 10
-3.598895
 20
-28.442673
 11
-3.598895
 21
-28.942673
  0
LINE
  8
断面線04
  6
CONTINUOUS
 62
    47
 10
-5.265563
 20
-28.942673
 11
-5.265563
 21
-28.442673
  0
LINE
  8
断面線04
  6
CONTINUOUS
 62
    47
 10
-5.265563
 20
-28.942673
 11
-5.598905
 21
-28.942673
  0
LINE
  8
断面線04
  6
CONTINUOUS
 62
    47
 10
-5.265563
 20
-28.442673
 11
-5.598905
 21
-28.442673
  0
LINE
  8
断面線04
  6
CONTINUOUS
 62
    47
 10
-3.598895
 20
-28.442673
 11
-3.265563
 21
-28.442673
  0
LINE
  8
断面線04
  6
CONTINUOUS
 62
    47
 10
-3.598895
 20
-28.942673
 11
-3.265563
 21
-28.942673
  0
LINE
  8
断面線04
  6
CONTINUOUS
 62
    47
 10
-3.265563
 20
-31.422397
 11
-3.265563
 21
-28.942673
  0
LINE
  8
断面線04
  6
CONTINUOUS
 62
    47
 10
-3.265563
 20
-28.442673
 11
-3.265563
 21
-25.922397
  0
LINE
  8
断面線04
  6
CONTINUOUS
 62
    47
 10
-5.598905
 20
-31.422397
 11
-5.598905
 21
-28.942673
  0
LINE
  8
断面線04
  6
CONTINUOUS
 62
    47
 10
-5.598905
 20
-28.442673
 11
-5.598905
 21
-25.922397
  0
LINE
  8
断面線04
  6
CONTINUOUS
 62
    47
 10
-3.098895
 20
-48.422397
 11
-3.598895
 21
-48.422397
  0
LINE
  8
断面線04
  6
CONTINUOUS
 62
    47
 10
-5.765563
 20
-48.422397
 11
-5.265563
 21
-48.422397
  0
LINE
  8
断面線04
  6
CONTINUOUS
 62
    47
 10
-3.598895
 20
-48.422397
 11
-3.598895
 21
-49.75573
  0
LINE
  8
断面線04
  6
CONTINUOUS
 62
    47
 10
-3.598895
 20
-49.75573
 11
-5.265563
 21
-49.75573
  0
LINE
  8
断面線04
  6
CONTINUOUS
 62
    47
 10
-5.265563
 20
-48.422397
 11
-5.265563
 21
-49.75573
  0
LINE
  8
断面線04
  6
CONTINUOUS
 62
    47
 10
-5.765563
 20
-48.422397
 11
-5.765563
 21
-49.75573
  0
LINE
  8
断面線04
  6
CONTINUOUS
 62
    47
 10
-11.70452
 20
-49.75573
 11
-5.765563
 21
-49.75573
  0
LINE
  8
断面線04
  6
CONTINUOUS
 62
    47
 10
-3.098895
 20
-48.422397
 11
-3.098895
 21
-49.75573
  0
LINE
  8
断面線04
  6
CONTINUOUS
 62
    47
 10
2.840055
 20
-49.75573
 11
-3.098895
 21
-49.75573
  0
LINE
  8
断面線04
  6
CONTINUOUS
 62
    47
 10
-13.16557
 20
-48.29468
 11
-13.16557
 21
-35.922397
  0
LINE
  8
断面線04
  6
CONTINUOUS
 62
    47
 10
-7.93223
 20
-35.922397
 11
-13.16557
 21
-35.922397
  0
LINE
  8
断面線04
  6
CONTINUOUS
 62
    47
 10
-0.93223
 20
-35.922397
 11
4.301105
 21
-35.922397
  0
LINE
  8
断面線04
  6
CONTINUOUS
 62
    47
 10
4.301105
 20
-48.29468
 11
4.301105
 21
-35.922397
  0
LINE
  8
断面線04
  6
CONTINUOUS
 62
    47
 10
-13.16557
 20
-33.619873
 11
-13.16557
 21
-35.25573
  0
LINE
  8
断面線04
  6
CONTINUOUS
 62
    47
 10
-13.16557
 20
-35.25573
 11
-7.93223
 21
-35.25573
  0
LINE
  8
断面線04
  6
CONTINUOUS
 62
    47
 10
-7.93223
 20
-35.922397
 11
-7.93223
 21
-35.25573
  0
LINE
  8
断面線04
  6
CONTINUOUS
 62
    47
 10
4.301105
 20
-33.619873
 11
4.301105
 21
-35.25573
  0
LINE
  8
断面線04
  6
CONTINUOUS
 62
    47
 10
4.301105
 20
-35.25573
 11
-0.93223
 21
-35.25573
  0
LINE
  8
断面線04
  6
CONTINUOUS
 62
    47
 10
-0.93223
 20
-35.922397
 11
-0.93223
 21
-35.25573
  0
ENDBLK
  0
BLOCK
  2
*GRP_0074
 70
    65
 10
0.0
 20
0.0
  0
LINE
  8
型材断面
  6
CONTINUOUS
 62
    47
 10
6.901105
 20
-17.655695
 11
-4.432245
 21
-17.655695
  0
ARC
  8
型材断面
  6
CONTINUOUS
 62
    47
 10
6.901111
 20
-17.988989
 40
0.333333
 50
0.000053
 51
90.000053
  0
ARC
  8
型材断面
  6
CONTINUOUS
 62
    47
 10
-8.198954
 20
-19.822336
 40
0.166667
 50
90.000053
 51
180.000053
  0
LINE
  8
型材断面
  6
CONTINUOUS
 62
    47
 10
-8.365662
 20
-19.822362
 11
-8.365662
 21
-20.155695
  0
ARC
  8
型材断面
  6
CONTINUOUS
 62
    47
 10
-8.198954
 20
-20.155669
 40
0.166667
 50
180.000053
 51
270.000053
  0
ARC
  8
型材断面
  6
CONTINUOUS
 62
    47
 10
-1.765621
 20
-19.82233
 40
0.166667
 50
90.000053
 51
180.000053
  0
LINE
  8
型材断面
  6
CONTINUOUS
 62
    47
 10
-1.93233
 20
-19.822362
 11
-1.932312
 21
-20.155695
  0
ARC
  8
型材断面
  6
CONTINUOUS
 62
    47
 10
-1.76562
 20
-20.155663
 40
0.166667
 50
180.000053
 51
270.000053
  0
LINE
  8
型材断面
  6
CONTINUOUS
 62
    47
 10
-1.765662
 20
-19.655695
 11
0.501005
 21
-19.655695
  0
LINE
  8
型材断面
  6
CONTINUOUS
 62
    47
 10
1.00102
 20
-19.422362
 11
0.501005
 21
-19.422362
  0
LINE
  8
型材断面
  6
CONTINUOUS
 62
    47
 10
0.501005
 20
-19.655695
 11
0.501005
 21
-19.422362
  0
LINE
  8
型材断面
  6
CONTINUOUS
 62
    47
 10
-7.698995
 20
-19.422362
 11
-7.198995
 21
-19.422362
  0
LINE
  8
型材断面
  6
CONTINUOUS
 62
    47
 10
0.834368
 20
-20.322362
 11
0.834368
 21
-20.322362
  0
ARC
  8
型材断面
  6
CONTINUOUS
 62
    47
 10
1.067701
 20
-20.32236
 40
0.233333
 50
90.0
 51
180.0
  0
LINE
  8
型材断面
  6
CONTINUOUS
 62
    47
 10
-7.198995
 20
-19.422362
 11
-7.198975
 21
-18.489027
  0
LINE
  8
型材断面
  6
CONTINUOUS
 62
    47
 10
-16.098885
 20
-18.722362
 11
-14.43223
 21
-18.722362
  0
LINE
  8
型材断面
  6
CONTINUOUS
 62
    47
 10
1.00102
 20
-19.422362
 11
1.001
 21
-18.489027
  0
LINE
  8
型材断面
  6
CONTINUOUS
 62
    47
 10
7.234405
 20
-17.989012
 11
7.234405
 21
-18.722362
  0
LINE
  8
型材断面
  6
CONTINUOUS
 62
    47
 10
7.234405
 20
-18.722362
 11
5.567737
 21
-18.722362
  0
LINE
  8
型材断面
  6
CONTINUOUS
 62
    47
 10
5.567737
 20
-18.489027
 11
5.567737
 21
-18.722362
  0
LINE
  8
型材断面
  6
CONTINUOUS
 62
    47
 10
-0.965672
 20
-18.489027
 11
-0.96567
 21
-18.655695
  0
LINE
  8
型材断面
  6
CONTINUOUS
 62
    47
 10
5.567737
 20
-18.489027
 11
1.567668
 21
-18.489027
  0
LINE
  8
型材断面
  6
CONTINUOUS
 62
    47
 10
1.0677
 20
-20.089027
 11
1.234362
 21
-20.089027
  0
LINE
  8
型材断面
  6
CONTINUOUS
 62
    47
 10
1.567668
 20
-18.489027
 11
1.567695
 21
-19.755688
  0
ARC
  8
型材断面
  6
CONTINUOUS
 62
    47
 10
1.234362
 20
-19.755693
 40
0.333333
 50
270.0
 51
360.001253
  0
LINE
  8
型材断面
  6
CONTINUOUS
 62
    47
 10
-0.965672
 20
-18.489027
 11
1.001
 21
-18.489027
  0
LINE
  8
型材断面
  6
CONTINUOUS
 62
    47
 10
-2.76567
 20
-18.489027
 11
-6.632308
 21
-18.489027
  0
LINE
  8
型材断面
  6
CONTINUOUS
 62
    47
 10
-6.632308
 20
-18.489027
 11
-6.632348
 21
-20.322362
  0
LINE
  8
型材断面
  6
CONTINUOUS
 62
    47
 10
-7.865662
 20
-20.322362
 11
-7.865662
 21
-20.322362
  0
ARC
  8
型材断面
  6
CONTINUOUS
 62
    47
 10
-7.698996
 20
-20.32236
 40
0.166667
 50
90.0
 51
180.0
  0
LINE
  8
型材断面
  6
CONTINUOUS
 62
    47
 10
-7.698995
 20
-20.155695
 11
-7.298982
 21
-20.155695
  0
LINE
  8
型材断面
  6
CONTINUOUS
 62
    47
 10
-7.132348
 20
-20.322362
 11
-7.132348
 21
-20.322332
  0
ARC
  8
型材断面
  6
CONTINUOUS
 62
    47
 10
-7.298982
 20
-20.322327
 40
0.166633
 50
-0.001289
 51
90.0
  0
LINE
  8
型材断面
  6
CONTINUOUS
 62
    47
 10
-7.698995
 20
-19.422362
 11
-7.698995
 21
-19.555695
  0
LINE
  8
型材断面
  6
CONTINUOUS
 62
    47
 10
-8.198995
 20
-19.655695
 11
-7.798995
 21
-19.655695
  0
ARC
  8
型材断面
  6
CONTINUOUS
 62
    47
 10
-7.798996
 20
-19.555693
 40
0.1
 50
-90.0
 51
0.0
  0
LINE
  8
型材断面
  6
CONTINUOUS
 62
    47
 10
0.001035
 20
-20.322362
 11
0.001035
 21
-20.322362
  0
ARC
  8
型材断面
  6
CONTINUOUS
 62
    47
 10
-0.165632
 20
-20.32236
 40
0.166667
 50
0.0
 51
90.0
  0
LINE
  8
型材断面
  6
CONTINUOUS
 62
    47
 10
-1.09897
 20
-20.322362
 11
-1.09897
 21
-20.322337
  0
LINE
  8
型材断面
  6
CONTINUOUS
 62
    47
 10
-0.165632
 20
-20.155695
 11
-0.932337
 21
-20.155695
  0
ARC
  8
型材断面
  6
CONTINUOUS
 62
    47
 10
-0.932337
 20
-20.322327
 40
0.166633
 50
90.0
 51
180.002865
  0
LINE
  8
型材断面
  6
CONTINUOUS
 62
    47
 10
-8.19898
 20
-20.322362
 11
-7.865662
 21
-20.322362
  0
LINE
  8
型材断面
  6
CONTINUOUS
 62
    47
 10
-7.132348
 20
-20.322362
 11
-6.632348
 21
-20.322362
  0
LINE
  8
型材断面
  6
CONTINUOUS
 62
    47
 10
-1.765662
 20
-20.322362
 11
-1.09897
 21
-20.322362
  0
LINE
  8
型材断面
  6
CONTINUOUS
 62
    47
 10
0.001035
 20
-20.322362
 11
0.834368
 21
-20.322362
  0
LINE
  8
型材断面
  6
CONTINUOUS
 62
    47
 10
-2.76567
 20
-18.489027
 11
-2.599003
 21
-18.655695
  0
LINE
  8
型材断面
  6
CONTINUOUS
 62
    47
 10
-0.96567
 20
-18.655695
 11
-2.599003
 21
-18.655695
  0
LINE
  8
型材断面
  6
CONTINUOUS
 62
    47
 10
-9.198985
 20
-18.489027
 11
-9.03232
 21
-18.655695
  0
LINE
  8
型材断面
  6
CONTINUOUS
 62
    47
 10
-7.198975
 20
-18.489027
 11
-8.298985
 21
-18.489027
  0
LINE
  8
型材断面
  6
CONTINUOUS
 62
    47
 10
-9.03232
 20
-18.655695
 11
-8.298985
 21
-18.655695
  0
LINE
  8
型材断面
  6
CONTINUOUS
 62
    47
 10
-8.298985
 20
-18.489027
 11
-8.298985
 21
-18.655695
  0
LINE
  8
型材断面
  6
CONTINUOUS
 62
    47
 10
-14.43223
 20
-18.722362
 11
-14.43223
 21
-18.489027
  0
LINE
  8
型材断面
  6
CONTINUOUS
 62
    47
 10
-9.198985
 20
-18.489027
 11
-14.43223
 21
-18.489027
  0
LINE
  8
型材断面
  6
CONTINUOUS
 62
    47
 10
-16.098898
 20
-17.989033
 11
-16.098885
 21
-18.722362
  0
LINE
  8
型材断面
  6
CONTINUOUS
 62
    47
 10
-15.765563
 20
-17.655695
 11
-4.432245
 21
-17.655695
  0
ARC
  8
型材断面
  6
CONTINUOUS
 10
-15.765563
 20
-17.989028
 40
0.333333
 50
90.0
 51
180.000843
  0
ENDBLK
  0
BLOCK
  2
*GRP_0075
 70
    65
 10
0.0
 20
0.0
  0
LINE
  8
型材断面
  6
CONTINUOUS
 62
    47
 10
-9.198948
 20
-18.655725
 11
-9.198948
 21
-20.822393
  0
ARC
  8
型材断面
  6
CONTINUOUS
 62
    47
 10
-9.032279
 20
-20.822392
 40
0.166667
 50
180.0
 51
270.0
  0
ARC
  8
型材断面
  6
CONTINUOUS
 62
    47
 10
-7.53228
 20
-18.822392
 40
0.166667
 50
0.0
 51
90.0
  0
LINE
  8
型材断面
  6
CONTINUOUS
 62
    47
 10
-7.365615
 20
-18.822393
 11
-7.365615
 21
-19.155725
  0
ARC
  8
型材断面
  6
CONTINUOUS
 62
    47
 10
-7.53228
 20
-19.155725
 40
0.166667
 50
270.0
 51
360.0
  0
LINE
  8
型材断面
  6
CONTINUOUS
 62
    47
 10
-7.532283
 20
-18.655725
 11
-9.198948
 21
-18.655725
  0
LINE
  8
型材断面
  6
CONTINUOUS
 62
    47
 10
-8.365615
 20
-20.322393
 11
-6.098948
 21
-20.322393
  0
ARC
  8
型材断面
  6
CONTINUOUS
 62
    47
 10
0.66772
 20
-18.822392
 40
0.166667
 50
0.0
 51
90.0
  0
LINE
  8
型材断面
  6
CONTINUOUS
 62
    47
 10
0.834385
 20
-18.822393
 11
0.834385
 21
-19.155725
  0
ARC
  8
型材断面
  6
CONTINUOUS
 62
    47
 10
0.66772
 20
-19.155725
 40
0.166667
 50
270.0
 51
360.0
  0
ARC
  8
型材断面
  6
CONTINUOUS
 62
    47
 10
0.667721
 20
-20.989059
 40
0.166667
 50
270.0
 51
360.0
  0
ARC
  8
型材断面
  6
CONTINUOUS
 62
    47
 10
0.66772
 20
-20.489058
 40
0.166667
 50
0.0
 51
90.0
  0
LINE
  8
型材断面
  6
CONTINUOUS
 62
    47
 10
0.834385
 20
-20.489058
 11
0.834385
 21
-20.989058
  0
LINE
  8
型材断面
  6
CONTINUOUS
 62
    47
 10
-1.932283
 20
-20.322393
 11
0.667718
 21
-20.322393
  0
LINE
  8
型材断面
  6
CONTINUOUS
 62
    47
 10
0.667718
 20
-19.322393
 11
-1.598948
 21
-19.322393
  0
LINE
  8
型材断面
  6
CONTINUOUS
 62
    47
 10
-1.598948
 20
-19.322393
 11
-1.598948
 21
-19.555725
  0
LINE
  8
型材断面
  6
CONTINUOUS
 62
    47
 10
-1.932283
 20
-19.555725
 11
-1.598948
 21
-19.555725
  0
LINE
  8
型材断面
  6
CONTINUOUS
 62
    47
 10
-1.932283
 20
-20.322393
 11
-1.932283
 21
-19.555725
  0
LINE
  8
型材断面
  6
CONTINUOUS
 62
    47
 10
-8.032283
 20
-19.555725
 11
-8.365615
 21
-19.555725
  0
LINE
  8
型材断面
  6
CONTINUOUS
 62
    47
 10
-8.365615
 20
-20.322393
 11
-8.365615
 21
-19.555725
  0
LINE
  8
型材断面
  6
CONTINUOUS
 62
    47
 10
-8.032283
 20
-19.555725
 11
-8.032283
 21
-19.322393
  0
LINE
  8
型材断面
  6
CONTINUOUS
 62
    47
 10
-7.532283
 20
-19.322393
 11
-8.032283
 21
-19.322393
  0
LINE
  8
型材断面
  6
CONTINUOUS
 62
    47
 10
-0.332283
 20
-18.755725
 11
-0.232283
 21
-18.655725
  0
LINE
  8
型材断面
  6
CONTINUOUS
 62
    47
 10
-0.332283
 20
-18.755725
 11
-0.432283
 21
-18.655725
  0
LINE
  8
型材断面
  6
CONTINUOUS
 62
    47
 10
-2.765615
 20
-18.655725
 11
-0.432283
 21
-18.655725
  0
LINE
  8
型材断面
  6
CONTINUOUS
 62
    47
 10
0.667718
 20
-18.655725
 11
-0.232283
 21
-18.655725
  0
LINE
  8
型材断面
  6
CONTINUOUS
 62
    47
 10
-1.332283
 20
-21.155725
 11
0.66772
 21
-21.155725
  0
ARC
  8
型材断面
  6
CONTINUOUS
 62
    47
 10
-1.332282
 20
-21.822392
 40
0.666667
 50
90.0
 51
180.0
  0
LINE
  8
型材断面
  6
CONTINUOUS
 62
    47
 10
-9.032283
 20
-20.989058
 11
-7.532283
 21
-20.989058
  0
ARC
  8
型材断面
  6
CONTINUOUS
 62
    47
 10
-7.532282
 20
-21.655725
 40
0.666667
 50
0.0
 51
90.0
  0
LINE
  8
型材断面
  6
CONTINUOUS
 62
    47
 10
-2.665448
 20
-24.489062
 11
-2.665448
 21
-24.589063
  0
LINE
  8
型材断面
  6
CONTINUOUS
 62
    47
 10
-6.198948
 20
-24.489062
 11
-6.198948
 21
-24.589063
  0
LINE
  8
型材断面
  6
CONTINUOUS
 62
    47
 10
-2.665448
 20
-24.489062
 11
-6.198948
 21
-24.489062
  0
LINE
  8
型材断面
  6
CONTINUOUS
 62
    47
 10
-6.465615
 20
-24.489062
 11
-6.465615
 21
-24.589063
  0
LINE
  8
型材断面
  6
CONTINUOUS
 62
    47
 10
-6.198948
 20
-24.589063
 11
-6.465615
 21
-24.589063
  0
LINE
  8
型材断面
  6
CONTINUOUS
 62
    47
 10
-2.39878
 20
-24.489062
 11
-2.39878
 21
-24.589063
  0
LINE
  8
型材断面
  6
CONTINUOUS
 62
    47
 10
-2.665448
 20
-24.589063
 11
-2.39878
 21
-24.589063
  0
LINE
  8
型材断面
  6
CONTINUOUS
 62
    47
 10
-2.39878
 20
-24.489062
 11
-1.998948
 21
-24.489062
  0
LINE
  8
型材断面
  6
CONTINUOUS
 62
    47
 10
-6.465615
 20
-24.489062
 11
-6.865615
 21
-24.489062
  0
ARC
  8
型材断面
  6
CONTINUOUS
 62
    47
 10
-2.932279
 20
-23.555729
 40
0.166667
 50
270.0
 51
360.0
  0
ARC
  8
型材断面
  6
CONTINUOUS
 62
    47
 10
-5.932279
 20
-23.555729
 40
0.166667
 50
180.0
 51
270.0
  0
LINE
  8
型材断面
  6
CONTINUOUS
 62
    47
 10
-4.432283
 20
-23.822395
 11
-4.332283
 21
-23.722395
  0
LINE
  8
型材断面
  6
CONTINUOUS
 62
    47
 10
-4.432283
 20
-23.822395
 11
-4.532283
 21
-23.722395
  0
LINE
  8
型材断面
  6
CONTINUOUS
 62
    47
 10
-4.332283
 20
-23.722395
 11
-2.932283
 21
-23.722395
  0
LINE
  8
型材断面
  6
CONTINUOUS
 62
    47
 10
-5.932283
 20
-23.722395
 11
-4.532283
 21
-23.722395
  0
LINE
  8
型材断面
  6
CONTINUOUS
 62
    47
 10
-6.865615
 20
-21.655725
 11
-6.865615
 21
-24.489062
  0
LINE
  8
型材断面
  6
CONTINUOUS
 62
    47
 10
-1.998948
 20
-21.822393
 11
-1.998948
 21
-24.489062
  0
LINE
  8
型材断面
  6
CONTINUOUS
 62
    47
 10
-6.098948
 20
-20.322393
 11
-6.098948
 21
-23.55573
  0
LINE
  8
型材断面
  6
CONTINUOUS
 62
    47
 10
-2.765615
 20
-18.655725
 11
-2.765615
 21
-23.55573
  0
LINE
  8
型材断面
  6
DOT
 10
-4.432283
 20
-24.489062
 11
-4.432283
 21
-23.722395
  0
ENDBLK
  0
BLOCK
  2
*GRP_0076
 70
    65
 10
0.0
 20
0.0
  0
LINE
  8
ゴム等
  6
CONTINUOUS
 10
4.734438
 20
-27.922395
 11
4.734438
 21
-30.589063
  0
LINE
  8
ゴム等
  6
CONTINUOUS
 10
4.734438
 20
-27.922395
 11
2.56777
 21
-27.922395
  0
LINE
  8
ゴム等
  6
CONTINUOUS
 10
4.734438
 20
-30.589063
 11
2.901105
 21
-30.589063
  0
LINE
  8
ゴム等
  6
CONTINUOUS
 10
2.56777
 20
-30.25573
 11
2.56777
 21
-27.922395
  0
LINE
  8
ゴム等
  6
CONTINUOUS
 10
2.901105
 20
-30.589063
 11
2.56777
 21
-30.25573
  0
INSERT
  2
*HAT_0003
  8
ゴム等
 10
0.0
 20
0.0
  0
ENDBLK
  0
BLOCK
  2
*GRP_0077
 70
    65
 10
0.0
 20
0.0
  0
LINE
  8
ゴム等
  6
CONTINUOUS
 10
-13.598898
 20
-27.922395
 11
-13.598898
 21
-30.589063
  0
LINE
  8
ゴム等
  6
CONTINUOUS
 10
-13.598898
 20
-27.922395
 11
-11.43223
 21
-27.922395
  0
LINE
  8
ゴム等
  6
CONTINUOUS
 10
-13.598898
 20
-30.589063
 11
-11.765565
 21
-30.589063
  0
LINE
  8
ゴム等
  6
CONTINUOUS
 10
-11.43223
 20
-30.25573
 11
-11.43223
 21
-27.922395
  0
LINE
  8
ゴム等
  6
CONTINUOUS
 10
-11.765565
 20
-30.589063
 11
-11.43223
 21
-30.25573
  0
INSERT
  2
*HAT_0004
  8
ゴム等
 10
0.0
 20
0.0
  0
ENDBLK
  0
BLOCK
  2
*GRP_0078
 70
    65
 10
0.0
 20
0.0
  0
INSERT
  2
*GRP_0085
  8
補助線
  6
DOT
 62
    64
 10
0.0
 20
0.0
  0
CIRCLE
  8
ボルト／ビス
  6
DOT
 62
    64
 10
-12.83223
 20
-32.589062
 40
1.166668
  0
LINE
  8
ボルト／ビス
  6
DOT
 62
    64
 10
-12.645562
 20
-32.21573
 11
-12.645562
 21
-31.949945
  0
LINE
  8
ボルト／ビス
  6
DOT
 62
    64
 10
-12.458897
 20
-32.402395
 11
-12.19313
 21
-32.402395
  0
ARC
  8
ボルト／ビス
  6
DOT
 62
    64
 10
-12.458897
 20
-32.215724
 40
0.186667
 50
180.0
 51
270.0
  0
LINE
  8
ボルト／ビス
  6
DOT
 62
    64
 10
-12.19313
 20
-32.402395
 11
-12.19313
 21
-32.589062
  0
LINE
  8
ボルト／ビス
  6
DOT
 62
    64
 10
-12.645562
 20
-31.949945
 11
-12.83223
 21
-31.949945
  0
LINE
  8
ボルト／ビス
  6
DOT
 62
    64
 10
-12.645562
 20
-32.962395
 11
-12.645562
 21
-33.228162
  0
LINE
  8
ボルト／ビス
  6
DOT
 62
    64
 10
-12.458897
 20
-32.77573
 11
-12.19313
 21
-32.77573
  0
ARC
  8
ボルト／ビス
  6
DOT
 62
    64
 10
-12.458897
 20
-32.962391
 40
0.186667
 50
90.0
 51
180.0
  0
LINE
  8
ボルト／ビス
  6
DOT
 62
    64
 10
-12.19313
 20
-32.77573
 11
-12.19313
 21
-32.589062
  0
LINE
  8
ボルト／ビス
  6
DOT
 62
    64
 10
-12.645562
 20
-33.228162
 11
-12.83223
 21
-33.228162
  0
LINE
  8
ボルト／ビス
  6
DOT
 62
    64
 10
-13.018898
 20
-32.962395
 11
-13.018898
 21
-33.228162
  0
LINE
  8
ボルト／ビス
  6
DOT
 62
    64
 10
-13.205562
 20
-32.77573
 11
-13.47133
 21
-32.77573
  0
ARC
  8
ボルト／ビス
  6
DOT
 62
    64
 10
-13.205564
 20
-32.962391
 40
0.186667
 50
0.0
 51
90.0
  0
LINE
  8
ボルト／ビス
  6
DOT
 62
    64
 10
-13.47133
 20
-32.77573
 11
-13.47133
 21
-32.589062
  0
LINE
  8
ボルト／ビス
  6
DOT
 62
    64
 10
-13.018898
 20
-33.228162
 11
-12.83223
 21
-33.228162
  0
LINE
  8
ボルト／ビス
  6
DOT
 62
    64
 10
-13.018898
 20
-32.21573
 11
-13.018898
 21
-31.949945
  0
LINE
  8
ボルト／ビス
  6
DOT
 62
    64
 10
-13.205562
 20
-32.402395
 11
-13.47133
 21
-32.402395
  0
ARC
  8
ボルト／ビス
  6
DOT
 62
    64
 10
-13.205564
 20
-32.215724
 40
0.186667
 50
270.0
 51
360.0
  0
LINE
  8
ボルト／ビス
  6
DOT
 62
    64
 10
-13.47133
 20
-32.402395
 11
-13.47133
 21
-32.589062
  0
LINE
  8
ボルト／ビス
  6
DOT
 62
    64
 10
-13.018898
 20
-31.949945
 11
-12.83223
 21
-31.949945
  0
ENDBLK
  0
BLOCK
  2
*GRP_0079
 70
    65
 10
0.0
 20
0.0
  0
INSERT
  2
*GRP_0086
  8
補助線
  6
DOT
 62
    64
 10
0.0
 20
0.0
  0
CIRCLE
  8
ボルト／ビス
  6
DOT
 62
    64
 10
3.96777
 20
-32.589062
 40
1.166668
  0
LINE
  8
ボルト／ビス
  6
DOT
 62
    64
 10
3.781103
 20
-32.21573
 11
3.781103
 21
-31.949945
  0
LINE
  8
ボルト／ビス
  6
DOT
 62
    64
 10
3.594437
 20
-32.402395
 11
3.32867
 21
-32.402395
  0
ARC
  8
ボルト／ビス
  6
DOT
 62
    64
 10
3.594439
 20
-32.215724
 40
0.186667
 50
270.0
 51
360.0
  0
LINE
  8
ボルト／ビス
  6
DOT
 62
    64
 10
3.32867
 20
-32.402395
 11
3.32867
 21
-32.589062
  0
LINE
  8
ボルト／ビス
  6
DOT
 62
    64
 10
3.781103
 20
-31.949945
 11
3.96777
 21
-31.949945
  0
LINE
  8
ボルト／ビス
  6
DOT
 62
    64
 10
3.781103
 20
-32.962395
 11
3.781103
 21
-33.228162
  0
LINE
  8
ボルト／ビス
  6
DOT
 62
    64
 10
3.594437
 20
-32.77573
 11
3.32867
 21
-32.77573
  0
ARC
  8
ボルト／ビス
  6
DOT
 62
    64
 10
3.594439
 20
-32.962391
 40
0.186667
 50
0.0
 51
90.0
  0
LINE
  8
ボルト／ビス
  6
DOT
 62
    64
 10
3.32867
 20
-32.77573
 11
3.32867
 21
-32.589062
  0
LINE
  8
ボルト／ビス
  6
DOT
 62
    64
 10
3.781103
 20
-33.228162
 11
3.96777
 21
-33.228162
  0
LINE
  8
ボルト／ビス
  6
DOT
 62
    64
 10
4.154437
 20
-32.962395
 11
4.154437
 21
-33.228162
  0
LINE
  8
ボルト／ビス
  6
DOT
 62
    64
 10
4.341102
 20
-32.77573
 11
4.60687
 21
-32.77573
  0
ARC
  8
ボルト／ビス
  6
DOT
 62
    64
 10
4.341106
 20
-32.962391
 40
0.186667
 50
90.0
 51
180.0
  0
LINE
  8
ボルト／ビス
  6
DOT
 62
    64
 10
4.60687
 20
-32.77573
 11
4.60687
 21
-32.589062
  0
LINE
  8
ボルト／ビス
  6
DOT
 62
    64
 10
4.154437
 20
-33.228162
 11
3.96777
 21
-33.228162
  0
LINE
  8
ボルト／ビス
  6
DOT
 62
    64
 10
4.154437
 20
-32.21573
 11
4.154437
 21
-31.949945
  0
LINE
  8
ボルト／ビス
  6
DOT
 62
    64
 10
4.341102
 20
-32.402395
 11
4.60687
 21
-32.402395
  0
ARC
  8
ボルト／ビス
  6
DOT
 62
    64
 10
4.341106
 20
-32.215724
 40
0.186667
 50
180.0
 51
270.0
  0
LINE
  8
ボルト／ビス
  6
DOT
 62
    64
 10
4.60687
 20
-32.402395
 11
4.60687
 21
-32.589062
  0
LINE
  8
ボルト／ビス
  6
DOT
 62
    64
 10
4.154437
 20
-31.949945
 11
3.96777
 21
-31.949945
  0
ENDBLK
  0
BLOCK
  2
*GRP_0080
 70
    65
 10
0.0
 20
0.0
  0
INSERT
  2
*GRP_0087
  8
補助線
  6
CONTINUOUS
 62
    64
 10
0.0
 20
0.0
  0
CIRCLE
  8
ボルト／ビス
  6
CONTINUOUS
 62
    64
 10
-18.43223
 20
-32.589062
 40
1.166668
  0
LINE
  8
ボルト／ビス
  6
CONTINUOUS
 62
    64
 10
-18.245562
 20
-32.21573
 11
-18.245562
 21
-31.949957
  0
LINE
  8
ボルト／ビス
  6
CONTINUOUS
 62
    64
 10
-18.058897
 20
-32.402395
 11
-17.793125
 21
-32.402395
  0
ARC
  8
ボルト／ビス
  6
CONTINUOUS
 62
    64
 10
-18.058898
 20
-32.215728
 40
0.186667
 50
180.0
 51
270.0
  0
LINE
  8
ボルト／ビス
  6
CONTINUOUS
 62
    64
 10
-17.793125
 20
-32.402395
 11
-17.793125
 21
-32.589062
  0
LINE
  8
ボルト／ビス
  6
CONTINUOUS
 62
    64
 10
-18.245562
 20
-31.949957
 11
-18.43223
 21
-31.949957
  0
LINE
  8
ボルト／ビス
  6
CONTINUOUS
 62
    64
 10
-18.245562
 20
-32.962395
 11
-18.245562
 21
-33.228168
  0
LINE
  8
ボルト／ビス
  6
CONTINUOUS
 62
    64
 10
-18.058897
 20
-32.77573
 11
-17.793125
 21
-32.77573
  0
ARC
  8
ボルト／ビス
  6
CONTINUOUS
 62
    64
 10
-18.058898
 20
-32.962395
 40
0.186667
 50
90.0
 51
180.0
  0
LINE
  8
ボルト／ビス
  6
CONTINUOUS
 62
    64
 10
-17.793125
 20
-32.77573
 11
-17.793125
 21
-32.589062
  0
LINE
  8
ボルト／ビス
  6
CONTINUOUS
 62
    64
 10
-18.245562
 20
-33.228168
 11
-18.43223
 21
-33.228168
  0
LINE
  8
ボルト／ビス
  6
CONTINUOUS
 62
    64
 10
-18.618898
 20
-32.962395
 11
-18.618898
 21
-33.228168
  0
LINE
  8
ボルト／ビス
  6
CONTINUOUS
 62
    64
 10
-18.805562
 20
-32.77573
 11
-19.071335
 21
-32.77573
  0
ARC
  8
ボルト／ビス
  6
CONTINUOUS
 62
    64
 10
-18.805565
 20
-32.962395
 40
0.186667
 50
0.0
 51
90.0
  0
LINE
  8
ボルト／ビス
  6
CONTINUOUS
 62
    64
 10
-19.071335
 20
-32.77573
 11
-19.071335
 21
-32.589062
  0
LINE
  8
ボルト／ビス
  6
CONTINUOUS
 62
    64
 10
-18.618898
 20
-33.228168
 11
-18.43223
 21
-33.228168
  0
LINE
  8
ボルト／ビス
  6
CONTINUOUS
 62
    64
 10
-18.618898
 20
-32.21573
 11
-18.618898
 21
-31.949957
  0
LINE
  8
ボルト／ビス
  6
CONTINUOUS
 62
    64
 10
-18.805562
 20
-32.402395
 11
-19.071335
 21
-32.402395
  0
ARC
  8
ボルト／ビス
  6
CONTINUOUS
 62
    64
 10
-18.805565
 20
-32.215728
 40
0.186667
 50
270.0
 51
360.0
  0
LINE
  8
ボルト／ビス
  6
CONTINUOUS
 62
    64
 10
-19.071335
 20
-32.402395
 11
-19.071335
 21
-32.589062
  0
LINE
  8
ボルト／ビス
  6
CONTINUOUS
 62
    64
 10
-18.618898
 20
-31.949957
 11
-18.43223
 21
-31.949957
  0
ENDBLK
  0
BLOCK
  2
*GRP_0081
 70
    65
 10
0.0
 20
0.0
  0
INSERT
  2
*GRP_0088
  8
補助線
  6
CONTINUOUS
 62
    64
 10
0.0
 20
0.0
  0
CIRCLE
  8
ボルト／ビス
  6
CONTINUOUS
 62
    64
 10
9.56777
 20
-32.589062
 40
1.166668
  0
LINE
  8
ボルト／ビス
  6
CONTINUOUS
 62
    64
 10
9.381103
 20
-32.21573
 11
9.381103
 21
-31.949957
  0
LINE
  8
ボルト／ビス
  6
CONTINUOUS
 62
    64
 10
9.194437
 20
-32.402395
 11
8.928665
 21
-32.402395
  0
ARC
  8
ボルト／ビス
  6
CONTINUOUS
 62
    64
 10
9.194435
 20
-32.215728
 40
0.186667
 50
270.0
 51
360.0
  0
LINE
  8
ボルト／ビス
  6
CONTINUOUS
 62
    64
 10
8.928665
 20
-32.402395
 11
8.928665
 21
-32.589062
  0
LINE
  8
ボルト／ビス
  6
CONTINUOUS
 62
    64
 10
9.381103
 20
-31.949957
 11
9.56777
 21
-31.949957
  0
LINE
  8
ボルト／ビス
  6
CONTINUOUS
 62
    64
 10
9.381103
 20
-32.962395
 11
9.381103
 21
-33.228168
  0
LINE
  8
ボルト／ビス
  6
CONTINUOUS
 62
    64
 10
9.194437
 20
-32.77573
 11
8.928665
 21
-32.77573
  0
ARC
  8
ボルト／ビス
  6
CONTINUOUS
 62
    64
 10
9.194435
 20
-32.962395
 40
0.186667
 50
0.0
 51
90.0
  0
LINE
  8
ボルト／ビス
  6
CONTINUOUS
 62
    64
 10
8.928665
 20
-32.77573
 11
8.928665
 21
-32.589062
  0
LINE
  8
ボルト／ビス
  6
CONTINUOUS
 62
    64
 10
9.381103
 20
-33.228168
 11
9.56777
 21
-33.228168
  0
LINE
  8
ボルト／ビス
  6
CONTINUOUS
 62
    64
 10
9.754437
 20
-32.962395
 11
9.754437
 21
-33.228168
  0
LINE
  8
ボルト／ビス
  6
CONTINUOUS
 62
    64
 10
9.941102
 20
-32.77573
 11
10.206875
 21
-32.77573
  0
ARC
  8
ボルト／ビス
  6
CONTINUOUS
 62
    64
 10
9.941102
 20
-32.962395
 40
0.186667
 50
90.0
 51
180.0
  0
LINE
  8
ボルト／ビス
  6
CONTINUOUS
 62
    64
 10
10.206875
 20
-32.77573
 11
10.206875
 21
-32.589062
  0
LINE
  8
ボルト／ビス
  6
CONTINUOUS
 62
    64
 10
9.754437
 20
-33.228168
 11
9.56777
 21
-33.228168
  0
LINE
  8
ボルト／ビス
  6
CONTINUOUS
 62
    64
 10
9.754437
 20
-32.21573
 11
9.754437
 21
-31.949957
  0
LINE
  8
ボルト／ビス
  6
CONTINUOUS
 62
    64
 10
9.941102
 20
-32.402395
 11
10.206875
 21
-32.402395
  0
ARC
  8
ボルト／ビス
  6
CONTINUOUS
 62
    64
 10
9.941102
 20
-32.215728
 40
0.186667
 50
180.0
 51
270.0
  0
LINE
  8
ボルト／ビス
  6
CONTINUOUS
 62
    64
 10
10.206875
 20
-32.402395
 11
10.206875
 21
-32.589062
  0
LINE
  8
ボルト／ビス
  6
CONTINUOUS
 62
    64
 10
9.754437
 20
-31.949957
 11
9.56777
 21
-31.949957
  0
ENDBLK
  0
BLOCK
  2
*GRP_0082
 70
    65
 10
0.0
 20
0.0
  0
INSERT
  2
*GRP_0089
  8
補助線
  6
CONTINUOUS
 62
    64
 10
0.0
 20
0.0
  0
CIRCLE
  8
ボルト／ビス
  6
CONTINUOUS
 62
    64
 10
-12.832233
 20
-32.589062
 40
1.166668
  0
LINE
  8
ボルト／ビス
  6
CONTINUOUS
 62
    64
 10
-12.645565
 20
-32.21573
 11
-12.645565
 21
-31.949957
  0
LINE
  8
ボルト／ビス
  6
CONTINUOUS
 62
    64
 10
-12.4589
 20
-32.402395
 11
-12.193127
 21
-32.402395
  0
ARC
  8
ボルト／ビス
  6
CONTINUOUS
 62
    64
 10
-12.458901
 20
-32.215728
 40
0.186667
 50
180.0
 51
270.0
  0
LINE
  8
ボルト／ビス
  6
CONTINUOUS
 62
    64
 10
-12.193127
 20
-32.402395
 11
-12.193127
 21
-32.589062
  0
LINE
  8
ボルト／ビス
  6
CONTINUOUS
 62
    64
 10
-12.645565
 20
-31.949957
 11
-12.832233
 21
-31.949957
  0
LINE
  8
ボルト／ビス
  6
CONTINUOUS
 62
    64
 10
-12.645565
 20
-32.962395
 11
-12.645565
 21
-33.228168
  0
LINE
  8
ボルト／ビス
  6
CONTINUOUS
 62
    64
 10
-12.4589
 20
-32.77573
 11
-12.193127
 21
-32.77573
  0
ARC
  8
ボルト／ビス
  6
CONTINUOUS
 62
    64
 10
-12.458901
 20
-32.962395
 40
0.186667
 50
90.0
 51
180.0
  0
LINE
  8
ボルト／ビス
  6
CONTINUOUS
 62
    64
 10
-12.193127
 20
-32.77573
 11
-12.193127
 21
-32.589062
  0
LINE
  8
ボルト／ビス
  6
CONTINUOUS
 62
    64
 10
-12.645565
 20
-33.228168
 11
-12.832233
 21
-33.228168
  0
LINE
  8
ボルト／ビス
  6
CONTINUOUS
 62
    64
 10
-13.0189
 20
-32.962395
 11
-13.0189
 21
-33.228168
  0
LINE
  8
ボルト／ビス
  6
CONTINUOUS
 62
    64
 10
-13.205565
 20
-32.77573
 11
-13.471338
 21
-32.77573
  0
ARC
  8
ボルト／ビス
  6
CONTINUOUS
 62
    64
 10
-13.205568
 20
-32.962395
 40
0.186667
 50
0.0
 51
90.0
  0
LINE
  8
ボルト／ビス
  6
CONTINUOUS
 62
    64
 10
-13.471338
 20
-32.77573
 11
-13.471338
 21
-32.589062
  0
LINE
  8
ボルト／ビス
  6
CONTINUOUS
 62
    64
 10
-13.0189
 20
-33.228168
 11
-12.832233
 21
-33.228168
  0
LINE
  8
ボルト／ビス
  6
CONTINUOUS
 62
    64
 10
-13.0189
 20
-32.21573
 11
-13.0189
 21
-31.949957
  0
LINE
  8
ボルト／ビス
  6
CONTINUOUS
 62
    64
 10
-13.205565
 20
-32.402395
 11
-13.471338
 21
-32.402395
  0
ARC
  8
ボルト／ビス
  6
CONTINUOUS
 62
    64
 10
-13.205568
 20
-32.215728
 40
0.186667
 50
270.0
 51
360.0
  0
LINE
  8
ボルト／ビス
  6
CONTINUOUS
 62
    64
 10
-13.471338
 20
-32.402395
 11
-13.471338
 21
-32.589062
  0
LINE
  8
ボルト／ビス
  6
CONTINUOUS
 62
    64
 10
-13.0189
 20
-31.949957
 11
-12.832233
 21
-31.949957
  0
ENDBLK
  0
BLOCK
  2
*GRP_0083
 70
    65
 10
0.0
 20
0.0
  0
INSERT
  2
*GRP_0090
  8
補助線
  6
CONTINUOUS
 62
    64
 10
0.0
 20
0.0
  0
CIRCLE
  8
ボルト／ビス
  6
CONTINUOUS
 62
    64
 10
3.967772
 20
-32.589062
 40
1.166668
  0
LINE
  8
ボルト／ビス
  6
CONTINUOUS
 62
    64
 10
4.15444
 20
-32.21573
 11
4.15444
 21
-31.949957
  0
LINE
  8
ボルト／ビス
  6
CONTINUOUS
 62
    64
 10
4.341105
 20
-32.402395
 11
4.606877
 21
-32.402395
  0
ARC
  8
ボルト／ビス
  6
CONTINUOUS
 62
    64
 10
4.341104
 20
-32.215728
 40
0.186667
 50
180.0
 51
270.0
  0
LINE
  8
ボルト／ビス
  6
CONTINUOUS
 62
    64
 10
4.606877
 20
-32.402395
 11
4.606877
 21
-32.589062
  0
LINE
  8
ボルト／ビス
  6
CONTINUOUS
 62
    64
 10
4.15444
 20
-31.949957
 11
3.967772
 21
-31.949957
  0
LINE
  8
ボルト／ビス
  6
CONTINUOUS
 62
    64
 10
4.15444
 20
-32.962395
 11
4.15444
 21
-33.228168
  0
LINE
  8
ボルト／ビス
  6
CONTINUOUS
 62
    64
 10
4.341105
 20
-32.77573
 11
4.606877
 21
-32.77573
  0
ARC
  8
ボルト／ビス
  6
CONTINUOUS
 62
    64
 10
4.341104
 20
-32.962395
 40
0.186667
 50
90.0
 51
180.0
  0
LINE
  8
ボルト／ビス
  6
CONTINUOUS
 62
    64
 10
4.606877
 20
-32.77573
 11
4.606877
 21
-32.589062
  0
LINE
  8
ボルト／ビス
  6
CONTINUOUS
 62
    64
 10
4.15444
 20
-33.228168
 11
3.967772
 21
-33.228168
  0
LINE
  8
ボルト／ビス
  6
CONTINUOUS
 62
    64
 10
3.781105
 20
-32.962395
 11
3.781105
 21
-33.228168
  0
LINE
  8
ボルト／ビス
  6
CONTINUOUS
 62
    64
 10
3.59444
 20
-32.77573
 11
3.328667
 21
-32.77573
  0
ARC
  8
ボルト／ビス
  6
CONTINUOUS
 62
    64
 10
3.594437
 20
-32.962395
 40
0.186667
 50
0.0
 51
90.0
  0
LINE
  8
ボルト／ビス
  6
CONTINUOUS
 62
    64
 10
3.328667
 20
-32.77573
 11
3.328667
 21
-32.589062
  0
LINE
  8
ボルト／ビス
  6
CONTINUOUS
 62
    64
 10
3.781105
 20
-33.228168
 11
3.967772
 21
-33.228168
  0
LINE
  8
ボルト／ビス
  6
CONTINUOUS
 62
    64
 10
3.781105
 20
-32.21573
 11
3.781105
 21
-31.949957
  0
LINE
  8
ボルト／ビス
  6
CONTINUOUS
 62
    64
 10
3.59444
 20
-32.402395
 11
3.328667
 21
-32.402395
  0
ARC
  8
ボルト／ビス
  6
CONTINUOUS
 62
    64
 10
3.594437
 20
-32.215728
 40
0.186667
 50
270.0
 51
360.0
  0
LINE
  8
ボルト／ビス
  6
CONTINUOUS
 62
    64
 10
3.328667
 20
-32.402395
 11
3.328667
 21
-32.589062
  0
LINE
  8
ボルト／ビス
  6
CONTINUOUS
 62
    64
 10
3.781105
 20
-31.949957
 11
3.967772
 21
-31.949957
  0
ENDBLK
  0
BLOCK
  2
*GRP_0084
 70
    65
 10
0.0
 20
0.0
  0
LINE
  8
ボルト／ビス
  6
CONTINUOUS
 62
    64
 10
-3.265563
 20
-23.722395
 11
-3.29613
 21
-23.373013
  0
ARC
  8
ボルト／ビス
  6
CONTINUOUS
 62
    64
 10
-3.86064
 20
-23.422394
 40
0.566667
 50
4.999989
 51
90.0
  0
LINE
  8
ボルト／ビス
  6
CONTINUOUS
 62
    64
 10
-3.860647
 20
-22.855728
 11
-4.43223
 21
-22.855728
  0
LINE
  8
ボルト／ビス
  6
CONTINUOUS
 62
    64
 10
-5.598898
 20
-23.722395
 11
-5.56833
 21
-23.373013
  0
ARC
  8
ボルト／ビス
  6
CONTINUOUS
 62
    64
 10
-5.003818
 20
-23.422394
 40
0.566667
 50
90.0
 51
175.000011
  0
LINE
  8
ボルト／ビス
  6
CONTINUOUS
 62
    64
 10
-5.003813
 20
-22.855728
 11
-4.43223
 21
-22.855728
  0
LINE
  8
ボルト／ビス
  6
CONTINUOUS
 62
    64
 10
-3.633348
 20
-22.984027
 11
-3.633348
 21
-22.903312
  0
LINE
  8
ボルト／ビス
  6
CONTINUOUS
 62
    64
 10
-4.198898
 20
-23.200727
 11
-4.43223
 21
-23.200727
  0
LINE
  8
ボルト／ビス
  6
CONTINUOUS
 62
    64
 10
-4.065563
 20
-22.984027
 11
-3.633348
 21
-22.984027
  0
LINE
  8
ボルト／ビス
  6
CONTINUOUS
 62
    64
 10
-4.198898
 20
-23.200727
 11
-4.198898
 21
-23.117363
  0
ARC
  8
ボルト／ビス
  6
CONTINUOUS
 62
    64
 10
-4.065562
 20
-23.117363
 40
0.133333
 50
90.0
 51
180.0
  0
LINE
  8
ボルト／ビス
  6
CONTINUOUS
 62
    64
 10
-5.231113
 20
-22.984027
 11
-5.231113
 21
-22.903312
  0
LINE
  8
ボルト／ビス
  6
CONTINUOUS
 62
    64
 10
-4.665563
 20
-23.200727
 11
-4.43223
 21
-23.200727
  0
LINE
  8
ボルト／ビス
  6
CONTINUOUS
 62
    64
 10
-4.798898
 20
-22.984027
 11
-5.231113
 21
-22.984027
  0
LINE
  8
ボルト／ビス
  6
CONTINUOUS
 62
    64
 10
-4.665563
 20
-23.200727
 11
-4.665563
 21
-23.117363
  0
ARC
  8
ボルト／ビス
  6
CONTINUOUS
 62
    64
 10
-4.798895
 20
-23.117363
 40
0.133333
 50
0.0
 51
90.0
  0
LINE
  8
ボルト／ビス
  6
CONTINUOUS
 62
    64
 10
-3.265563
 20
-23.722395
 11
-5.598898
 21
-23.722395
  0
LINE
  8
ボルト／ビス
  6
CONTINUOUS
 62
    64
 10
-3.765563
 20
-26.889063
 11
-3.93223
 21
-27.055728
  0
LINE
  8
ボルト／ビス
  6
CONTINUOUS
 62
    64
 10
-5.098898
 20
-26.889063
 11
-4.93223
 21
-27.055728
  0
LINE
  8
ボルト／ビス
  6
CONTINUOUS
 62
    64
 10
-3.765563
 20
-26.889063
 11
-5.098898
 21
-26.889063
  0
LINE
  8
ボルト／ビス
  6
CONTINUOUS
 62
    64
 10
-3.93223
 20
-27.055728
 11
-4.93223
 21
-27.055728
  0
LINE
  8
ボルト／ビス
  6
CONTINUOUS
 62
    64
 10
-4.43223
 20
-22.198595
 11
-4.43223
 21
-27.580678
  0
LINE
  8
ボルト／ビス
  6
CONTINUOUS
 62
    64
 10
-3.765563
 20
-23.722395
 11
-3.765563
 21
-26.889063
  0
LINE
  8
ボルト／ビス
  6
CONTINUOUS
 62
    64
 10
-5.098898
 20
-23.722395
 11
-5.098898
 21
-26.889063
  0
LINE
  8
ボルト／ビス
  6
CONTINUOUS
 62
    64
 10
-4.93223
 20
-23.722395
 11
-4.93223
 21
-27.055728
  0
LINE
  8
ボルト／ビス
  6
CONTINUOUS
 62
    64
 10
-3.93223
 20
-23.722395
 11
-3.93223
 21
-27.055728
  0
ENDBLK
  0
BLOCK
  2
*GRP_0085
 70
    65
 10
0.0
 20
0.0
  0
LINE
  8
補助線
  6
DOT
 62
    64
 10
-11.098898
 20
-32.589062
 11
-14.565563
 21
-32.589062
  0
LINE
  8
補助線
  6
DOT
 62
    64
 10
-12.83223
 20
-30.85573
 11
-12.83223
 21
-34.322395
  0
ENDBLK
  0
BLOCK
  2
*GRP_0086
 70
    65
 10
0.0
 20
0.0
  0
LINE
  8
補助線
  6
DOT
 62
    64
 10
2.234438
 20
-32.589062
 11
5.701102
 21
-32.589062
  0
LINE
  8
補助線
  6
DOT
 62
    64
 10
3.96777
 20
-30.85573
 11
3.96777
 21
-34.322395
  0
ENDBLK
  0
BLOCK
  2
*GRP_0087
 70
    65
 10
0.0
 20
0.0
  0
LINE
  8
補助線
  6
BYBLOCK
 62
    64
 10
-16.698898
 20
-32.589062
 11
-20.165563
 21
-32.589062
  0
LINE
  8
補助線
  6
BYBLOCK
 62
    64
 10
-18.43223
 20
-30.85573
 11
-18.43223
 21
-34.322395
  0
ENDBLK
  0
BLOCK
  2
*GRP_0088
 70
    65
 10
0.0
 20
0.0
  0
LINE
  8
補助線
  6
BYBLOCK
 62
    64
 10
7.834438
 20
-32.589062
 11
11.301102
 21
-32.589062
  0
LINE
  8
補助線
  6
BYBLOCK
 62
    64
 10
9.56777
 20
-30.85573
 11
9.56777
 21
-34.322395
  0
ENDBLK
  0
BLOCK
  2
*GRP_0089
 70
    65
 10
0.0
 20
0.0
  0
LINE
  8
補助線
  6
BYBLOCK
 62
    64
 10
-11.0989
 20
-32.589062
 11
-14.565565
 21
-32.589062
  0
LINE
  8
補助線
  6
BYBLOCK
 62
    64
 10
-12.832233
 20
-30.85573
 11
-12.832233
 21
-34.322395
  0
ENDBLK
  0
BLOCK
  2
*GRP_0090
 70
    65
 10
0.0
 20
0.0
  0
LINE
  8
補助線
  6
BYBLOCK
 62
    64
 10
5.701105
 20
-32.589062
 11
2.23444
 21
-32.589062
  0
LINE
  8
補助線
  6
BYBLOCK
 62
    64
 10
3.967772
 20
-30.85573
 11
3.967772
 21
-34.322395
  0
ENDBLK
  0
BLOCK
  2
*GRP_0091
 70
    65
 10
0.0
 20
0.0
  0
ARC
  8
St
  6
CONTINUOUS
 62
   127
 10
-81.084469
 20
-69.855731
 40
1.066667
 50
-90.0
 51
0.0
  0
LINE
  8
St
  6
CONTINUOUS
 10
-109.231665
 20
-69.85573
 11
-110.29833
 21
-70.922397
  0
LINE
  8
St
  6
CONTINUOUS
 10
-109.46737
 20
-69.85573
 11
-110.534035
 21
-70.922397
  0
LINE
  8
St
  6
CONTINUOUS
 62
   127
 10
-81.084462
 20
-69.85573
 11
-113.351127
 21
-69.85573
  0
LINE
  8
St
  6
CONTINUOUS
 10
-113.351127
 20
-69.85573
 11
-113.351127
 21
-70.922397
  0
LINE
  8
St
  6
CONTINUOUS
 62
   127
 10
-81.084462
 20
-70.922397
 11
-113.351127
 21
-70.922397
  0
LINE
  8
St
  6
CONTINUOUS
 10
-88.149472
 20
-70.922397
 11
-87.082808
 21
-69.85573
  0
LINE
  8
St
  6
CONTINUOUS
 10
-88.385178
 20
-70.922397
 11
-87.318512
 21
-69.85573
  0
LINE
  8
St
  6
CONTINUOUS
 10
-81.084462
 20
-59.50629
 11
-80.017795
 21
-58.43962
  0
LINE
  8
St
  6
CONTINUOUS
 10
-81.084462
 20
-59.270585
 11
-80.017795
 21
-58.203915
  0
LINE
  8
St
  6
CONTINUOUS
 10
-81.084462
 20
-57.589062
 11
-80.017795
 21
-57.589062
  0
LINE
  8
St
  6
CONTINUOUS
 62
   127
 10
-80.017795
 20
-69.85573
 11
-80.017795
 21
-57.589062
  0
LINE
  8
St
  6
CONTINUOUS
 62
   127
 10
-81.084462
 20
-69.85573
 11
-81.084462
 21
-57.589062
  0
LINE
  8
St
  6
DOT
 10
-78.402088
 20
-62.589062
 11
-82.618335
 21
-62.589062
  0
LINE
  8
St
  6
DOT
 62
   127
 10
-97.27286
 20
-71.787525
 11
-97.27286
 21
-71.787522
  0
LINE
  8
St
  6
DOT
 10
-90.017795
 20
-69.85573
 11
-90.017795
 21
-70.922397
  0
LINE
  8
St
  6
DOT
 10
-96.68446
 20
-69.85573
 11
-96.68446
 21
-70.922397
  0
LINE
  8
St
  6
DOT
 10
-101.68446
 20
-69.85573
 11
-101.68446
 21
-70.922397
  0
LINE
  8
St
  6
DOT
 10
-105.017795
 20
-69.85573
 11
-105.017795
 21
-70.922397
  0
LINE
  8
St
  6
DOT
 10
-93.351127
 20
-68.501085
 11
-93.351127
 21
-72.327285
  0
LINE
  8
St
  6
DOT
 62
   127
 10
-96.68446
 20
-70.122397
 11
-90.017795
 21
-70.122397
  0
LINE
  8
St
  6
DOT
 62
   127
 10
-96.68446
 20
-70.389062
 11
-90.017795
 21
-70.389062
  0
LINE
  8
St
  6
DOT
 62
   127
 10
-96.68446
 20
-70.65573
 11
-90.017795
 21
-70.65573
  0
LINE
  8
St
  6
DOT
 10
-101.68446
 20
-70.122397
 11
-105.017795
 21
-70.122397
  0
LINE
  8
St
  6
DOT
 10
-101.68446
 20
-70.389062
 11
-105.017795
 21
-70.389062
  0
LINE
  8
St
  6
DOT
 10
-101.68446
 20
-70.65573
 11
-105.017795
 21
-70.65573
  0
LINE
  8
St
  6
DOT
 10
-103.351127
 20
-68.501085
 11
-103.351127
 21
-72.327285
  0
LINE
  8
St
  6
DOT
 10
-80.017795
 20
-69.85573
 11
-81.084462
 21
-69.85573
  0
LINE
  8
St
  6
DOT
 10
-80.017795
 20
-59.255728
 11
-81.084462
 21
-59.255728
  0
LINE
  8
St
  6
DOT
 10
-81.084462
 20
-63.589062
 11
-80.017795
 21
-63.589062
  0
LINE
  8
St
  6
DOT
 10
-81.084462
 20
-61.589062
 11
-80.017795
 21
-61.589062
  0
LINE
  8
St
  6
DOT
 62
   127
 10
-80.817795
 20
-69.85573
 11
-80.817795
 21
-59.255728
  0
LINE
  8
St
  6
DOT
 62
   127
 10
-80.55113
 20
-69.85573
 11
-80.55113
 21
-59.255728
  0
LINE
  8
St
  6
DOT
 62
   127
 10
-80.284462
 20
-69.85573
 11
-80.284462
 21
-59.255728
  0
ENDBLK
  0
BLOCK
  2
*GRP_0092
 70
    65
 10
0.0
 20
0.0
  0
ARC
  8
St
  6
CONTINUOUS
 62
   127
 10
72.220009
 20
-69.855731
 40
1.066667
 50
180.0
 51
270.0
  0
LINE
  8
St
  6
CONTINUOUS
 10
100.367205
 20
-69.85573
 11
101.43387
 21
-70.922397
  0
LINE
  8
St
  6
CONTINUOUS
 10
100.60291
 20
-69.85573
 11
101.669575
 21
-70.922397
  0
LINE
  8
St
  6
CONTINUOUS
 62
   127
 10
72.220003
 20
-69.85573
 11
104.486667
 21
-69.85573
  0
LINE
  8
St
  6
CONTINUOUS
 10
104.486667
 20
-69.85573
 11
104.486667
 21
-70.922397
  0
LINE
  8
St
  6
CONTINUOUS
 62
   127
 10
72.220003
 20
-70.922397
 11
104.486667
 21
-70.922397
  0
LINE
  8
St
  6
CONTINUOUS
 10
79.285013
 20
-70.922397
 11
78.218347
 21
-69.85573
  0
LINE
  8
St
  6
CONTINUOUS
 10
79.520717
 20
-70.922397
 11
78.454053
 21
-69.85573
  0
LINE
  8
St
  6
CONTINUOUS
 10
72.220003
 20
-59.50629
 11
71.153335
 21
-58.43962
  0
LINE
  8
St
  6
CONTINUOUS
 10
72.220003
 20
-59.270585
 11
71.153335
 21
-58.203915
  0
LINE
  8
St
  6
CONTINUOUS
 10
72.220003
 20
-57.589062
 11
71.153335
 21
-57.589062
  0
LINE
  8
St
  6
CONTINUOUS
 62
   127
 10
71.153335
 20
-69.85573
 11
71.153335
 21
-57.589062
  0
LINE
  8
St
  6
CONTINUOUS
 62
   127
 10
72.220003
 20
-69.85573
 11
72.220003
 21
-57.589062
  0
LINE
  8
St
  6
DOT
 10
69.537628
 20
-62.589062
 11
73.753875
 21
-62.589062
  0
LINE
  8
St
  6
DOT
 62
   127
 10
88.4084
 20
-71.787525
 11
88.4084
 21
-71.787522
  0
LINE
  8
St
  6
DOT
 10
81.153335
 20
-69.85573
 11
81.153335
 21
-70.922397
  0
LINE
  8
St
  6
DOT
 10
87.82
 20
-69.85573
 11
87.82
 21
-70.922397
  0
LINE
  8
St
  6
DOT
 10
92.82
 20
-69.85573
 11
92.82
 21
-70.922397
  0
LINE
  8
St
  6
DOT
 10
96.153335
 20
-69.85573
 11
96.153335
 21
-70.922397
  0
LINE
  8
St
  6
DOT
 10
84.486667
 20
-68.501085
 11
84.486667
 21
-72.327285
  0
LINE
  8
St
  6
DOT
 62
   127
 10
87.82
 20
-70.122397
 11
81.153335
 21
-70.122397
  0
LINE
  8
St
  6
DOT
 62
   127
 10
87.82
 20
-70.389062
 11
81.153335
 21
-70.389062
  0
LINE
  8
St
  6
DOT
 62
   127
 10
87.82
 20
-70.65573
 11
81.153335
 21
-70.65573
  0
LINE
  8
St
  6
DOT
 10
92.82
 20
-70.122397
 11
96.153335
 21
-70.122397
  0
LINE
  8
St
  6
DOT
 10
92.82
 20
-70.389062
 11
96.153335
 21
-70.389062
  0
LINE
  8
St
  6
DOT
 10
92.82
 20
-70.65573
 11
96.153335
 21
-70.65573
  0
LINE
  8
St
  6
DOT
 10
94.486667
 20
-68.501085
 11
94.486667
 21
-72.327285
  0
LINE
  8
St
  6
DOT
 10
71.153335
 20
-69.85573
 11
72.220003
 21
-69.85573
  0
LINE
  8
St
  6
DOT
 10
71.153335
 20
-59.255728
 11
72.220003
 21
-59.255728
  0
LINE
  8
St
  6
DOT
 10
72.220003
 20
-63.589062
 11
71.153335
 21
-63.589062
  0
LINE
  8
St
  6
DOT
 10
72.220003
 20
-61.589062
 11
71.153335
 21
-61.589062
  0
LINE
  8
St
  6
DOT
 62
   127
 10
71.953335
 20
-69.85573
 11
71.953335
 21
-59.255728
  0
LINE
  8
St
  6
DOT
 62
   127
 10
71.68667
 20
-69.85573
 11
71.68667
 21
-59.255728
  0
LINE
  8
St
  6
DOT
 62
   127
 10
71.420003
 20
-69.85573
 11
71.420003
 21
-59.255728
  0
ENDBLK
  0
BLOCK
  2
*DIM_0093
 70
    65
 10
0.0
 20
0.0
  0
LINE
  8
寸法
  6
CONTINUOUS
 10
8.06777
 20
-41.25573
 11
8.06777
 21
-58.264762
  0
LINE
  8
寸法
  6
CONTINUOUS
 10
5.134438
 20
-55.922397
 11
5.134438
 21
-58.264762
  0
LINE
  8
寸法
  6
CONTINUOUS
 10
8.06777
 20
-58.264762
 11
5.134438
 21
-58.264762
  0
POINT
  8
寸法
 10
8.06777
 20
-58.264762
  0
POINT
  8
寸法
 10
5.134438
 20
-58.264762
  0
TEXT
  7
TextStyle03
  8
寸法
  6
CONTINUOUS
 10
9.1875
 20
-57.9
  1
8.8
 40
3.0
 72
     5
 11
14.0625
 21
-57.9
  0
ENDBLK
  0
BLOCK
  2
*DIM_0094
 70
    65
 10
0.0
 20
0.0
  0
LINE
  8
寸法
  6
CONTINUOUS
 10
-13.998905
 20
-55.922397
 11
-13.998905
 21
-58.264762
  0
LINE
  8
寸法
  6
CONTINUOUS
 10
5.134438
 20
-58.264762
 11
-13.998905
 21
-58.264762
  0
POINT
  8
寸法
 10
-13.998905
 20
-58.264762
  0
TEXT
  7
TextStyle03
  8
寸法
  6
CONTINUOUS
 10
-7.73125
 20
-57.9
  1
57.4
 40
3.0
 72
     5
 11
-1.16875
 21
-57.9
  0
ENDBLK
  0
BLOCK
  2
*DIM_0095
 70
    65
 10
0.0
 20
0.0
  0
LINE
  8
寸法
  6
CONTINUOUS
 10
-16.93223
 20
-41.25573
 11
-16.93223
 21
-58.264762
  0
LINE
  8
寸法
  6
CONTINUOUS
 10
-13.998905
 20
-58.264762
 11
-16.93223
 21
-58.264762
  0
POINT
  8
寸法
 10
-16.93223
 20
-58.264762
  0
TEXT
  7
TextStyle03
  8
寸法
  6
CONTINUOUS
 10
-22.9625
 20
-57.9
  1
8.8
 40
3.0
 72
     5
 11
-18.0875
 21
-57.9
  0
ENDBLK
  0
BLOCK
  2
*DIM_0096
 70
    65
 10
0.0
 20
0.0
  0
LINE
  8
寸法
  6
CONTINUOUS
 10
8.06777
 20
-41.25573
 11
8.06777
 21
-64.216208
  0
LINE
  8
寸法
  6
CONTINUOUS
 10
-16.93223
 20
-41.25573
 11
-16.93223
 21
-64.216208
  0
LINE
  8
寸法
  6
CONTINUOUS
 10
8.06777
 20
-64.216208
 11
-16.93223
 21
-64.216208
  0
POINT
  8
寸法
 10
8.06777
 20
-64.216208
  0
POINT
  8
寸法
 10
-16.93223
 20
-64.216208
  0
TEXT
  7
TextStyle03
  8
寸法
  6
CONTINUOUS
 10
-6.01875
 20
-63.85
  1
75
 40
3.0
 72
     5
 11
-2.83125
 21
-63.85
  0
ENDBLK
  0
BLOCK
  2
*GRP_0097
 70
    65
 10
0.0
 20
0.0
  0
LINE
  8
型材断面
  6
CONTINUOUS
 10
7.734445
 20
-93.420283
 11
7.40111
 21
-95.08695
  0
LINE
  8
型材断面
  6
CONTINUOUS
 62
    47
 10
-8.832222
 20
-90.086953
 11
-8.832222
 21
-89.320285
  0
ARC
  8
型材断面
  6
CONTINUOUS
 62
    47
 10
-7.065557
 20
-84.186947
 40
0.1
 50
90.0
 51
180.0
  0
LINE
  8
型材断面
  6
CONTINUOUS
 62
    47
 10
-7.165555
 20
-84.653618
 11
-7.165555
 21
-84.186953
  0
ARC
  8
型材断面
  6
CONTINUOUS
 62
    47
 10
-7.065557
 20
-84.653613
 40
0.1
 50
180.0
 51
270.0
  0
ARC
  8
型材断面
  6
CONTINUOUS
 62
    47
 10
-8.098891
 20
-88.92028
 40
0.1
 50
0.0
 51
90.0
  0
LINE
  8
型材断面
  6
CONTINUOUS
 62
    47
 10
-7.99889
 20
-89.220285
 11
-7.99889
 21
-88.920285
  0
LINE
  8
型材断面
  6
CONTINUOUS
 62
    47
 10
-8.09889
 20
-89.320285
 11
-8.832222
 21
-89.320285
  0
ARC
  8
型材断面
  6
CONTINUOUS
 62
    47
 10
-8.098891
 20
-89.22028
 40
0.1
 50
270.0
 51
360.0
  0
LINE
  8
型材断面
  6
CONTINUOUS
 62
    47
 10
-8.09889
 20
-88.820285
 11
-9.232222
 21
-88.820285
  0
LINE
  8
型材断面
  6
CONTINUOUS
 62
    47
 10
-9.332222
 20
-90.086953
 11
-9.332222
 21
-88.920285
  0
ARC
  8
型材断面
  6
CONTINUOUS
 62
    47
 10
-9.232224
 20
-88.92028
 40
0.1
 50
90.0
 51
180.0
  0
LINE
  8
型材断面
  6
CONTINUOUS
 62
    47
 10
-8.832222
 20
-90.086953
 11
-6.432222
 21
-90.086953
  0
LINE
  8
型材断面
  6
CONTINUOUS
 62
    47
 10
-13.59889
 20
-90.086953
 11
-13.59889
 21
-89.520285
  0
ARC
  8
型材断面
  6
CONTINUOUS
 62
    47
 10
-13.698891
 20
-89.52028
 40
0.1
 50
0.0
 51
90.0
  0
LINE
  8
型材断面
  6
CONTINUOUS
 62
    47
 10
-13.69889
 20
-89.420285
 11
-13.89889
 21
-89.420285
  0
ARC
  8
型材断面
  6
CONTINUOUS
 62
    47
 10
-13.898891
 20
-89.52028
 40
0.1
 50
90.0
 51
180.0
  0
LINE
  8
型材断面
  6
CONTINUOUS
 62
    47
 10
-13.99889
 20
-89.520285
 11
-13.99889
 21
-95.08695
  0
LINE
  8
型材断面
  6
CONTINUOUS
 62
    47
 10
-13.748892
 20
-92.08695
 11
-11.91556
 21
-92.08695
  0
ARC
  8
型材断面
  6
CONTINUOUS
 62
    47
 10
-12.268778
 20
-92.700928
 40
0.25
 50
312.542364
 51
492.542397
  0
ARC
  8
型材断面
  6
CONTINUOUS
 62
    47
 10
-12.832224
 20
-92.086947
 40
0.583333
 50
47.457615
 51
312.542407
  0
ARC
  8
型材断面
  6
CONTINUOUS
 62
    47
 10
-12.268778
 20
-91.472966
 40
0.25
 50
227.457576
 51
407.457618
  0
ARC
  8
型材断面
  6
CONTINUOUS
 62
    47
 10
-12.832224
 20
-92.086947
 40
1.083333
 50
47.457611
 51
90.000044
  0
LINE
  8
型材断面
  6
CONTINUOUS
 10
-16.932222
 20
-95.753618
 11
-16.932222
 21
-93.420283
  0
LINE
  8
型材断面
  6
CONTINUOUS
 10
-13.99889
 20
-95.08695
 11
-16.265555
 21
-95.08695
  0
LINE
  8
型材断面
  6
CONTINUOUS
 62
    47
 10
-4.432222
 20
-95.753618
 11
-16.932222
 21
-95.753618
  0
LINE
  8
型材断面
  6
CONTINUOUS
 62
    47
 10
-12.832225
 20
-91.170285
 11
-12.832225
 21
-93.170283
  0
LINE
  8
型材断面
  6
CONTINUOUS
 10
-4.432222
 20
-94.920285
 11
-13.165557
 21
-94.920285
  0
LINE
  8
型材断面
  6
CONTINUOUS
 10
-13.165557
 20
-94.920285
 11
-13.165557
 21
-93.117728
  0
LINE
  8
型材断面
  6
CONTINUOUS
 10
-12.832225
 20
-91.003618
 11
-12.832225
 21
-90.920285
  0
ARC
  8
型材断面
  6
CONTINUOUS
 62
    47
 10
-12.832224
 20
-92.086947
 40
1.083333
 50
252.079718
 51
312.542389
  0
LINE
  8
型材断面
  6
CONTINUOUS
 10
-12.832225
 20
-90.920285
 11
-5.59889
 21
-90.920285
  0
LINE
  8
型材断面
  6
CONTINUOUS
 62
    47
 10
-9.332222
 20
-90.086953
 11
-13.59889
 21
-90.086953
  0
LINE
  8
型材断面
  6
CONTINUOUS
 62
    47
 10
-7.065555
 20
-84.086953
 11
-4.432222
 21
-84.086953
  0
LINE
  8
型材断面
  6
CONTINUOUS
 10
-5.59889
 20
-90.920285
 11
-5.59889
 21
-84.753618
  0
LINE
  8
型材断面
  6
CONTINUOUS
 62
    47
 10
-6.432222
 20
-90.086953
 11
-6.432222
 21
-84.753618
  0
LINE
  8
型材断面
  6
CONTINUOUS
 62
    47
 10
-7.065555
 20
-84.753618
 11
-6.432222
 21
-84.753618
  0
LINE
  8
型材断面
  6
CONTINUOUS
 62
    47
 10
-5.59889
 20
-84.753618
 11
-4.432222
 21
-84.753618
  0
LINE
  8
型材断面
  6
CONTINUOUS
 62
    47
 10
-0.032222
 20
-90.086953
 11
-0.032222
 21
-89.320285
  0
ARC
  8
型材断面
  6
CONTINUOUS
 62
    47
 10
-1.798891
 20
-84.186947
 40
0.1
 50
0.0
 51
90.0
  0
LINE
  8
型材断面
  6
CONTINUOUS
 62
    47
 10
-1.69889
 20
-84.653618
 11
-1.69889
 21
-84.186953
  0
ARC
  8
型材断面
  6
CONTINUOUS
 62
    47
 10
-1.798891
 20
-84.653613
 40
0.1
 50
270.0
 51
360.0
  0
ARC
  8
型材断面
  6
CONTINUOUS
 62
    47
 10
-0.765558
 20
-88.92028
 40
0.1
 50
90.0
 51
180.0
  0
LINE
  8
型材断面
  6
CONTINUOUS
 62
    47
 10
-0.865555
 20
-89.220285
 11
-0.865555
 21
-88.920285
  0
LINE
  8
型材断面
  6
CONTINUOUS
 62
    47
 10
-0.765555
 20
-89.320285
 11
-0.032222
 21
-89.320285
  0
ARC
  8
型材断面
  6
CONTINUOUS
 62
    47
 10
-0.765558
 20
-89.22028
 40
0.1
 50
180.0
 51
270.0
  0
LINE
  8
型材断面
  6
CONTINUOUS
 62
    47
 10
-0.765555
 20
-88.820285
 11
0.367778
 21
-88.820285
  0
LINE
  8
型材断面
  6
CONTINUOUS
 62
    47
 10
0.467778
 20
-90.086953
 11
0.467778
 21
-88.920285
  0
ARC
  8
型材断面
  6
CONTINUOUS
 62
    47
 10
0.367776
 20
-88.92028
 40
0.1
 50
0.0
 51
90.0
  0
LINE
  8
型材断面
  6
CONTINUOUS
 62
    47
 10
-0.032222
 20
-90.086953
 11
-2.432222
 21
-90.086953
  0
LINE
  8
型材断面
  6
CONTINUOUS
 62
    47
 10
4.734445
 20
-90.086953
 11
4.734445
 21
-89.520285
  0
ARC
  8
型材断面
  6
CONTINUOUS
 62
    47
 10
4.834442
 20
-89.52028
 40
0.1
 50
90.0
 51
180.0
  0
LINE
  8
型材断面
  6
CONTINUOUS
 62
    47
 10
4.834445
 20
-89.420285
 11
5.034445
 21
-89.420285
  0
ARC
  8
型材断面
  6
CONTINUOUS
 62
    47
 10
5.034442
 20
-89.52028
 40
0.1
 50
0.0
 51
90.0
  0
LINE
  8
型材断面
  6
CONTINUOUS
 62
    47
 10
5.134445
 20
-89.520285
 11
5.134445
 21
-95.08695
  0
LINE
  8
型材断面
  6
CONTINUOUS
 62
    47
 10
4.884447
 20
-92.08695
 11
3.051115
 21
-92.08695
  0
ARC
  8
型材断面
  6
CONTINUOUS
 62
    47
 10
3.40433
 20
-92.700928
 40
0.25
 50
47.457603
 51
227.457636
  0
ARC
  8
型材断面
  6
CONTINUOUS
 62
    47
 10
3.967776
 20
-92.086947
 40
0.583333
 50
227.457593
 51
492.542385
  0
ARC
  8
型材断面
  6
CONTINUOUS
 62
    47
 10
3.40433
 20
-91.472966
 40
0.25
 50
132.542382
 51
312.542424
  0
ARC
  8
型材断面
  6
CONTINUOUS
 62
    47
 10
3.967776
 20
-92.086947
 40
1.083333
 50
89.999956
 51
132.542389
  0
LINE
  8
型材断面
  6
CONTINUOUS
 10
8.067778
 20
-95.753618
 11
8.067778
 21
-93.420283
  0
LINE
  8
型材断面
  6
CONTINUOUS
 10
5.134445
 20
-95.08695
 11
7.40111
 21
-95.08695
  0
LINE
  8
型材断面
  6
CONTINUOUS
 62
    47
 10
-4.432222
 20
-95.753618
 11
8.067778
 21
-95.753618
  0
LINE
  8
型材断面
  6
CONTINUOUS
 62
    47
 10
3.96778
 20
-91.170285
 11
3.96778
 21
-93.170283
  0
LINE
  8
型材断面
  6
CONTINUOUS
 10
-4.432222
 20
-94.920285
 11
4.301113
 21
-94.920285
  0
LINE
  8
型材断面
  6
CONTINUOUS
 10
4.301113
 20
-94.920285
 11
4.301113
 21
-93.117728
  0
LINE
  8
型材断面
  6
CONTINUOUS
 10
3.96778
 20
-91.003618
 11
3.96778
 21
-90.920285
  0
ARC
  8
型材断面
  6
CONTINUOUS
 62
    47
 10
3.967776
 20
-92.086947
 40
1.083333
 50
227.457611
 51
287.920282
  0
LINE
  8
型材断面
  6
CONTINUOUS
 10
3.96778
 20
-90.920285
 11
-3.265555
 21
-90.920285
  0
LINE
  8
型材断面
  6
CONTINUOUS
 62
    47
 10
0.467778
 20
-90.086953
 11
4.734445
 21
-90.086953
  0
LINE
  8
型材断面
  6
CONTINUOUS
 62
    47
 10
-1.79889
 20
-84.086953
 11
-4.432222
 21
-84.086953
  0
LINE
  8
型材断面
  6
CONTINUOUS
 10
-3.265555
 20
-90.920285
 11
-3.265555
 21
-84.753618
  0
LINE
  8
型材断面
  6
CONTINUOUS
 62
    47
 10
-2.432222
 20
-90.086953
 11
-2.432222
 21
-84.753618
  0
LINE
  8
型材断面
  6
CONTINUOUS
 62
    47
 10
-1.79889
 20
-84.753618
 11
-2.432222
 21
-84.753618
  0
LINE
  8
型材断面
  6
CONTINUOUS
 62
    47
 10
-3.265555
 20
-84.753618
 11
-4.432222
 21
-84.753618
  0
LINE
  8
型材断面
  6
CONTINUOUS
 10
8.067778
 20
-93.420283
 11
7.734445
 21
-93.420283
  0
LINE
  8
型材断面
  6
CONTINUOUS
 10
-16.59889
 20
-93.420283
 11
-16.265555
 21
-95.08695
  0
LINE
  8
型材断面
  6
CONTINUOUS
 10
-16.932222
 20
-93.420283
 11
-16.59889
 21
-93.420283
  0
ENDBLK
  0
BLOCK
  2
*GRP_0098
 70
    65
 10
0.0
 20
0.0
  0
LINE
  8
型材断面
  6
CONTINUOUS
 62
    47
 10
6.901113
 20
-77.153582
 11
-4.432237
 21
-77.153582
  0
ARC
  8
型材断面
  6
CONTINUOUS
 62
    47
 10
6.901118
 20
-77.486877
 40
0.333333
 50
0.000053
 51
90.000053
  0
ARC
  8
型材断面
  6
CONTINUOUS
 62
    47
 10
-8.198946
 20
-79.320223
 40
0.166667
 50
90.000053
 51
180.000053
  0
LINE
  8
型材断面
  6
CONTINUOUS
 62
    47
 10
-8.365655
 20
-79.32025
 11
-8.365655
 21
-79.653582
  0
ARC
  8
型材断面
  6
CONTINUOUS
 62
    47
 10
-8.198946
 20
-79.653557
 40
0.166667
 50
180.000053
 51
270.000053
  0
ARC
  8
型材断面
  6
CONTINUOUS
 62
    47
 10
-1.765613
 20
-79.320218
 40
0.166667
 50
90.000053
 51
180.000053
  0
LINE
  8
型材断面
  6
CONTINUOUS
 62
    47
 10
-1.932323
 20
-79.32025
 11
-1.932305
 21
-79.653582
  0
ARC
  8
型材断面
  6
CONTINUOUS
 62
    47
 10
-1.765613
 20
-79.653551
 40
0.166667
 50
180.000053
 51
270.000053
  0
LINE
  8
型材断面
  6
CONTINUOUS
 62
    47
 10
-1.765655
 20
-79.153582
 11
0.501013
 21
-79.153582
  0
LINE
  8
型材断面
  6
CONTINUOUS
 62
    47
 10
1.001028
 20
-78.92025
 11
0.501013
 21
-78.92025
  0
LINE
  8
型材断面
  6
CONTINUOUS
 62
    47
 10
0.501013
 20
-79.153582
 11
0.501013
 21
-78.92025
  0
LINE
  8
型材断面
  6
CONTINUOUS
 62
    47
 10
-7.698988
 20
-78.92025
 11
-7.198988
 21
-78.92025
  0
LINE
  8
型材断面
  6
CONTINUOUS
 62
    47
 10
0.834375
 20
-79.82025
 11
0.834375
 21
-79.82025
  0
ARC
  8
型材断面
  6
CONTINUOUS
 62
    47
 10
1.067709
 20
-79.820248
 40
0.233333
 50
90.0
 51
180.0
  0
LINE
  8
型材断面
  6
CONTINUOUS
 62
    47
 10
-7.198988
 20
-78.92025
 11
-7.198967
 21
-77.986915
  0
LINE
  8
型材断面
  6
CONTINUOUS
 62
    47
 10
-16.098877
 20
-78.22025
 11
-14.432222
 21
-78.22025
  0
LINE
  8
型材断面
  6
CONTINUOUS
 62
    47
 10
1.001028
 20
-78.92025
 11
1.001008
 21
-77.986915
  0
LINE
  8
型材断面
  6
CONTINUOUS
 62
    47
 10
7.234412
 20
-77.4869
 11
7.234412
 21
-78.22025
  0
LINE
  8
型材断面
  6
CONTINUOUS
 62
    47
 10
7.234412
 20
-78.22025
 11
5.567745
 21
-78.22025
  0
LINE
  8
型材断面
  6
CONTINUOUS
 62
    47
 10
5.567745
 20
-77.986915
 11
5.567745
 21
-78.22025
  0
LINE
  8
型材断面
  6
CONTINUOUS
 62
    47
 10
-0.965665
 20
-77.986915
 11
-0.965662
 21
-78.153582
  0
LINE
  8
型材断面
  6
CONTINUOUS
 62
    47
 10
5.567745
 20
-77.986915
 11
1.567675
 21
-77.986915
  0
LINE
  8
型材断面
  6
CONTINUOUS
 62
    47
 10
1.067707
 20
-79.586915
 11
1.23437
 21
-79.586915
  0
LINE
  8
型材断面
  6
CONTINUOUS
 62
    47
 10
1.567675
 20
-77.986915
 11
1.567703
 21
-79.253575
  0
ARC
  8
型材断面
  6
CONTINUOUS
 62
    47
 10
1.234369
 20
-79.253581
 40
0.333333
 50
270.0
 51
360.001253
  0
LINE
  8
型材断面
  6
CONTINUOUS
 62
    47
 10
-0.965665
 20
-77.986915
 11
1.001008
 21
-77.986915
  0
LINE
  8
型材断面
  6
CONTINUOUS
 62
    47
 10
-2.765662
 20
-77.986915
 11
-6.6323
 21
-77.986915
  0
LINE
  8
型材断面
  6
CONTINUOUS
 62
    47
 10
-6.6323
 20
-77.986915
 11
-6.63234
 21
-79.82025
  0
LINE
  8
型材断面
  6
CONTINUOUS
 62
    47
 10
-7.865655
 20
-79.82025
 11
-7.865655
 21
-79.82025
  0
ARC
  8
型材断面
  6
CONTINUOUS
 62
    47
 10
-7.698988
 20
-79.820248
 40
0.166667
 50
90.0
 51
180.0
  0
LINE
  8
型材断面
  6
CONTINUOUS
 62
    47
 10
-7.698988
 20
-79.653582
 11
-7.298975
 21
-79.653582
  0
LINE
  8
型材断面
  6
CONTINUOUS
 62
    47
 10
-7.13234
 20
-79.82025
 11
-7.13234
 21
-79.82022
  0
ARC
  8
型材断面
  6
CONTINUOUS
 62
    47
 10
-7.298975
 20
-79.820214
 40
0.166633
 50
-0.001289
 51
90.0
  0
LINE
  8
型材断面
  6
CONTINUOUS
 62
    47
 10
-7.698988
 20
-78.92025
 11
-7.698988
 21
-79.053582
  0
LINE
  8
型材断面
  6
CONTINUOUS
 62
    47
 10
-8.198988
 20
-79.153582
 11
-7.798988
 21
-79.153582
  0
ARC
  8
型材断面
  6
CONTINUOUS
 62
    47
 10
-7.798988
 20
-79.053581
 40
0.1
 50
-90.0
 51
0.0
  0
LINE
  8
型材断面
  6
CONTINUOUS
 62
    47
 10
0.001043
 20
-79.82025
 11
0.001043
 21
-79.82025
  0
ARC
  8
型材断面
  6
CONTINUOUS
 62
    47
 10
-0.165625
 20
-79.820248
 40
0.166667
 50
0.0
 51
90.0
  0
LINE
  8
型材断面
  6
CONTINUOUS
 62
    47
 10
-1.098963
 20
-79.82025
 11
-1.098963
 21
-79.820225
  0
LINE
  8
型材断面
  6
CONTINUOUS
 62
    47
 10
-0.165625
 20
-79.653582
 11
-0.93233
 21
-79.653582
  0
ARC
  8
型材断面
  6
CONTINUOUS
 62
    47
 10
-0.93233
 20
-79.820214
 40
0.166633
 50
90.0
 51
180.002865
  0
LINE
  8
型材断面
  6
CONTINUOUS
 62
    47
 10
-8.198973
 20
-79.82025
 11
-7.865655
 21
-79.82025
  0
LINE
  8
型材断面
  6
CONTINUOUS
 62
    47
 10
-7.13234
 20
-79.82025
 11
-6.63234
 21
-79.82025
  0
LINE
  8
型材断面
  6
CONTINUOUS
 62
    47
 10
-1.765655
 20
-79.82025
 11
-1.098963
 21
-79.82025
  0
LINE
  8
型材断面
  6
CONTINUOUS
 62
    47
 10
0.001043
 20
-79.82025
 11
0.834375
 21
-79.82025
  0
LINE
  8
型材断面
  6
CONTINUOUS
 62
    47
 10
-2.765662
 20
-77.986915
 11
-2.598995
 21
-78.153582
  0
LINE
  8
型材断面
  6
CONTINUOUS
 62
    47
 10
-0.965662
 20
-78.153582
 11
-2.598995
 21
-78.153582
  0
LINE
  8
型材断面
  6
CONTINUOUS
 62
    47
 10
-9.198978
 20
-77.986915
 11
-9.032312
 21
-78.153582
  0
LINE
  8
型材断面
  6
CONTINUOUS
 62
    47
 10
-7.198967
 20
-77.986915
 11
-8.298978
 21
-77.986915
  0
LINE
  8
型材断面
  6
CONTINUOUS
 62
    47
 10
-9.032312
 20
-78.153582
 11
-8.298978
 21
-78.153582
  0
LINE
  8
型材断面
  6
CONTINUOUS
 62
    47
 10
-8.298978
 20
-77.986915
 11
-8.298978
 21
-78.153582
  0
LINE
  8
型材断面
  6
CONTINUOUS
 62
    47
 10
-14.432222
 20
-78.22025
 11
-14.432222
 21
-77.986915
  0
LINE
  8
型材断面
  6
CONTINUOUS
 62
    47
 10
-9.198978
 20
-77.986915
 11
-14.432222
 21
-77.986915
  0
LINE
  8
型材断面
  6
CONTINUOUS
 62
    47
 10
-16.09889
 20
-77.48692
 11
-16.098877
 21
-78.22025
  0
LINE
  8
型材断面
  6
CONTINUOUS
 62
    47
 10
-15.765555
 20
-77.153582
 11
-4.432237
 21
-77.153582
  0
ARC
  8
型材断面
  6
CONTINUOUS
 10
-15.765555
 20
-77.486915
 40
0.333333
 50
90.0
 51
180.000843
  0
ENDBLK
  0
BLOCK
  2
*GRP_0099
 70
    65
 10
0.0
 20
0.0
  0
LINE
  8
型材断面
  6
CONTINUOUS
 62
    47
 10
-9.19894
 20
-78.153612
 11
-9.19894
 21
-80.32028
  0
ARC
  8
型材断面
  6
CONTINUOUS
 62
    47
 10
-9.032272
 20
-80.32028
 40
0.166667
 50
180.0
 51
270.0
  0
ARC
  8
型材断面
  6
CONTINUOUS
 62
    47
 10
-7.532273
 20
-78.320279
 40
0.166667
 50
0.0
 51
90.0
  0
LINE
  8
型材断面
  6
CONTINUOUS
 62
    47
 10
-7.365607
 20
-78.32028
 11
-7.365607
 21
-78.653612
  0
ARC
  8
型材断面
  6
CONTINUOUS
 62
    47
 10
-7.532273
 20
-78.653613
 40
0.166667
 50
270.0
 51
360.0
  0
LINE
  8
型材断面
  6
CONTINUOUS
 62
    47
 10
-7.532275
 20
-78.153612
 11
-9.19894
 21
-78.153612
  0
LINE
  8
型材断面
  6
CONTINUOUS
 62
    47
 10
-8.365607
 20
-79.82028
 11
-6.09894
 21
-79.82028
  0
ARC
  8
型材断面
  6
CONTINUOUS
 62
    47
 10
0.667727
 20
-78.320279
 40
0.166667
 50
0.0
 51
90.0
  0
LINE
  8
型材断面
  6
CONTINUOUS
 62
    47
 10
0.834392
 20
-78.32028
 11
0.834392
 21
-78.653612
  0
ARC
  8
型材断面
  6
CONTINUOUS
 62
    47
 10
0.667727
 20
-78.653613
 40
0.166667
 50
270.0
 51
360.0
  0
ARC
  8
型材断面
  6
CONTINUOUS
 62
    47
 10
0.667728
 20
-80.486946
 40
0.166667
 50
270.0
 51
360.0
  0
ARC
  8
型材断面
  6
CONTINUOUS
 62
    47
 10
0.667727
 20
-79.986946
 40
0.166667
 50
0.0
 51
90.0
  0
LINE
  8
型材断面
  6
CONTINUOUS
 62
    47
 10
0.834392
 20
-79.986945
 11
0.834392
 21
-80.486945
  0
LINE
  8
型材断面
  6
CONTINUOUS
 62
    47
 10
-1.932275
 20
-79.82028
 11
0.667725
 21
-79.82028
  0
LINE
  8
型材断面
  6
CONTINUOUS
 62
    47
 10
0.667725
 20
-78.82028
 11
-1.59894
 21
-78.82028
  0
LINE
  8
型材断面
  6
CONTINUOUS
 62
    47
 10
-1.59894
 20
-78.82028
 11
-1.59894
 21
-79.053612
  0
LINE
  8
型材断面
  6
CONTINUOUS
 62
    47
 10
-1.932275
 20
-79.053612
 11
-1.59894
 21
-79.053612
  0
LINE
  8
型材断面
  6
CONTINUOUS
 62
    47
 10
-1.932275
 20
-79.82028
 11
-1.932275
 21
-79.053612
  0
LINE
  8
型材断面
  6
CONTINUOUS
 62
    47
 10
-8.032275
 20
-79.053612
 11
-8.365607
 21
-79.053612
  0
LINE
  8
型材断面
  6
CONTINUOUS
 62
    47
 10
-8.365607
 20
-79.82028
 11
-8.365607
 21
-79.053612
  0
LINE
  8
型材断面
  6
CONTINUOUS
 62
    47
 10
-8.032275
 20
-79.053612
 11
-8.032275
 21
-78.82028
  0
LINE
  8
型材断面
  6
CONTINUOUS
 62
    47
 10
-7.532275
 20
-78.82028
 11
-8.032275
 21
-78.82028
  0
LINE
  8
型材断面
  6
CONTINUOUS
 62
    47
 10
-0.332275
 20
-78.253612
 11
-0.232275
 21
-78.153612
  0
LINE
  8
型材断面
  6
CONTINUOUS
 62
    47
 10
-0.332275
 20
-78.253612
 11
-0.432275
 21
-78.153612
  0
LINE
  8
型材断面
  6
CONTINUOUS
 62
    47
 10
-2.765607
 20
-78.153612
 11
-0.432275
 21
-78.153612
  0
LINE
  8
型材断面
  6
CONTINUOUS
 62
    47
 10
0.667725
 20
-78.153612
 11
-0.232275
 21
-78.153612
  0
LINE
  8
型材断面
  6
CONTINUOUS
 62
    47
 10
-1.332275
 20
-80.653612
 11
0.667728
 21
-80.653612
  0
ARC
  8
型材断面
  6
CONTINUOUS
 62
    47
 10
-1.332274
 20
-81.320279
 40
0.666667
 50
90.0
 51
180.0
  0
LINE
  8
型材断面
  6
CONTINUOUS
 62
    47
 10
-9.032275
 20
-80.486945
 11
-7.532275
 21
-80.486945
  0
ARC
  8
型材断面
  6
CONTINUOUS
 62
    47
 10
-7.532274
 20
-81.153613
 40
0.666667
 50
0.0
 51
90.0
  0
LINE
  8
型材断面
  6
CONTINUOUS
 62
    47
 10
-2.66544
 20
-83.98695
 11
-2.66544
 21
-84.08695
  0
LINE
  8
型材断面
  6
CONTINUOUS
 62
    47
 10
-6.19894
 20
-83.98695
 11
-6.19894
 21
-84.08695
  0
LINE
  8
型材断面
  6
CONTINUOUS
 62
    47
 10
-2.66544
 20
-83.98695
 11
-6.19894
 21
-83.98695
  0
LINE
  8
型材断面
  6
CONTINUOUS
 62
    47
 10
-6.465607
 20
-83.98695
 11
-6.465607
 21
-84.08695
  0
LINE
  8
型材断面
  6
CONTINUOUS
 62
    47
 10
-6.19894
 20
-84.08695
 11
-6.465607
 21
-84.08695
  0
LINE
  8
型材断面
  6
CONTINUOUS
 62
    47
 10
-2.398772
 20
-83.98695
 11
-2.398772
 21
-84.08695
  0
LINE
  8
型材断面
  6
CONTINUOUS
 62
    47
 10
-2.66544
 20
-84.08695
 11
-2.398772
 21
-84.08695
  0
LINE
  8
型材断面
  6
CONTINUOUS
 62
    47
 10
-2.398772
 20
-83.98695
 11
-1.99894
 21
-83.98695
  0
LINE
  8
型材断面
  6
CONTINUOUS
 62
    47
 10
-6.465607
 20
-83.98695
 11
-6.865607
 21
-83.98695
  0
ARC
  8
型材断面
  6
CONTINUOUS
 62
    47
 10
-2.932272
 20
-83.053616
 40
0.166667
 50
270.0
 51
360.0
  0
ARC
  8
型材断面
  6
CONTINUOUS
 62
    47
 10
-5.932272
 20
-83.053616
 40
0.166667
 50
180.0
 51
270.0
  0
LINE
  8
型材断面
  6
CONTINUOUS
 62
    47
 10
-4.432275
 20
-83.320283
 11
-4.332275
 21
-83.220283
  0
LINE
  8
型材断面
  6
CONTINUOUS
 62
    47
 10
-4.432275
 20
-83.320283
 11
-4.532275
 21
-83.220283
  0
LINE
  8
型材断面
  6
CONTINUOUS
 62
    47
 10
-4.332275
 20
-83.220283
 11
-2.932275
 21
-83.220283
  0
LINE
  8
型材断面
  6
CONTINUOUS
 62
    47
 10
-5.932275
 20
-83.220283
 11
-4.532275
 21
-83.220283
  0
LINE
  8
型材断面
  6
CONTINUOUS
 62
    47
 10
-6.865607
 20
-81.153612
 11
-6.865607
 21
-83.98695
  0
LINE
  8
型材断面
  6
CONTINUOUS
 62
    47
 10
-1.99894
 20
-81.32028
 11
-1.99894
 21
-83.98695
  0
LINE
  8
型材断面
  6
CONTINUOUS
 62
    47
 10
-6.09894
 20
-79.82028
 11
-6.09894
 21
-83.053618
  0
LINE
  8
型材断面
  6
CONTINUOUS
 62
    47
 10
-2.765607
 20
-78.153612
 11
-2.765607
 21
-83.053618
  0
LINE
  8
型材断面
  6
DOT
 10
-4.432275
 20
-83.98695
 11
-4.432275
 21
-83.220283
  0
ENDBLK
  0
BLOCK
  2
*GRP_0100
 70
    65
 10
0.0
 20
0.0
  0
LINE
  8
ゴム等
  6
CONTINUOUS
 10
4.734445
 20
-87.420283
 11
4.734445
 21
-90.08695
  0
LINE
  8
ゴム等
  6
CONTINUOUS
 10
4.734445
 20
-87.420283
 11
2.567778
 21
-87.420283
  0
LINE
  8
ゴム等
  6
CONTINUOUS
 10
4.734445
 20
-90.08695
 11
2.901113
 21
-90.08695
  0
LINE
  8
ゴム等
  6
CONTINUOUS
 10
2.567778
 20
-89.753618
 11
2.567778
 21
-87.420283
  0
LINE
  8
ゴム等
  6
CONTINUOUS
 10
2.901113
 20
-90.08695
 11
2.567778
 21
-89.753618
  0
INSERT
  2
*HAT_0005
  8
ゴム等
 10
0.0
 20
0.0
  0
ENDBLK
  0
BLOCK
  2
*GRP_0101
 70
    65
 10
0.0
 20
0.0
  0
LINE
  8
ゴム等
  6
CONTINUOUS
 10
-13.59889
 20
-87.420283
 11
-13.59889
 21
-90.08695
  0
LINE
  8
ゴム等
  6
CONTINUOUS
 10
-13.59889
 20
-87.420283
 11
-11.432222
 21
-87.420283
  0
LINE
  8
ゴム等
  6
CONTINUOUS
 10
-13.59889
 20
-90.08695
 11
-11.765557
 21
-90.08695
  0
LINE
  8
ゴム等
  6
CONTINUOUS
 10
-11.432222
 20
-89.753618
 11
-11.432222
 21
-87.420283
  0
LINE
  8
ゴム等
  6
CONTINUOUS
 10
-11.765557
 20
-90.08695
 11
-11.432222
 21
-89.753618
  0
INSERT
  2
*HAT_0006
  8
ゴム等
 10
0.0
 20
0.0
  0
ENDBLK
  0
BLOCK
  2
*GRP_0102
 70
    65
 10
0.0
 20
0.0
  0
INSERT
  2
*GRP_0107
  8
補助線
  6
CONTINUOUS
 62
    64
 10
0.0
 20
0.0
  0
CIRCLE
  8
ボルト／ビス
  6
CONTINUOUS
 62
    64
 10
-18.432222
 20
-92.08695
 40
1.166668
  0
LINE
  8
ボルト／ビス
  6
CONTINUOUS
 62
    64
 10
-18.245555
 20
-91.713617
 11
-18.245555
 21
-91.447845
  0
LINE
  8
ボルト／ビス
  6
CONTINUOUS
 62
    64
 10
-18.05889
 20
-91.900282
 11
-17.793117
 21
-91.900282
  0
ARC
  8
ボルト／ビス
  6
CONTINUOUS
 62
    64
 10
-18.058891
 20
-91.713616
 40
0.186667
 50
180.0
 51
270.0
  0
LINE
  8
ボルト／ビス
  6
CONTINUOUS
 62
    64
 10
-17.793117
 20
-91.900282
 11
-17.793117
 21
-92.08695
  0
LINE
  8
ボルト／ビス
  6
CONTINUOUS
 62
    64
 10
-18.245555
 20
-91.447845
 11
-18.432222
 21
-91.447845
  0
LINE
  8
ボルト／ビス
  6
CONTINUOUS
 62
    64
 10
-18.245555
 20
-92.460282
 11
-18.245555
 21
-92.726055
  0
LINE
  8
ボルト／ビス
  6
CONTINUOUS
 62
    64
 10
-18.05889
 20
-92.273618
 11
-17.793117
 21
-92.273618
  0
ARC
  8
ボルト／ビス
  6
CONTINUOUS
 62
    64
 10
-18.058891
 20
-92.460282
 40
0.186667
 50
90.0
 51
180.0
  0
LINE
  8
ボルト／ビス
  6
CONTINUOUS
 62
    64
 10
-17.793117
 20
-92.273618
 11
-17.793117
 21
-92.08695
  0
LINE
  8
ボルト／ビス
  6
CONTINUOUS
 62
    64
 10
-18.245555
 20
-92.726055
 11
-18.432222
 21
-92.726055
  0
LINE
  8
ボルト／ビス
  6
CONTINUOUS
 62
    64
 10
-18.61889
 20
-92.460282
 11
-18.61889
 21
-92.726055
  0
LINE
  8
ボルト／ビス
  6
CONTINUOUS
 62
    64
 10
-18.805555
 20
-92.273618
 11
-19.071328
 21
-92.273618
  0
ARC
  8
ボルト／ビス
  6
CONTINUOUS
 62
    64
 10
-18.805558
 20
-92.460282
 40
0.186667
 50
0.0
 51
90.0
  0
LINE
  8
ボルト／ビス
  6
CONTINUOUS
 62
    64
 10
-19.071328
 20
-92.273618
 11
-19.071328
 21
-92.08695
  0
LINE
  8
ボルト／ビス
  6
CONTINUOUS
 62
    64
 10
-18.61889
 20
-92.726055
 11
-18.432222
 21
-92.726055
  0
LINE
  8
ボルト／ビス
  6
CONTINUOUS
 62
    64
 10
-18.61889
 20
-91.713617
 11
-18.61889
 21
-91.447845
  0
LINE
  8
ボルト／ビス
  6
CONTINUOUS
 62
    64
 10
-18.805555
 20
-91.900282
 11
-19.071328
 21
-91.900282
  0
ARC
  8
ボルト／ビス
  6
CONTINUOUS
 62
    64
 10
-18.805558
 20
-91.713616
 40
0.186667
 50
270.0
 51
360.0
  0
LINE
  8
ボルト／ビス
  6
CONTINUOUS
 62
    64
 10
-19.071328
 20
-91.900282
 11
-19.071328
 21
-92.08695
  0
LINE
  8
ボルト／ビス
  6
CONTINUOUS
 62
    64
 10
-18.61889
 20
-91.447845
 11
-18.432222
 21
-91.447845
  0
ENDBLK
  0
BLOCK
  2
*GRP_0103
 70
    65
 10
0.0
 20
0.0
  0
INSERT
  2
*GRP_0108
  8
補助線
  6
CONTINUOUS
 62
    64
 10
0.0
 20
0.0
  0
CIRCLE
  8
ボルト／ビス
  6
CONTINUOUS
 62
    64
 10
9.567778
 20
-92.08695
 40
1.166668
  0
LINE
  8
ボルト／ビス
  6
CONTINUOUS
 62
    64
 10
9.38111
 20
-91.713617
 11
9.38111
 21
-91.447845
  0
LINE
  8
ボルト／ビス
  6
CONTINUOUS
 62
    64
 10
9.194445
 20
-91.900282
 11
8.928672
 21
-91.900282
  0
ARC
  8
ボルト／ビス
  6
CONTINUOUS
 62
    64
 10
9.194443
 20
-91.713616
 40
0.186667
 50
270.0
 51
360.0
  0
LINE
  8
ボルト／ビス
  6
CONTINUOUS
 62
    64
 10
8.928672
 20
-91.900282
 11
8.928672
 21
-92.08695
  0
LINE
  8
ボルト／ビス
  6
CONTINUOUS
 62
    64
 10
9.38111
 20
-91.447845
 11
9.567778
 21
-91.447845
  0
LINE
  8
ボルト／ビス
  6
CONTINUOUS
 62
    64
 10
9.38111
 20
-92.460282
 11
9.38111
 21
-92.726055
  0
LINE
  8
ボルト／ビス
  6
CONTINUOUS
 62
    64
 10
9.194445
 20
-92.273618
 11
8.928672
 21
-92.273618
  0
ARC
  8
ボルト／ビス
  6
CONTINUOUS
 62
    64
 10
9.194443
 20
-92.460282
 40
0.186667
 50
0.0
 51
90.0
  0
LINE
  8
ボルト／ビス
  6
CONTINUOUS
 62
    64
 10
8.928672
 20
-92.273618
 11
8.928672
 21
-92.08695
  0
LINE
  8
ボルト／ビス
  6
CONTINUOUS
 62
    64
 10
9.38111
 20
-92.726055
 11
9.567778
 21
-92.726055
  0
LINE
  8
ボルト／ビス
  6
CONTINUOUS
 62
    64
 10
9.754445
 20
-92.460282
 11
9.754445
 21
-92.726055
  0
LINE
  8
ボルト／ビス
  6
CONTINUOUS
 62
    64
 10
9.94111
 20
-92.273618
 11
10.206883
 21
-92.273618
  0
ARC
  8
ボルト／ビス
  6
CONTINUOUS
 62
    64
 10
9.941109
 20
-92.460282
 40
0.186667
 50
90.0
 51
180.0
  0
LINE
  8
ボルト／ビス
  6
CONTINUOUS
 62
    64
 10
10.206883
 20
-92.273618
 11
10.206883
 21
-92.08695
  0
LINE
  8
ボルト／ビス
  6
CONTINUOUS
 62
    64
 10
9.754445
 20
-92.726055
 11
9.567778
 21
-92.726055
  0
LINE
  8
ボルト／ビス
  6
CONTINUOUS
 62
    64
 10
9.754445
 20
-91.713617
 11
9.754445
 21
-91.447845
  0
LINE
  8
ボルト／ビス
  6
CONTINUOUS
 62
    64
 10
9.94111
 20
-91.900282
 11
10.206883
 21
-91.900282
  0
ARC
  8
ボルト／ビス
  6
CONTINUOUS
 62
    64
 10
9.941109
 20
-91.713616
 40
0.186667
 50
180.0
 51
270.0
  0
LINE
  8
ボルト／ビス
  6
CONTINUOUS
 62
    64
 10
10.206883
 20
-91.900282
 11
10.206883
 21
-92.08695
  0
LINE
  8
ボルト／ビス
  6
CONTINUOUS
 62
    64
 10
9.754445
 20
-91.447845
 11
9.567778
 21
-91.447845
  0
ENDBLK
  0
BLOCK
  2
*GRP_0104
 70
    65
 10
0.0
 20
0.0
  0
INSERT
  2
*GRP_0109
  8
補助線
  6
CONTINUOUS
 62
    64
 10
0.0
 20
0.0
  0
CIRCLE
  8
ボルト／ビス
  6
CONTINUOUS
 62
    64
 10
-12.832225
 20
-92.08695
 40
1.166668
  0
LINE
  8
ボルト／ビス
  6
CONTINUOUS
 62
    64
 10
-12.645557
 20
-91.713617
 11
-12.645557
 21
-91.447845
  0
LINE
  8
ボルト／ビス
  6
CONTINUOUS
 62
    64
 10
-12.458893
 20
-91.900282
 11
-12.19312
 21
-91.900282
  0
ARC
  8
ボルト／ビス
  6
CONTINUOUS
 62
    64
 10
-12.458893
 20
-91.713616
 40
0.186667
 50
180.0
 51
270.0
  0
LINE
  8
ボルト／ビス
  6
CONTINUOUS
 62
    64
 10
-12.19312
 20
-91.900282
 11
-12.19312
 21
-92.08695
  0
LINE
  8
ボルト／ビス
  6
CONTINUOUS
 62
    64
 10
-12.645557
 20
-91.447845
 11
-12.832225
 21
-91.447845
  0
LINE
  8
ボルト／ビス
  6
CONTINUOUS
 62
    64
 10
-12.645557
 20
-92.460282
 11
-12.645557
 21
-92.726055
  0
LINE
  8
ボルト／ビス
  6
CONTINUOUS
 62
    64
 10
-12.458893
 20
-92.273618
 11
-12.19312
 21
-92.273618
  0
ARC
  8
ボルト／ビス
  6
CONTINUOUS
 62
    64
 10
-12.458893
 20
-92.460282
 40
0.186667
 50
90.0
 51
180.0
  0
LINE
  8
ボルト／ビス
  6
CONTINUOUS
 62
    64
 10
-12.19312
 20
-92.273618
 11
-12.19312
 21
-92.08695
  0
LINE
  8
ボルト／ビス
  6
CONTINUOUS
 62
    64
 10
-12.645557
 20
-92.726055
 11
-12.832225
 21
-92.726055
  0
LINE
  8
ボルト／ビス
  6
CONTINUOUS
 62
    64
 10
-13.018893
 20
-92.460282
 11
-13.018893
 21
-92.726055
  0
LINE
  8
ボルト／ビス
  6
CONTINUOUS
 62
    64
 10
-13.205558
 20
-92.273618
 11
-13.47133
 21
-92.273618
  0
ARC
  8
ボルト／ビス
  6
CONTINUOUS
 62
    64
 10
-13.20556
 20
-92.460282
 40
0.186667
 50
0.0
 51
90.0
  0
LINE
  8
ボルト／ビス
  6
CONTINUOUS
 62
    64
 10
-13.47133
 20
-92.273618
 11
-13.47133
 21
-92.08695
  0
LINE
  8
ボルト／ビス
  6
CONTINUOUS
 62
    64
 10
-13.018893
 20
-92.726055
 11
-12.832225
 21
-92.726055
  0
LINE
  8
ボルト／ビス
  6
CONTINUOUS
 62
    64
 10
-13.018893
 20
-91.713617
 11
-13.018893
 21
-91.447845
  0
LINE
  8
ボルト／ビス
  6
CONTINUOUS
 62
    64
 10
-13.205558
 20
-91.900282
 11
-13.47133
 21
-91.900282
  0
ARC
  8
ボルト／ビス
  6
CONTINUOUS
 62
    64
 10
-13.20556
 20
-91.713616
 40
0.186667
 50
270.0
 51
360.0
  0
LINE
  8
ボルト／ビス
  6
CONTINUOUS
 62
    64
 10
-13.47133
 20
-91.900282
 11
-13.47133
 21
-92.08695
  0
LINE
  8
ボルト／ビス
  6
CONTINUOUS
 62
    64
 10
-13.018893
 20
-91.447845
 11
-12.832225
 21
-91.447845
  0
ENDBLK
  0
BLOCK
  2
*GRP_0105
 70
    65
 10
0.0
 20
0.0
  0
INSERT
  2
*GRP_0110
  8
補助線
  6
CONTINUOUS
 62
    64
 10
0.0
 20
0.0
  0
CIRCLE
  8
ボルト／ビス
  6
CONTINUOUS
 62
    64
 10
3.96778
 20
-92.08695
 40
1.166668
  0
LINE
  8
ボルト／ビス
  6
CONTINUOUS
 62
    64
 10
4.154448
 20
-91.713617
 11
4.154448
 21
-91.447845
  0
LINE
  8
ボルト／ビス
  6
CONTINUOUS
 62
    64
 10
4.341113
 20
-91.900282
 11
4.606885
 21
-91.900282
  0
ARC
  8
ボルト／ビス
  6
CONTINUOUS
 62
    64
 10
4.341112
 20
-91.713616
 40
0.186667
 50
180.0
 51
270.0
  0
LINE
  8
ボルト／ビス
  6
CONTINUOUS
 62
    64
 10
4.606885
 20
-91.900282
 11
4.606885
 21
-92.08695
  0
LINE
  8
ボルト／ビス
  6
CONTINUOUS
 62
    64
 10
4.154448
 20
-91.447845
 11
3.96778
 21
-91.447845
  0
LINE
  8
ボルト／ビス
  6
CONTINUOUS
 62
    64
 10
4.154448
 20
-92.460282
 11
4.154448
 21
-92.726055
  0
LINE
  8
ボルト／ビス
  6
CONTINUOUS
 62
    64
 10
4.341113
 20
-92.273618
 11
4.606885
 21
-92.273618
  0
ARC
  8
ボルト／ビス
  6
CONTINUOUS
 62
    64
 10
4.341112
 20
-92.460282
 40
0.186667
 50
90.0
 51
180.0
  0
LINE
  8
ボルト／ビス
  6
CONTINUOUS
 62
    64
 10
4.606885
 20
-92.273618
 11
4.606885
 21
-92.08695
  0
LINE
  8
ボルト／ビス
  6
CONTINUOUS
 62
    64
 10
4.154448
 20
-92.726055
 11
3.96778
 21
-92.726055
  0
LINE
  8
ボルト／ビス
  6
CONTINUOUS
 62
    64
 10
3.781113
 20
-92.460282
 11
3.781113
 21
-92.726055
  0
LINE
  8
ボルト／ビス
  6
CONTINUOUS
 62
    64
 10
3.594448
 20
-92.273618
 11
3.328675
 21
-92.273618
  0
ARC
  8
ボルト／ビス
  6
CONTINUOUS
 62
    64
 10
3.594445
 20
-92.460282
 40
0.186667
 50
0.0
 51
90.0
  0
LINE
  8
ボルト／ビス
  6
CONTINUOUS
 62
    64
 10
3.328675
 20
-92.273618
 11
3.328675
 21
-92.08695
  0
LINE
  8
ボルト／ビス
  6
CONTINUOUS
 62
    64
 10
3.781113
 20
-92.726055
 11
3.96778
 21
-92.726055
  0
LINE
  8
ボルト／ビス
  6
CONTINUOUS
 62
    64
 10
3.781113
 20
-91.713617
 11
3.781113
 21
-91.447845
  0
LINE
  8
ボルト／ビス
  6
CONTINUOUS
 62
    64
 10
3.594448
 20
-91.900282
 11
3.328675
 21
-91.900282
  0
ARC
  8
ボルト／ビス
  6
CONTINUOUS
 62
    64
 10
3.594445
 20
-91.713616
 40
0.186667
 50
270.0
 51
360.0
  0
LINE
  8
ボルト／ビス
  6
CONTINUOUS
 62
    64
 10
3.328675
 20
-91.900282
 11
3.328675
 21
-92.08695
  0
LINE
  8
ボルト／ビス
  6
CONTINUOUS
 62
    64
 10
3.781113
 20
-91.447845
 11
3.96778
 21
-91.447845
  0
ENDBLK
  0
BLOCK
  2
*GRP_0106
 70
    65
 10
0.0
 20
0.0
  0
LINE
  8
ボルト／ビス
  6
CONTINUOUS
 62
    64
 10
-3.265555
 20
-83.220283
 11
-3.296123
 21
-82.8709
  0
ARC
  8
ボルト／ビス
  6
CONTINUOUS
 62
    64
 10
-3.860632
 20
-82.920282
 40
0.566667
 50
4.999989
 51
90.0
  0
LINE
  8
ボルト／ビス
  6
CONTINUOUS
 62
    64
 10
-3.86064
 20
-82.353615
 11
-4.432222
 21
-82.353615
  0
LINE
  8
ボルト／ビス
  6
CONTINUOUS
 62
    64
 10
-5.59889
 20
-83.220283
 11
-5.568322
 21
-82.8709
  0
ARC
  8
ボルト／ビス
  6
CONTINUOUS
 62
    64
 10
-5.00381
 20
-82.920282
 40
0.566667
 50
90.0
 51
175.000011
  0
LINE
  8
ボルト／ビス
  6
CONTINUOUS
 62
    64
 10
-5.003805
 20
-82.353615
 11
-4.432222
 21
-82.353615
  0
LINE
  8
ボルト／ビス
  6
CONTINUOUS
 62
    64
 10
-3.63334
 20
-82.481915
 11
-3.63334
 21
-82.4012
  0
LINE
  8
ボルト／ビス
  6
CONTINUOUS
 62
    64
 10
-4.19889
 20
-82.698615
 11
-4.432222
 21
-82.698615
  0
LINE
  8
ボルト／ビス
  6
CONTINUOUS
 62
    64
 10
-4.065555
 20
-82.481915
 11
-3.63334
 21
-82.481915
  0
LINE
  8
ボルト／ビス
  6
CONTINUOUS
 62
    64
 10
-4.19889
 20
-82.698615
 11
-4.19889
 21
-82.61525
  0
ARC
  8
ボルト／ビス
  6
CONTINUOUS
 62
    64
 10
-4.065555
 20
-82.61525
 40
0.133333
 50
90.0
 51
180.0
  0
LINE
  8
ボルト／ビス
  6
CONTINUOUS
 62
    64
 10
-5.231105
 20
-82.481915
 11
-5.231105
 21
-82.4012
  0
LINE
  8
ボルト／ビス
  6
CONTINUOUS
 62
    64
 10
-4.665555
 20
-82.698615
 11
-4.432222
 21
-82.698615
  0
LINE
  8
ボルト／ビス
  6
CONTINUOUS
 62
    64
 10
-4.79889
 20
-82.481915
 11
-5.231105
 21
-82.481915
  0
LINE
  8
ボルト／ビス
  6
CONTINUOUS
 62
    64
 10
-4.665555
 20
-82.698615
 11
-4.665555
 21
-82.61525
  0
ARC
  8
ボルト／ビス
  6
CONTINUOUS
 62
    64
 10
-4.798888
 20
-82.61525
 40
0.133333
 50
0.0
 51
90.0
  0
LINE
  8
ボルト／ビス
  6
CONTINUOUS
 62
    64
 10
-3.265555
 20
-83.220283
 11
-5.59889
 21
-83.220283
  0
LINE
  8
ボルト／ビス
  6
CONTINUOUS
 62
    64
 10
-3.765555
 20
-86.38695
 11
-3.932222
 21
-86.553615
  0
LINE
  8
ボルト／ビス
  6
CONTINUOUS
 62
    64
 10
-5.09889
 20
-86.38695
 11
-4.932222
 21
-86.553615
  0
LINE
  8
ボルト／ビス
  6
CONTINUOUS
 62
    64
 10
-3.765555
 20
-86.38695
 11
-5.09889
 21
-86.38695
  0
LINE
  8
ボルト／ビス
  6
CONTINUOUS
 62
    64
 10
-3.932222
 20
-86.553615
 11
-4.932222
 21
-86.553615
  0
LINE
  8
ボルト／ビス
  6
CONTINUOUS
 62
    64
 10
-4.432222
 20
-81.696483
 11
-4.432222
 21
-87.078565
  0
LINE
  8
ボルト／ビス
  6
CONTINUOUS
 62
    64
 10
-3.765555
 20
-83.220283
 11
-3.765555
 21
-86.38695
  0
LINE
  8
ボルト／ビス
  6
CONTINUOUS
 62
    64
 10
-5.09889
 20
-83.220283
 11
-5.09889
 21
-86.38695
  0
LINE
  8
ボルト／ビス
  6
CONTINUOUS
 62
    64
 10
-4.932222
 20
-83.220283
 11
-4.932222
 21
-86.553615
  0
LINE
  8
ボルト／ビス
  6
CONTINUOUS
 62
    64
 10
-3.932222
 20
-83.220283
 11
-3.932222
 21
-86.553615
  0
ENDBLK
  0
BLOCK
  2
*GRP_0107
 70
    65
 10
0.0
 20
0.0
  0
LINE
  8
補助線
  6
BYBLOCK
 62
    64
 10
-16.69889
 20
-92.08695
 11
-20.165555
 21
-92.08695
  0
LINE
  8
補助線
  6
BYBLOCK
 62
    64
 10
-18.432222
 20
-90.353618
 11
-18.432222
 21
-93.820283
  0
ENDBLK
  0
BLOCK
  2
*GRP_0108
 70
    65
 10
0.0
 20
0.0
  0
LINE
  8
補助線
  6
BYBLOCK
 62
    64
 10
7.834445
 20
-92.08695
 11
11.30111
 21
-92.08695
  0
LINE
  8
補助線
  6
BYBLOCK
 62
    64
 10
9.567778
 20
-90.353618
 11
9.567778
 21
-93.820283
  0
ENDBLK
  0
BLOCK
  2
*GRP_0109
 70
    65
 10
0.0
 20
0.0
  0
LINE
  8
補助線
  6
BYBLOCK
 62
    64
 10
-11.098892
 20
-92.08695
 11
-14.565557
 21
-92.08695
  0
LINE
  8
補助線
  6
BYBLOCK
 62
    64
 10
-12.832225
 20
-90.353618
 11
-12.832225
 21
-93.820283
  0
ENDBLK
  0
BLOCK
  2
*GRP_0110
 70
    65
 10
0.0
 20
0.0
  0
LINE
  8
補助線
  6
BYBLOCK
 62
    64
 10
5.701113
 20
-92.08695
 11
2.234447
 21
-92.08695
  0
LINE
  8
補助線
  6
BYBLOCK
 62
    64
 10
3.96778
 20
-90.353618
 11
3.96778
 21
-93.820283
  0
ENDBLK
  0
BLOCK
  2
*DIM_0111
 70
    65
 10
0.0
 20
0.0
  0
LINE
  8
寸法
  6
CONTINUOUS
 10
8.067778
 20
-100.753618
 11
8.067778
 21
-103.807275
  0
LINE
  8
寸法
  6
CONTINUOUS
 10
-16.932222
 20
-100.753618
 11
-16.932222
 21
-103.807275
  0
LINE
  8
寸法
  6
CONTINUOUS
 10
8.067778
 20
-103.807275
 11
-16.932222
 21
-103.807275
  0
POINT
  8
寸法
 10
8.067778
 20
-103.807275
  0
POINT
  8
寸法
 10
-16.932222
 20
-103.807275
  0
TEXT
  7
TextStyle03
  8
寸法
  6
CONTINUOUS
 10
-6.01875
 20
-103.45
  1
75
 40
3.0
 72
     5
 11
-2.83125
 21
-103.45
  0
ENDBLK
  0
BLOCK
  2
*GRP_0112
 70
    65
 10
0.0
 20
0.0
  0
POLYLINE
  8
寸法
  6
CONTINUOUS
 66
     1
  0
VERTEX
  8
寸法
 10
11.256322
 20
-92.570813
  0
VERTEX
  8
寸法
 10
13.72537
 20
-101.02418
  0
VERTEX
  8
寸法
 10
16.29023
 20
-101.02418
  0
SEQEND
  0
ENDBLK
  0
BLOCK
  2
*GRP_0113
 70
    65
 10
0.0
 20
0.0
  0
LINE
  8
型材断面
  6
CONTINUOUS
 62
    47
 10
129.095578
 20
5.905665
 11
129.095578
 21
16.22953
  0
LINE
  8
型材断面
  6
CONTINUOUS
 62
    47
 10
167.762313
 20
9.675835
 11
129.095578
 21
16.22953
  0
LINE
  8
型材断面
  6
CONTINUOUS
 62
    47
 10
167.762313
 20
9.675835
 11
167.762313
 21
5.905665
  0
LINE
  8
型材断面
  6
CONTINUOUS
 62
    47
 10
163.42894
 20
5.23904
 11
168.428858
 21
5.23904
  0
LINE
  8
型材断面
  6
CONTINUOUS
 62
    47
 10
134.962207
 20
5.905665
 11
129.095578
 21
5.905665
  0
LINE
  8
型材断面
  6
CONTINUOUS
 62
    47
 10
134.962207
 20
5.23904
 11
128.42892
 21
5.23904
  0
LINE
  8
型材断面
  6
CONTINUOUS
 62
    47
 10
135.095598
 20
5.37237
 11
135.095598
 21
5.772393
  0
LINE
  8
型材断面
  6
CONTINUOUS
 62
    47
 10
160.228875
 20
5.905665
 11
167.762313
 21
5.905665
  0
LINE
  8
型材断面
  6
CONTINUOUS
 62
    47
 10
160.228875
 20
5.23904
 11
162.762225
 21
5.23904
  0
LINE
  8
型材断面
  6
CONTINUOUS
 62
    47
 10
160.095602
 20
5.37237
 11
160.095602
 21
5.772393
  0
LINE
  8
型材断面
  6
CONTINUOUS
 62
    47
 10
168.428858
 20
5.23904
 11
168.428858
 21
10.239018
  0
LINE
  8
型材断面
  6
CONTINUOUS
 62
    47
 10
168.428858
 20
10.239018
 11
139.095543
 21
15.210822
  0
LINE
  8
型材断面
  6
CONTINUOUS
 62
    47
 10
138.428935
 20
15.323822
 11
129.095578
 21
16.905697
  0
LINE
  8
型材断面
  6
CONTINUOUS
 62
    47
 10
138.428935
 20
17.905675
 11
136.929
 21
17.905675
  0
LINE
  8
型材断面
  6
CONTINUOUS
 62
    47
 10
136.929
 20
19.572345
 11
137.328935
 21
19.572345
  0
LINE
  8
型材断面
  6
CONTINUOUS
 62
    47
 10
137.328935
 20
19.572345
 11
137.328935
 21
18.572355
  0
LINE
  8
型材断面
  6
CONTINUOUS
 62
    47
 10
137.328935
 20
18.572355
 11
138.428935
 21
18.572355
  0
LINE
  8
型材断面
  6
CONTINUOUS
 62
    47
 10
138.428935
 20
17.905675
 11
138.428935
 21
15.323822
  0
LINE
  8
型材断面
  6
CONTINUOUS
 62
    47
 10
136.929
 20
19.572345
 11
136.929
 21
17.905675
  0
ARC
  8
型材断面
  6
CONTINUOUS
 62
    47
 10
134.962209
 20
5.772391
 40
0.133333
 50
359.997253
 51
449.998627
  0
ARC
  8
型材断面
  6
CONTINUOUS
 62
    47
 10
134.962209
 20
5.372368
 40
0.133333
 50
269.99588
 51
359.997253
  0
ARC
  8
型材断面
  6
CONTINUOUS
 62
    47
 10
160.228876
 20
5.772391
 40
0.133333
 50
89.998627
 51
180.0
  0
ARC
  8
型材断面
  6
CONTINUOUS
 62
    47
 10
160.228876
 20
5.372368
 40
0.133333
 50
180.0
 51
269.99588
  0
LINE
  8
型材断面
  6
CONTINUOUS
 62
    47
 10
137.328935
 20
32.57227
 11
136.929
 21
32.57227
  0
LINE
  8
型材断面
  6
CONTINUOUS
 62
    47
 10
137.328935
 20
31.90559
 11
138.428935
 21
31.90559
  0
LINE
  8
型材断面
  6
CONTINUOUS
 62
    47
 10
136.929
 20
32.57227
 11
139.095543
 21
32.57227
  0
LINE
  8
型材断面
  6
CONTINUOUS
 62
    47
 10
139.095543
 20
31.905717
 11
139.095543
 21
32.57227
  0
LINE
  8
型材断面
  6
CONTINUOUS
 62
    47
 10
138.428935
 20
31.905717
 11
137.328935
 21
31.905717
  0
LINE
  8
型材断面
  6
CONTINUOUS
 62
    47
 10
138.428935
 20
24.905677
 11
130.762275
 21
24.905677
  0
LINE
  8
型材断面
  6
CONTINUOUS
 62
    47
 10
130.762275
 20
24.905677
 11
130.762275
 21
26.238995
  0
LINE
  8
型材断面
  6
CONTINUOUS
 62
    47
 10
130.762275
 20
26.238995
 11
131.16221
 21
26.238995
  0
LINE
  8
型材断面
  6
CONTINUOUS
 62
    47
 10
131.16221
 20
25.572375
 11
131.16221
 21
26.238995
  0
LINE
  8
型材断面
  6
CONTINUOUS
 62
    47
 10
136.09571
 20
26.838975
 11
134.76234
 21
26.838975
  0
LINE
  8
型材断面
  6
CONTINUOUS
 62
    47
 10
134.76234
 20
26.838975
 11
134.76234
 21
25.572305
  0
LINE
  8
型材断面
  6
CONTINUOUS
 62
    47
 10
135.262303
 20
25.572305
 11
135.262303
 21
26.338975
  0
LINE
  8
型材断面
  6
CONTINUOUS
 62
    47
 10
135.262303
 20
26.338975
 11
136.09571
 21
26.338975
  0
LINE
  8
型材断面
  6
CONTINUOUS
 62
    47
 10
136.09571
 20
26.338975
 11
136.09571
 21
26.838975
  0
LINE
  8
型材断面
  6
CONTINUOUS
 62
    47
 10
131.16221
 20
25.572375
 11
134.76234
 21
25.572375
  0
LINE
  8
型材断面
  6
CONTINUOUS
 62
    47
 10
135.262303
 20
25.572305
 11
138.428935
 21
25.572305
  0
LINE
  8
型材断面
  6
CONTINUOUS
 62
    47
 10
138.428935
 20
18.572355
 11
138.428935
 21
24.905677
  0
LINE
  8
型材断面
  6
CONTINUOUS
 62
    47
 10
138.428935
 20
31.905717
 11
138.428935
 21
25.572305
  0
LINE
  8
型材断面
  6
CONTINUOUS
 10
136.929
 20
30.905605
 11
137.328935
 21
30.905605
  0
LINE
  8
型材断面
  6
CONTINUOUS
 62
    47
 10
137.328935
 20
31.90559
 11
137.328935
 21
30.905605
  0
LINE
  8
型材断面
  6
CONTINUOUS
 62
    47
 10
139.962242
 20
29.805682
 11
139.095543
 21
29.805682
  0
LINE
  8
型材断面
  6
CONTINUOUS
 62
    47
 10
139.962242
 20
29.405705
 11
139.095543
 21
29.405705
  0
LINE
  8
型材断面
  6
CONTINUOUS
 62
    47
 10
140.095515
 20
29.539038
 11
140.095515
 21
29.672367
  0
ARC
  8
型材断面
  6
CONTINUOUS
 62
    47
 10
139.962245
 20
29.672367
 40
0.133333
 50
359.997253
 51
449.998627
  0
ARC
  8
型材断面
  6
CONTINUOUS
 62
    47
 10
139.962245
 20
29.539035
 40
0.133333
 50
269.99588
 51
359.997253
  0
LINE
  8
型材断面
  6
CONTINUOUS
 62
    47
 10
148.961705
 20
29.405705
 11
150.495012
 21
29.405705
  0
LINE
  8
型材断面
  6
CONTINUOUS
 62
    47
 10
148.961705
 20
29.805682
 11
149.828428
 21
29.805682
  0
LINE
  8
型材断面
  6
CONTINUOUS
 62
    47
 10
148.828433
 20
29.672367
 11
148.828433
 21
29.539038
  0
ARC
  8
型材断面
  6
CONTINUOUS
 62
    47
 10
148.961707
 20
29.539035
 40
0.133333
 50
180.0
 51
269.99588
  0
ARC
  8
型材断面
  6
CONTINUOUS
 62
    47
 10
148.961707
 20
29.672367
 40
0.133333
 50
89.998627
 51
180.0
  0
LINE
  8
型材断面
  6
CONTINUOUS
 62
    47
 10
139.095543
 20
15.210822
 11
139.095543
 21
29.405705
  0
LINE
  8
型材断面
  6
CONTINUOUS
 10
139.095543
 20
30.905717
 11
149.828428
 21
30.905717
  0
LINE
  8
型材断面
  6
CONTINUOUS
 62
    47
 10
149.828428
 20
29.805682
 11
149.828428
 21
30.905717
  0
LINE
  8
型材断面
  6
CONTINUOUS
 62
    47
 10
139.095543
 20
29.805682
 11
139.095543
 21
30.905717
  0
LINE
  8
型材断面
  6
CONTINUOUS
 10
145.095077
 20
31.805717
 11
144.995077
 21
31.905717
  0
LINE
  8
型材断面
  6
CONTINUOUS
 62
    47
 10
139.095543
 20
31.905717
 11
144.995077
 21
31.905717
  0
LINE
  8
型材断面
  6
CONTINUOUS
 10
145.095077
 20
31.805717
 11
145.195077
 21
31.905717
  0
LINE
  8
型材断面
  6
CONTINUOUS
 62
    47
 10
145.195077
 20
31.905717
 11
150.495012
 21
31.905717
  0
LINE
  8
型材断面
  6
CONTINUOUS
 10
150.495012
 20
29.405705
 11
150.495012
 21
31.905717
  0
LINE
  8
型材断面
  6
CONTINUOUS
 62
    47
 10
162.762225
 20
5.23904
 11
162.762225
 21
0.23904
  0
LINE
  8
型材断面
  6
CONTINUOUS
 10
163.428953
 20
0.23904
 11
162.762225
 21
0.23904
  0
LINE
  8
型材断面
  6
CONTINUOUS
 10
163.328953
 20
2.73904
 11
163.428953
 21
2.83904
  0
LINE
  8
型材断面
  6
CONTINUOUS
 10
163.328953
 20
2.73904
 11
163.428953
 21
2.63904
  0
LINE
  8
型材断面
  6
CONTINUOUS
 62
    47
 10
163.42894
 20
5.23904
 11
163.42894
 21
2.839027
  0
LINE
  8
型材断面
  6
CONTINUOUS
 62
    47
 10
163.42894
 20
2.639053
 11
163.42894
 21
0.23904
  0
LINE
  8
型材断面
  6
CONTINUOUS
 10
129.095578
 20
19.905697
 11
128.42892
 21
19.905697
  0
LINE
  8
型材断面
  6
CONTINUOUS
 62
    47
 10
129.095578
 20
16.905697
 11
129.095578
 21
19.905697
  0
LINE
  8
型材断面
  6
CONTINUOUS
 62
    47
 10
128.42892
 20
5.23904
 11
128.42892
 21
19.905697
  0
LINE
  8
型材断面
  6
CONTINUOUS
 10
136.929
 20
32.57227
 11
136.929
 21
30.905605
  0
CIRCLE
  8
LAYER010
  6
CONTINUOUS
 62
     7
 10
168.428858
 20
10.239018
 40
0.11111
  0
ENDBLK
  0
ENDSEC
  0
SECTION
  2
ENTITIES
  0
POLYLINE
  8
通り芯
  6
CONTINUOUS
 66
     1
 70
     1
  0
VERTEX
  8
通り芯
 10
-210.0
 20
-148.5
  0
VERTEX
  8
通り芯
 10
210.0
 20
-148.5
  0
VERTEX
  8
通り芯
 10
210.0
 20
148.5
  0
VERTEX
  8
通り芯
 10
-210.0
 20
148.5
  0
SEQEND
  0
LINE
  8
通り芯
  6
CONTINUOUS
 10
-79.667025
 20
-25.25572
 11
-79.667025
 21
-25.92237
  0
LINE
  8
通り芯
  6
CONTINUOUS
 10
-79.667035
 20
-25.25572
 11
-79.667018
 21
-25.92237
  0
INSERT
  2
*GRP_0053
  8
型材
  6
DOT
 10
0.0
 20
0.0
  0
INSERT
  2
*GRP_0055
  8
型材
  6
DOT
 10
0.0
 20
0.0
  0
INSERT
  2
*GRP_0001
  8
型材断面
  6
CONTINUOUS
 10
0.0
 20
0.0
  0
INSERT
  2
*GRP_0002
  8
型材断面
  6
CONTINUOUS
 10
0.0
 20
0.0
  0
INSERT
  2
*GRP_0003
  8
型材断面
  6
CONTINUOUS
 10
0.0
 20
0.0
  0
LINE
  8
型材断面
  6
CONTINUOUS
 10
94.308312
 20
-68.454183
 11
94.308312
 21
-68.45418
  0
INSERT
  2
*GRP_0004
  8
型材断面
  6
CONTINUOUS
 10
0.0
 20
0.0
  0
INSERT
  2
*GRP_0005
  8
型材断面
  6
CONTINUOUS
 10
0.0
 20
0.0
  0
LINE
  8
型材断面
  6
CONTINUOUS
 10
94.308312
 20
-71.787515
 11
94.308312
 21
-71.787512
  0
LINE
  8
型材断面
  6
CONTINUOUS
 10
94.308312
 20
-71.787515
 11
94.308312
 21
-71.787512
  0
LINE
  8
型材断面
  6
CONTINUOUS
 10
62.81987
 20
-74.25573
 11
112.81991
 21
-74.25573
  0
LINE
  8
型材断面
  6
CONTINUOUS
 10
112.819908
 20
-70.922397
 11
62.81987
 21
-70.922397
  0
ARC
  8
型材断面
  6
CONTINUOUS
 10
112.819907
 20
-74.255731
 40
3.333333
 50
0.0
 51
90.0
  0
LINE
  8
型材断面
  6
CONTINUOUS
 10
112.80915
 20
-78.670625
 11
108.394255
 21
-74.25573
  0
LINE
  8
型材断面
  6
CONTINUOUS
 10
112.80915
 20
-81.027647
 11
106.03723
 21
-74.25573
  0
LINE
  8
型材断面
  6
CONTINUOUS
 10
112.80915
 20
-83.38467
 11
103.68021
 21
-74.25573
  0
LINE
  8
型材断面
  6
CONTINUOUS
 10
-103.172772
 20
-68.454183
 11
-103.172772
 21
-68.45418
  0
LINE
  8
型材断面
  6
CONTINUOUS
 10
-64.017665
 20
-50.922393
 11
-64.017665
 21
-88.996223
  0
LINE
  8
型材断面
  6
CONTINUOUS
 10
-60.350997
 20
-50.922393
 11
-60.350997
 21
-88.996223
  0
LINE
  8
型材断面
  6
CONTINUOUS
 10
-103.172772
 20
-71.787515
 11
-103.172772
 21
-71.787512
  0
LINE
  8
型材断面
  6
CONTINUOUS
 10
-103.172772
 20
-71.787515
 11
-103.172772
 21
-71.787512
  0
LINE
  8
型材断面
  6
CONTINUOUS
 10
-71.68433
 20
-74.25573
 11
-121.68437
 21
-74.25573
  0
LINE
  8
型材断面
  6
CONTINUOUS
 10
-121.684368
 20
-70.922397
 11
-71.68433
 21
-70.922397
  0
ARC
  8
型材断面
  6
CONTINUOUS
 10
-121.684367
 20
-74.255731
 40
3.333333
 50
90.0
 51
180.0
  0
LINE
  8
型材断面
  6
CONTINUOUS
 10
-121.67361
 20
-78.670625
 11
-117.258715
 21
-74.25573
  0
LINE
  8
型材断面
  6
CONTINUOUS
 10
-121.67361
 20
-81.027647
 11
-114.90169
 21
-74.25573
  0
LINE
  8
型材断面
  6
CONTINUOUS
 10
-121.67361
 20
-83.38467
 11
-112.54467
 21
-74.25573
  0
LINE
  8
型材断面
  6
DASHDOT
 10
59.485875
 20
6.87597
 11
59.485875
 21
-22.255732
  0
LINE
  8
型材断面
  6
DASHDOT
 10
-68.350335
 20
6.87597
 11
-68.350335
 21
-22.255732
  0
LINE
  8
型材断面
  6
DOT
 10
-69.017468
 20
-40.950615
 11
-68.35086
 21
-40.837615
  0
LINE
  8
型材断面
  6
DOT
 10
-68.35086
 20
-38.255763
 11
-69.017468
 21
-38.255763
  0
LINE
  8
型材断面
  6
DOT
 10
-66.850925
 20
-38.255763
 11
-65.684192
 21
-38.255763
  0
LINE
  8
型材断面
  6
DOT
 10
-65.684192
 20
-38.255763
 11
-65.684192
 21
-40.385653
  0
LINE
  8
型材断面
  6
DOT
 10
-68.850815
 20
-40.922365
 11
-68.850815
 21
-38.255763
  0
LINE
  8
型材断面
  6
DOT
 10
-68.684162
 20
-40.894115
 11
-68.684162
 21
-38.255763
  0
LINE
  8
型材断面
  6
DOT
 10
-68.517512
 20
-40.865865
 11
-68.517512
 21
-38.255763
  0
INSERT
  2
*HAT_0007
  8
型材断面
 10
0.0
 20
0.0
  0
LINE
  8
型材断面
  6
DOT
 10
60.153008
 20
-40.950615
 11
59.4864
 21
-40.837615
  0
LINE
  8
型材断面
  6
DOT
 10
59.4864
 20
-38.255763
 11
60.153008
 21
-38.255763
  0
LINE
  8
型材断面
  6
DOT
 10
57.986465
 20
-38.255763
 11
56.819732
 21
-38.255763
  0
LINE
  8
型材断面
  6
DOT
 10
56.819732
 20
-38.255763
 11
56.819732
 21
-40.385653
  0
LINE
  8
型材断面
  6
DOT
 10
59.986355
 20
-40.922365
 11
59.986355
 21
-38.255763
  0
LINE
  8
型材断面
  6
DOT
 10
59.819702
 20
-40.894115
 11
59.819702
 21
-38.255763
  0
LINE
  8
型材断面
  6
DOT
 10
59.653053
 20
-40.865865
 11
59.653053
 21
-38.255763
  0
INSERT
  2
*HAT_0008
  8
型材断面
 10
0.0
 20
0.0
  0
LINE
  8
型材断面
  6
CONTINUOUS
 10
-60.6842
 20
-29.922443
 11
51.81974
 21
-29.922443
  0
LINE
  8
型材断面
  6
CONTINUOUS
 10
-60.6842
 20
-29.922443
 11
51.81974
 21
-29.922443
  0
LINE
  8
型材断面
  6
CONTINUOUS
 10
-59.9503
 20
-17.755713
 11
51.08584
 21
-17.755713
  0
LINE
  8
型材断面
  6
CONTINUOUS
 10
50.951025
 20
-18.822378
 11
-59.815485
 21
-18.822378
  0
LINE
  8
型材断面
  6
CONTINUOUS
 62
    47
 10
-125.0177
 20
-74.25573
 11
-125.0177
 21
-100.276545
  0
LINE
  8
型材断面
  6
CONTINUOUS
 62
    47
 10
-121.68437
 20
-74.25573
 11
-121.68437
 21
-100.276545
  0
LINE
  8
型材断面
  6
CONTINUOUS
 10
-72.52547
 20
-74.25573
 11
-98.546285
 21
-100.276545
  0
LINE
  8
型材断面
  6
CONTINUOUS
 10
-74.882492
 20
-74.25573
 11
-100.903308
 21
-100.276545
  0
LINE
  8
型材断面
  6
CONTINUOUS
 10
-77.239515
 20
-74.25573
 11
-103.260335
 21
-100.276545
  0
LINE
  8
型材断面
  6
CONTINUOUS
 10
-71.68433
 20
-51.455713
 11
-71.68433
 21
-100.276545
  0
LINE
  8
型材断面
  6
CONTINUOUS
 10
-64.017665
 20
-50.922393
 11
-64.017665
 21
-100.276545
  0
LINE
  8
型材断面
  6
CONTINUOUS
 10
-63.68433
 20
-50.922393
 11
-63.68433
 21
-100.276545
  0
LINE
  8
型材断面
  6
CONTINUOUS
 10
-63.68433
 20
-50.922393
 11
-63.68433
 21
-100.276545
  0
LINE
  8
型材断面
  6
CONTINUOUS
 10
-60.017665
 20
-50.922393
 11
-60.017665
 21
-100.276545
  0
LINE
  8
型材断面
  6
CONTINUOUS
 10
-60.350997
 20
-50.922393
 11
-60.350997
 21
-100.276545
  0
LINE
  8
型材断面
  6
CONTINUOUS
 10
-60.017665
 20
-50.922393
 11
-60.017665
 21
-100.276545
  0
LINE
  8
型材断面
  6
CONTINUOUS
 10
51.153205
 20
-50.922393
 11
51.153205
 21
-100.276545
  0
LINE
  8
型材断面
  6
CONTINUOUS
 10
51.486537
 20
-50.922393
 11
51.486537
 21
-100.276545
  0
LINE
  8
型材断面
  6
CONTINUOUS
 10
54.81987
 20
-50.922393
 11
54.81987
 21
-100.276545
  0
LINE
  8
型材断面
  6
CONTINUOUS
 10
55.153205
 20
-50.922393
 11
55.153205
 21
-100.276545
  0
LINE
  8
型材断面
  6
CONTINUOUS
 10
62.81987
 20
-51.455713
 11
62.81987
 21
-100.276545
  0
LINE
  8
型材断面
  6
CONTINUOUS
 10
63.66101
 20
-74.25573
 11
89.681825
 21
-100.276545
  0
LINE
  8
型材断面
  6
CONTINUOUS
 10
66.018032
 20
-74.25573
 11
92.038847
 21
-100.276545
  0
LINE
  8
型材断面
  6
CONTINUOUS
 10
68.375055
 20
-74.25573
 11
94.395875
 21
-100.276545
  0
LINE
  8
型材断面
  6
CONTINUOUS
 62
    47
 10
112.81991
 20
-74.25573
 11
112.81991
 21
-100.276545
  0
LINE
  8
型材断面
  6
CONTINUOUS
 62
    47
 10
116.15324
 20
-74.25573
 11
116.15324
 21
-100.276545
  0
LINE
  8
型材断面
  6
CONTINUOUS
 10
-126.709055
 20
115.753153
 11
-166.709055
 21
115.753153
  0
LINE
  8
型材断面
  6
CONTINUOUS
 10
-126.709055
 20
109.753153
 11
-166.709055
 21
109.753153
  0
LINE
  8
型材断面
  6
CONTINUOUS
 10
-166.709055
 20
109.753153
 11
-166.709055
 21
115.753153
  0
LINE
  8
型材断面
  6
CONTINUOUS
 10
-156.709055
 20
109.753153
 11
-156.709055
 21
115.753153
  0
LINE
  8
型材断面
  6
CONTINUOUS
 10
-146.709055
 20
109.753153
 11
-146.709055
 21
115.753153
  0
LINE
  8
型材断面
  6
CONTINUOUS
 10
-136.709055
 20
109.753153
 11
-136.709055
 21
115.753153
  0
LINE
  8
型材断面
  6
CONTINUOUS
 10
-126.709055
 20
109.753153
 11
-126.709055
 21
115.753153
  0
POLYLINE
  8
型材断面
  6
CONTINUOUS
 66
     1
 70
     1
  0
VERTEX
  8
型材断面
 10
-138.80759
 20
120.602828
  0
VERTEX
  8
型材断面
 10
-157.618665
 20
120.602828
  0
VERTEX
  8
型材断面
 10
-157.618665
 20
116.46439
  0
VERTEX
  8
型材断面
 10
-138.80759
 20
116.46439
  0
SEQEND
  0
POLYLINE
  8
型材断面
  6
CONTINUOUS
 66
     1
 70
     1
  0
VERTEX
  8
型材断面
 10
-138.80759
 20
109.1012
  0
VERTEX
  8
型材断面
 10
-157.618665
 20
109.1012
  0
VERTEX
  8
型材断面
 10
-157.618665
 20
104.962762
  0
VERTEX
  8
型材断面
 10
-138.80759
 20
104.962762
  0
SEQEND
  0
LINE
  8
型材断面
  6
CONTINUOUS
 10
-126.709055
 20
94.14729
 11
-166.709055
 21
94.14729
  0
LINE
  8
型材断面
  6
CONTINUOUS
 10
-126.709055
 20
85.14729
 11
-166.709055
 21
85.14729
  0
LINE
  8
型材断面
  6
CONTINUOUS
 10
-166.709055
 20
85.14729
 11
-166.709055
 21
94.14729
  0
LINE
  8
型材断面
  6
CONTINUOUS
 10
-156.709055
 20
85.14729
 11
-156.709055
 21
94.14729
  0
LINE
  8
型材断面
  6
CONTINUOUS
 10
-146.709055
 20
85.14729
 11
-146.709055
 21
94.14729
  0
LINE
  8
型材断面
  6
CONTINUOUS
 10
-136.709055
 20
85.14729
 11
-136.709055
 21
94.14729
  0
LINE
  8
型材断面
  6
CONTINUOUS
 10
-126.709055
 20
85.14729
 11
-126.709055
 21
94.14729
  0
LINE
  8
型材断面
  6
CONTINUOUS
 10
-126.709055
 20
85.14729
 11
-166.709055
 21
85.14729
  0
POLYLINE
  8
型材断面
  6
CONTINUOUS
 66
     1
 70
     1
  0
VERTEX
  8
型材断面
 10
-138.80759
 20
99.032798
  0
VERTEX
  8
型材断面
 10
-157.618665
 20
99.032798
  0
VERTEX
  8
型材断面
 10
-157.618665
 20
94.89436
  0
VERTEX
  8
型材断面
 10
-138.80759
 20
94.89436
  0
SEQEND
  0
POLYLINE
  8
型材断面
  6
CONTINUOUS
 66
     1
 70
     1
  0
VERTEX
  8
型材断面
 10
-138.80759
 20
84.467653
  0
VERTEX
  8
型材断面
 10
-157.618665
 20
84.467653
  0
VERTEX
  8
型材断面
 10
-157.618665
 20
80.329215
  0
VERTEX
  8
型材断面
 10
-138.80759
 20
80.329215
  0
SEQEND
  0
LINE
  8
型材断面
  6
CONTINUOUS
 10
-126.709055
 20
68.349243
 11
-166.709055
 21
68.349243
  0
LINE
  8
型材断面
  6
CONTINUOUS
 10
-126.709055
 20
55.349243
 11
-166.709055
 21
55.349243
  0
LINE
  8
型材断面
  6
CONTINUOUS
 10
-166.709055
 20
55.349243
 11
-166.709055
 21
68.349243
  0
LINE
  8
型材断面
  6
CONTINUOUS
 10
-156.709055
 20
55.349243
 11
-156.709055
 21
68.349243
  0
LINE
  8
型材断面
  6
CONTINUOUS
 10
-146.709055
 20
55.349243
 11
-146.709055
 21
68.349243
  0
LINE
  8
型材断面
  6
CONTINUOUS
 10
-136.709055
 20
55.349243
 11
-136.709055
 21
68.349243
  0
LINE
  8
型材断面
  6
CONTINUOUS
 10
-126.709055
 20
55.349243
 11
-126.709055
 21
68.349243
  0
POLYLINE
  8
型材断面
  6
CONTINUOUS
 66
     1
 70
     1
  0
VERTEX
  8
型材断面
 10
-138.80759
 20
73.181007
  0
VERTEX
  8
型材断面
 10
-157.618665
 20
73.181007
  0
VERTEX
  8
型材断面
 10
-157.618665
 20
69.04257
  0
VERTEX
  8
型材断面
 10
-138.80759
 20
69.04257
  0
SEQEND
  0
POLYLINE
  8
型材断面
  6
CONTINUOUS
 66
     1
 70
     1
  0
VERTEX
  8
型材断面
 10
-138.80759
 20
54.695665
  0
VERTEX
  8
型材断面
 10
-157.618665
 20
54.695665
  0
VERTEX
  8
型材断面
 10
-157.618665
 20
50.557228
  0
VERTEX
  8
型材断面
 10
-138.80759
 20
50.557228
  0
SEQEND
  0
LINE
  8
型材断面
  6
CONTINUOUS
 10
-178.153235
 20
124.152693
 11
-137.29372
 21
124.152693
  0
LINE
  8
型材断面
  6
CONTINUOUS
 10
-178.153235
 20
123.652693
 11
-137.29372
 21
123.652693
  0
POLYLINE
  8
型材断面
  6
DOT
 66
     1
 70
     1
  0
VERTEX
  8
型材断面
 10
-122.325
 20
130.623125
  0
VERTEX
  8
型材断面
 10
-181.447008
 20
130.623125
  0
VERTEX
  8
型材断面
 10
-181.447008
 20
45.38097
  0
VERTEX
  8
型材断面
 10
-122.325
 20
45.38097
  0
SEQEND
  0
INSERT
  2
*GRP_0073
  8
型材断面
  6
DASHDOT
 62
    47
 10
0.0
 20
0.0
  0
INSERT
  2
*GRP_0074
  8
型材断面
  6
CONTINUOUS
 10
0.0
 20
0.0
  0
INSERT
  2
*GRP_0075
  8
型材断面
  6
DOT
 10
0.0
 20
0.0
  0
LINE
  8
型材断面
  6
CONTINUOUS
 10
-68.35086
 20
-33.922408
 11
-13.998905
 21
-33.922408
  0
LINE
  8
型材断面
  6
CONTINUOUS
 10
-68.35086
 20
-36.25574
 11
-13.998905
 21
-36.25574
  0
LINE
  8
型材断面
  6
CONTINUOUS
 10
59.4864
 20
-33.922408
 11
5.134445
 21
-33.922408
  0
LINE
  8
型材断面
  6
CONTINUOUS
 10
59.4864
 20
-36.25574
 11
5.134445
 21
-36.25574
  0
INSERT
  2
*GRP_0097
  8
型材断面
  6
CONTINUOUS
 10
0.0
 20
0.0
  0
INSERT
  2
*GRP_0098
  8
型材断面
  6
CONTINUOUS
 10
0.0
 20
0.0
  0
INSERT
  2
*GRP_0099
  8
型材断面
  6
DOT
 10
0.0
 20
0.0
  0
LINE
  8
型材断面
  6
CONTINUOUS
 10
-27.765555
 20
-93.420285
 11
18.901113
 21
-93.420285
  0
LINE
  8
型材断面
  6
CONTINUOUS
 10
-27.765555
 20
-95.753618
 11
18.901113
 21
-95.753618
  0
LINE
  8
型材断面
  6
CONTINUOUS
 10
-27.765555
 20
-78.320255
 11
18.901113
 21
-78.320255
  0
LINE
  8
型材断面
  6
CONTINUOUS
 10
-27.765555
 20
-77.25359
 11
18.901113
 21
-77.25359
  0
INSERT
  2
*GRP_0113
  8
型材断面
  6
CONTINUOUS
 10
0.0
 20
0.0
  0
LINE
  8
型材断面
  6
DOT
 10
139.095543
 20
15.210822
 11
138.428935
 21
15.323822
  0
LINE
  8
型材断面
  6
DOT
 10
138.428935
 20
17.905675
 11
139.095543
 21
17.905675
  0
LINE
  8
型材断面
  6
DOT
 10
136.929
 20
17.905675
 11
135.762268
 21
17.905675
  0
LINE
  8
型材断面
  6
DOT
 10
135.762268
 20
17.905675
 11
135.762268
 21
15.775785
  0
LINE
  8
型材断面
  6
DOT
 10
138.92889
 20
15.239072
 11
138.92889
 21
17.905675
  0
LINE
  8
型材断面
  6
DOT
 10
138.762238
 20
15.267323
 11
138.762238
 21
17.905675
  0
LINE
  8
型材断面
  6
DOT
 10
138.595587
 20
15.295572
 11
138.595587
 21
17.905675
  0
INSERT
  2
*HAT_0009
  8
型材断面
 10
0.0
 20
0.0
  0
LINE
  8
型材断面
  6
CONTINUOUS
 10
138.262268
 20
24.905677
 11
138.262268
 21
19.905697
  0
LINE
  8
型材断面
  6
CONTINUOUS
 10
130.762275
 20
26.23904
 11
107.983223
 21
26.23904
  0
LINE
  8
型材断面
  6
CONTINUOUS
 10
138.262268
 20
22.23903
 11
107.983223
 21
22.23903
  0
LINE
  8
型材断面
  6
DOT
 10
138.262268
 20
20.572375
 11
107.983223
 21
20.572375
  0
LINE
  8
型材断面
  6
CONTINUOUS
 10
138.262268
 20
19.905697
 11
107.983223
 21
19.905697
  0
LINE
  8
型材断面
  6
CONTINUOUS
 10
128.42892
 20
5.23904
 11
107.983223
 21
5.23904
  0
LINE
  8
型材断面
  6
DASHDOT
 10
138.42841
 20
24.905677
 11
138.42841
 21
32.57227
  0
LINE
  8
ガラス
  6
CONTINUOUS
 10
-63.01701
 20
-23.655728
 11
-63.01701
 21
-25.655728
  0
LINE
  8
ガラス
  6
CONTINUOUS
 10
-65.01701
 20
-25.655728
 11
-63.01701
 21
-23.655728
  0
LINE
  8
ガラス
  6
CONTINUOUS
 10
-65.01701
 20
-23.655728
 11
-63.01701
 21
-25.655728
  0
LINE
  8
ガラス
  6
CONTINUOUS
 10
-65.01701
 20
-27.922395
 11
-65.01701
 21
-21.655728
  0
LINE
  8
ガラス
  6
CONTINUOUS
 10
54.153515
 20
-23.655728
 11
54.153515
 21
-25.655728
  0
LINE
  8
ガラス
  6
CONTINUOUS
 10
56.153515
 20
-25.655728
 11
54.153515
 21
-23.655728
  0
LINE
  8
ガラス
  6
CONTINUOUS
 10
56.153515
 20
-23.655728
 11
54.153515
 21
-25.655728
  0
LINE
  8
ガラス
  6
CONTINUOUS
 10
56.153515
 20
-27.922395
 11
56.153515
 21
-21.655728
  0
LINE
  8
ガラス
  6
CONTINUOUS
 10
2.901113
 20
-23.655717
 11
2.901113
 21
-25.655717
  0
LINE
  8
ガラス
  6
CONTINUOUS
 10
0.901113
 20
-25.655717
 11
2.901113
 21
-23.655717
  0
LINE
  8
ガラス
  6
CONTINUOUS
 10
0.901113
 20
-23.655717
 11
2.901113
 21
-25.655717
  0
LINE
  8
ガラス
  6
CONTINUOUS
 10
0.901113
 20
-27.922385
 11
0.901113
 21
-21.655717
  0
LINE
  8
ガラス
  6
CONTINUOUS
 10
-11.765572
 20
-23.655717
 11
-11.765572
 21
-25.655717
  0
LINE
  8
ガラス
  6
CONTINUOUS
 10
-9.765572
 20
-25.655717
 11
-11.765572
 21
-23.655717
  0
LINE
  8
ガラス
  6
CONTINUOUS
 10
-9.765572
 20
-23.655717
 11
-11.765572
 21
-25.655717
  0
LINE
  8
ガラス
  6
CONTINUOUS
 10
-9.765572
 20
-27.922385
 11
-9.765572
 21
-21.655717
  0
LINE
  8
ガラス
  6
CONTINUOUS
 10
56.153515
 20
-27.922395
 11
0.901113
 21
-27.922395
  0
LINE
  8
ガラス
  6
CONTINUOUS
 10
-9.765572
 20
-27.922395
 11
-65.01701
 21
-27.922395
  0
LINE
  8
ガラス
  6
CONTINUOUS
 10
56.153515
 20
-27.755728
 11
0.901113
 21
-27.755728
  0
LINE
  8
ガラス
  6
CONTINUOUS
 10
-9.765572
 20
-27.755728
 11
-65.01701
 21
-27.755728
  0
LINE
  8
ガラス
  6
CONTINUOUS
 10
56.153515
 20
-25.655728
 11
0.901113
 21
-25.655728
  0
LINE
  8
ガラス
  6
CONTINUOUS
 10
-9.765572
 20
-25.655728
 11
-65.01701
 21
-25.655728
  0
LINE
  8
ガラス
  6
CONTINUOUS
 10
56.153515
 20
-25.822395
 11
0.901113
 21
-25.822395
  0
LINE
  8
ガラス
  6
CONTINUOUS
 10
-9.765572
 20
-25.822395
 11
-65.01701
 21
-25.822395
  0
LINE
  8
ガラス
  6
CONTINUOUS
 10
56.153515
 20
-23.655728
 11
0.901113
 21
-23.655728
  0
LINE
  8
ガラス
  6
CONTINUOUS
 10
-9.765572
 20
-23.655728
 11
-65.01701
 21
-23.655728
  0
LINE
  8
ガラス
  6
CONTINUOUS
 10
56.153515
 20
-23.48906
 11
0.901113
 21
-23.48906
  0
LINE
  8
ガラス
  6
CONTINUOUS
 10
-9.765572
 20
-23.48906
 11
-65.01701
 21
-23.48906
  0
LINE
  8
ガラス
  6
CONTINUOUS
 10
56.153515
 20
-21.655728
 11
0.901113
 21
-21.655728
  0
LINE
  8
ガラス
  6
CONTINUOUS
 10
-9.765572
 20
-21.655728
 11
-65.01701
 21
-21.655728
  0
LINE
  8
ガラス
  6
CONTINUOUS
 10
56.153515
 20
-21.822395
 11
0.901113
 21
-21.822395
  0
LINE
  8
ガラス
  6
CONTINUOUS
 10
-9.765572
 20
-21.822395
 11
-65.01701
 21
-21.822395
  0
LINE
  8
ガラス
  6
CONTINUOUS
 10
2.90112
 20
-83.153605
 11
2.90112
 21
-85.153605
  0
LINE
  8
ガラス
  6
CONTINUOUS
 10
0.90112
 20
-85.153605
 11
2.90112
 21
-83.153605
  0
LINE
  8
ガラス
  6
CONTINUOUS
 10
0.90112
 20
-83.153605
 11
2.90112
 21
-85.153605
  0
LINE
  8
ガラス
  6
CONTINUOUS
 10
0.90112
 20
-87.420273
 11
0.90112
 21
-81.153605
  0
LINE
  8
ガラス
  6
CONTINUOUS
 10
-11.765565
 20
-83.153605
 11
-11.765565
 21
-85.153605
  0
LINE
  8
ガラス
  6
CONTINUOUS
 10
-9.765565
 20
-85.153605
 11
-11.765565
 21
-83.153605
  0
LINE
  8
ガラス
  6
CONTINUOUS
 10
-9.765565
 20
-83.153605
 11
-11.765565
 21
-85.153605
  0
LINE
  8
ガラス
  6
CONTINUOUS
 10
-9.765565
 20
-87.420273
 11
-9.765565
 21
-81.153605
  0
LINE
  8
ガラス
  6
CONTINUOUS
 10
-27.765555
 20
-87.420273
 11
-9.765565
 21
-87.420273
  0
LINE
  8
ガラス
  6
CONTINUOUS
 10
-27.765555
 20
-87.253605
 11
-9.765565
 21
-87.253605
  0
LINE
  8
ガラス
  6
CONTINUOUS
 10
-27.765555
 20
-85.153605
 11
-9.765565
 21
-85.153605
  0
LINE
  8
ガラス
  6
CONTINUOUS
 10
-27.765555
 20
-85.320273
 11
-9.765565
 21
-85.320273
  0
LINE
  8
ガラス
  6
CONTINUOUS
 10
-27.765555
 20
-83.153605
 11
-9.765565
 21
-83.153605
  0
LINE
  8
ガラス
  6
CONTINUOUS
 10
-27.765555
 20
-82.986938
 11
-9.765565
 21
-82.986938
  0
LINE
  8
ガラス
  6
CONTINUOUS
 10
-27.765555
 20
-81.153605
 11
-9.765565
 21
-81.153605
  0
LINE
  8
ガラス
  6
CONTINUOUS
 10
-27.765555
 20
-81.320273
 11
-9.765565
 21
-81.320273
  0
LINE
  8
ガラス
  6
CONTINUOUS
 10
18.90111
 20
-87.420273
 11
0.90112
 21
-87.420273
  0
LINE
  8
ガラス
  6
CONTINUOUS
 10
18.90111
 20
-87.253605
 11
0.90112
 21
-87.253605
  0
LINE
  8
ガラス
  6
CONTINUOUS
 10
18.90111
 20
-85.153605
 11
0.90112
 21
-85.153605
  0
LINE
  8
ガラス
  6
CONTINUOUS
 10
18.90111
 20
-85.320273
 11
0.90112
 21
-85.320273
  0
LINE
  8
ガラス
  6
CONTINUOUS
 10
18.90111
 20
-83.153605
 11
0.90112
 21
-83.153605
  0
LINE
  8
ガラス
  6
CONTINUOUS
 10
18.90111
 20
-82.986938
 11
0.90112
 21
-82.986938
  0
LINE
  8
ガラス
  6
CONTINUOUS
 10
18.90111
 20
-81.153605
 11
0.90112
 21
-81.153605
  0
LINE
  8
ガラス
  6
CONTINUOUS
 10
18.90111
 20
-81.320273
 11
0.90112
 21
-81.320273
  0
INSERT
  2
*GRP_0041
  8
ゴム等
  6
CONTINUOUS
 10
0.0
 20
0.0
  0
INSERT
  2
*GRP_0042
  8
ゴム等
  6
CONTINUOUS
 10
0.0
 20
0.0
  0
INSERT
  2
*GRP_0076
  8
ゴム等
  6
CONTINUOUS
 10
0.0
 20
0.0
  0
INSERT
  2
*GRP_0077
  8
ゴム等
  6
CONTINUOUS
 10
0.0
 20
0.0
  0
INSERT
  2
*GRP_0100
  8
ゴム等
  6
CONTINUOUS
 10
0.0
 20
0.0
  0
INSERT
  2
*GRP_0101
  8
ゴム等
  6
CONTINUOUS
 10
0.0
 20
0.0
  0
INSERT
  2
*GRP_0006
  8
ボルト／ビス
  6
CONTINUOUS
 62
    64
 10
0.0
 20
0.0
  0
INSERT
  2
*GRP_0007
  8
ボルト／ビス
  6
CONTINUOUS
 62
    64
 10
0.0
 20
0.0
  0
INSERT
  2
*GRP_0008
  8
ボルト／ビス
  6
CONTINUOUS
 62
    64
 10
0.0
 20
0.0
  0
INSERT
  2
*GRP_0009
  8
ボルト／ビス
  6
CONTINUOUS
 62
    64
 10
0.0
 20
0.0
  0
INSERT
  2
*GRP_0010
  8
ボルト／ビス
  6
CONTINUOUS
 62
    64
 10
0.0
 20
0.0
  0
INSERT
  2
*GRP_0011
  8
ボルト／ビス
  6
CONTINUOUS
 62
    64
 10
0.0
 20
0.0
  0
INSERT
  2
*GRP_0012
  8
ボルト／ビス
  6
CONTINUOUS
 62
    64
 10
0.0
 20
0.0
  0
INSERT
  2
*GRP_0013
  8
ボルト／ビス
  6
CONTINUOUS
 62
    64
 10
0.0
 20
0.0
  0
INSERT
  2
*GRP_0014
  8
ボルト／ビス
  6
CONTINUOUS
 62
    64
 10
0.0
 20
0.0
  0
INSERT
  2
*GRP_0015
  8
ボルト／ビス
  6
CONTINUOUS
 62
    64
 10
0.0
 20
0.0
  0
INSERT
  2
*GRP_0029
  8
ボルト／ビス
  6
CONTINUOUS
 10
0.0
 20
0.0
  0
INSERT
  2
*GRP_0030
  8
ボルト／ビス
  6
CONTINUOUS
 62
    64
 10
0.0
 20
0.0
  0
INSERT
  2
*GRP_0033
  8
ボルト／ビス
  6
CONTINUOUS
 10
0.0
 20
0.0
  0
INSERT
  2
*GRP_0034
  8
ボルト／ビス
  6
CONTINUOUS
 62
    64
 10
0.0
 20
0.0
  0
INSERT
  2
*GRP_0078
  8
ボルト／ビス
  6
DOT
 62
    64
 10
0.0
 20
0.0
  0
INSERT
  2
*GRP_0079
  8
ボルト／ビス
  6
DOT
 62
    64
 10
0.0
 20
0.0
  0
INSERT
  2
*GRP_0080
  8
ボルト／ビス
  6
CONTINUOUS
 62
    64
 10
0.0
 20
0.0
  0
INSERT
  2
*GRP_0081
  8
ボルト／ビス
  6
CONTINUOUS
 62
    64
 10
0.0
 20
0.0
  0
INSERT
  2
*GRP_0082
  8
ボルト／ビス
  6
CONTINUOUS
 62
    64
 10
0.0
 20
0.0
  0
INSERT
  2
*GRP_0083
  8
ボルト／ビス
  6
CONTINUOUS
 62
    64
 10
0.0
 20
0.0
  0
INSERT
  2
*GRP_0084
  8
ボルト／ビス
  6
CONTINUOUS
 62
    64
 10
0.0
 20
0.0
  0
INSERT
  2
*GRP_0102
  8
ボルト／ビス
  6
CONTINUOUS
 62
    64
 10
0.0
 20
0.0
  0
INSERT
  2
*GRP_0103
  8
ボルト／ビス
  6
CONTINUOUS
 62
    64
 10
0.0
 20
0.0
  0
INSERT
  2
*GRP_0104
  8
ボルト／ビス
  6
CONTINUOUS
 62
    64
 10
0.0
 20
0.0
  0
INSERT
  2
*GRP_0105
  8
ボルト／ビス
  6
CONTINUOUS
 62
    64
 10
0.0
 20
0.0
  0
INSERT
  2
*GRP_0106
  8
ボルト／ビス
  6
CONTINUOUS
 62
    64
 10
0.0
 20
0.0
  0
TEXT
  7
TextStyle03
  8
文字
  6
CONTINUOUS
 10
53.275
 20
100.15
  1
ＮＳコード：ＮＳＦＫＺ
 40
5.0
 72
     5
 11
114.525
 21
100.15
  0
TEXT
  7
TextStyle03
  8
文字
  6
CONTINUOUS
 10
-131.8
 20
-49.075
  1
規格水切
 40
3.0
 72
     5
 11
-118.675
 21
-49.075
  0
TEXT
  7
TextStyle03
  8
文字
  6
CONTINUOUS
 10
134.55
 20
-65.55
  1
排水パイプ(オプション)
 40
3.0
 72
     5
 11
171.4875
 21
-65.55
  0
TEXT
  7
TextStyle03
  8
文字
  6
CONTINUOUS
 10
134.55
 20
-68.925
  1
□10×10×1 L=60
 40
3.0
 72
     5
 11
161.3625
 21
-68.925
  0
TEXT
  7
TextStyle03
  8
文字
  6
CONTINUOUS
 10
53.55
 20
126.675
  1
シリーズ：ＴＦ２ＦＫ
 40
5.0
 72
     5
 11
109.175
 21
126.675
  0
TEXT
  7
TextStyle03
  8
文字
  6
CONTINUOUS
 10
53.55
 20
121.05
  1
　　　　　（固定）
 40
5.0
 72
     5
 11
103.55
 21
121.05
  0
TEXT
  7
TextStyle03
  8
文字
  6
CONTINUOUS
 10
53.55
 20
115.425
  1

 40
5.0
 41
1.125
  0
TEXT
  7
TextStyle03
  8
文字
  6
CONTINUOUS
 10
53.55
 20
109.8
  1
図面名　：全体納まり断面図
 40
5.0
 72
     5
 11
126.05
 21
109.8
  0
TEXT
  7
TextStyle03
  8
文字
  6
CONTINUOUS
 10
-156.3
 20
117.05
  1
可動装置側
 40
3.0
 72
     5
 11
-139.8
 21
117.05
  0
TEXT
  7
TextStyle03
  8
文字
  6
CONTINUOUS
 10
-156.3
 20
105.55
  1
可動装置側
 40
3.0
 72
     5
 11
-139.8
 21
105.55
  0
TEXT
  7
TextStyle03
  8
文字
  6
CONTINUOUS
 10
-156.3
 20
95.475
  1
可動装置側
 40
3.0
 72
     5
 11
-139.8
 21
95.475
  0
TEXT
  7
TextStyle03
  8
文字
  6
CONTINUOUS
 10
-156.3
 20
80.925
  1
可動装置側
 40
3.0
 72
     5
 11
-139.8
 21
80.925
  0
TEXT
  7
TextStyle03
  8
文字
  6
CONTINUOUS
 10
-156.3
 20
69.65
  1
可動装置側
 40
3.0
 72
     5
 11
-139.8
 21
69.65
  0
TEXT
  7
TextStyle03
  8
文字
  6
CONTINUOUS
 10
-156.3
 20
51.175
  1
可動装置側
 40
3.0
 72
     5
 11
-139.8
 21
51.175
  0
TEXT
  7
TextStyle03
  8
文字
  6
CONTINUOUS
 10
-164.725
 20
112.15
  1
小
 40
3.0
 72
     5
 11
-161.725
 21
112.15
  0
TEXT
  7
TextStyle03
  8
文字
  6
CONTINUOUS
 10
-154.725
 20
112.15
  1
小
 40
3.0
 72
     5
 11
-151.725
 21
112.15
  0
TEXT
  7
TextStyle03
  8
文字
  6
CONTINUOUS
 10
-144.725
 20
112.15
  1
小
 40
3.0
 72
     5
 11
-141.725
 21
112.15
  0
TEXT
  7
TextStyle03
  8
文字
  6
CONTINUOUS
 10
-164.725
 20
89.725
  1
小
 40
3.0
 72
     5
 11
-161.725
 21
89.725
  0
TEXT
  7
TextStyle03
  8
文字
  6
CONTINUOUS
 10
-154.725
 20
89.725
  1
小
 40
3.0
 72
     5
 11
-151.725
 21
89.725
  0
TEXT
  7
TextStyle03
  8
文字
  6
CONTINUOUS
 10
-144.725
 20
89.725
  1
小
 40
3.0
 72
     5
 11
-141.725
 21
89.725
  0
TEXT
  7
TextStyle03
  8
文字
  6
CONTINUOUS
 10
-176.875
 20
125.075
  1
Ｌ型タイプ 中桟フレーム
 40
3.0
 72
     5
 11
-138.4375
 21
125.075
  0
TEXT
  7
TextStyle03
  8
文字
  6
CONTINUOUS
 10
-164.725
 20
61.2
  1
大
 40
3.0
 72
     5
 11
-161.725
 21
61.2
  0
TEXT
  7
TextStyle03
  8
文字
  6
CONTINUOUS
 10
-154.725
 20
61.2
  1
大
 40
3.0
 72
     5
 11
-151.725
 21
61.2
  0
TEXT
  7
TextStyle03
  8
文字
  6
CONTINUOUS
 10
-144.725
 20
61.2
  1
大
 40
3.0
 72
     5
 11
-141.725
 21
61.2
  0
TEXT
  7
TextStyle03
  8
文字
  6
CONTINUOUS
 10
16.925
 20
-102.525
  1
SUS-1.5t　2B
 40
3.0
 72
     5
 11
36.9875
 21
-102.525
  0
TEXT
  7
TextStyle03
  8
文字
  6
CONTINUOUS
 10
16.925
 20
-105.9
  1
ジョイント
 40
3.0
 72
     5
 11
33.425
 21
-105.9
  0
TEXT
  7
TextStyle03
  8
文字
  6
CONTINUOUS
 10
-21.225
 20
-117.0
  1
※中桟はＬ型のみ使用
 40
3.0
 72
     5
 11
12.15
 21
-117.0
  0
TEXT
  7
TextStyle03
  8
文字
  6
CONTINUOUS
 10
-18.35
 20
-68.6
  1
中桟フレーム（大）
 40
3.0
 72
     5
 11
11.65
 21
-68.6
  0
TEXT
  7
TextStyle03
  8
文字
  6
CONTINUOUS
 10
-18.825
 20
-108.625
  1
中桟フレーム（小）
 40
3.0
 72
     5
 11
11.175
 21
-108.625
  0
POLYLINE
  8
文字
  6
CONTINUOUS
 66
     1
 70
     1
  0
VERTEX
  8
文字
 10
172.810947
 20
44.394012
  0
VERTEX
  8
文字
 10
103.234592
 20
44.394012
  0
VERTEX
  8
文字
 10
103.234592
 20
-4.049338
  0
VERTEX
  8
文字
 10
172.810947
 20
-4.049338
  0
SEQEND
  0
TEXT
  7
TextStyle03
  8
文字
  6
CONTINUOUS
 10
105.4
 20
39.0
  1
中桟フレーム（大）端部断面
 40
3.0
 72
     5
 11
148.9
 21
39.0
  0
INSERT
  2
*GRP_0016
  8
寸法
  6
CONTINUOUS
 10
0.0
 20
0.0
  0
INSERT
  2
*DIM_0019
  8
寸法
  6
CONTINUOUS
 10
0.0
 20
0.0
  0
INSERT
  2
*DIM_0020
  8
寸法
  6
CONTINUOUS
 10
0.0
 20
0.0
  0
INSERT
  2
*DIM_0021
  8
寸法
  6
CONTINUOUS
 10
0.0
 20
0.0
  0
INSERT
  2
*DIM_0022
  8
寸法
  6
CONTINUOUS
 10
0.0
 20
0.0
  0
INSERT
  2
*DIM_0023
  8
寸法
  6
CONTINUOUS
 10
0.0
 20
0.0
  0
INSERT
  2
*DIM_0024
  8
寸法
  6
CONTINUOUS
 10
0.0
 20
0.0
  0
INSERT
  2
*DIM_0025
  8
寸法
  6
CONTINUOUS
 10
0.0
 20
0.0
  0
INSERT
  2
*DIM_0026
  8
寸法
  6
CONTINUOUS
 10
0.0
 20
0.0
  0
INSERT
  2
*DIM_0027
  8
寸法
  6
CONTINUOUS
 10
0.0
 20
0.0
  0
INSERT
  2
*DIM_0028
  8
寸法
  6
CONTINUOUS
 10
0.0
 20
0.0
  0
INSERT
  2
*DIM_0037
  8
寸法
  6
CONTINUOUS
 10
0.0
 20
0.0
  0
INSERT
  2
*DIM_0038
  8
寸法
  6
CONTINUOUS
 10
0.0
 20
0.0
  0
INSERT
  2
*DIM_0039
  8
寸法
  6
CONTINUOUS
 10
0.0
 20
0.0
  0
INSERT
  2
*DIM_0040
  8
寸法
  6
CONTINUOUS
 10
0.0
 20
0.0
  0
INSERT
  2
*DIM_0043
  8
寸法
  6
CONTINUOUS
 10
0.0
 20
0.0
  0
INSERT
  2
*DIM_0044
  8
寸法
  6
CONTINUOUS
 10
0.0
 20
0.0
  0
INSERT
  2
*DIM_0047
  8
寸法
  6
CONTINUOUS
 10
0.0
 20
0.0
  0
INSERT
  2
*DIM_0048
  8
寸法
  6
CONTINUOUS
 10
0.0
 20
0.0
  0
INSERT
  2
*DIM_0049
  8
寸法
  6
CONTINUOUS
 10
0.0
 20
0.0
  0
INSERT
  2
*DIM_0050
  8
寸法
  6
CONTINUOUS
 10
0.0
 20
0.0
  0
INSERT
  2
*DIM_0051
  8
寸法
  6
CONTINUOUS
 10
0.0
 20
0.0
  0
INSERT
  2
*DIM_0052
  8
寸法
  6
CONTINUOUS
 10
0.0
 20
0.0
  0
INSERT
  2
*GRP_0054
  8
寸法
  6
CONTINUOUS
 10
0.0
 20
0.0
  0
INSERT
  2
*DIM_0056
  8
寸法
  6
CONTINUOUS
 10
0.0
 20
0.0
  0
INSERT
  2
*DIM_0057
  8
寸法
  6
CONTINUOUS
 10
0.0
 20
0.0
  0
INSERT
  2
*DIM_0058
  8
寸法
  6
CONTINUOUS
 10
0.0
 20
0.0
  0
INSERT
  2
*DIM_0059
  8
寸法
  6
CONTINUOUS
 10
0.0
 20
0.0
  0
INSERT
  2
*DIM_0060
  8
寸法
  6
CONTINUOUS
 10
0.0
 20
0.0
  0
INSERT
  2
*DIM_0061
  8
寸法
  6
CONTINUOUS
 10
0.0
 20
0.0
  0
INSERT
  2
*DIM_0062
  8
寸法
  6
CONTINUOUS
 10
0.0
 20
0.0
  0
INSERT
  2
*DIM_0063
  8
寸法
  6
CONTINUOUS
 10
0.0
 20
0.0
  0
INSERT
  2
*GRP_0064
  8
寸法
  6
CONTINUOUS
 10
0.0
 20
0.0
  0
INSERT
  2
*GRP_0065
  8
寸法
  6
CONTINUOUS
 10
0.0
 20
0.0
  0
INSERT
  2
*GRP_0066
  8
寸法
  6
CONTINUOUS
 10
0.0
 20
0.0
  0
INSERT
  2
*GRP_0067
  8
寸法
  6
CONTINUOUS
 10
0.0
 20
0.0
  0
INSERT
  2
*GRP_0068
  8
寸法
  6
CONTINUOUS
 10
0.0
 20
0.0
  0
INSERT
  2
*GRP_0069
  8
寸法
  6
CONTINUOUS
 10
0.0
 20
0.0
  0
INSERT
  2
*GRP_0070
  8
寸法
  6
CONTINUOUS
 10
0.0
 20
0.0
  0
INSERT
  2
*GRP_0071
  8
寸法
  6
CONTINUOUS
 10
0.0
 20
0.0
  0
INSERT
  2
*GRP_0072
  8
寸法
  6
CONTINUOUS
 10
0.0
 20
0.0
  0
INSERT
  2
*DIM_0093
  8
寸法
  6
CONTINUOUS
 10
0.0
 20
0.0
  0
INSERT
  2
*DIM_0094
  8
寸法
  6
CONTINUOUS
 10
0.0
 20
0.0
  0
INSERT
  2
*DIM_0095
  8
寸法
  6
CONTINUOUS
 10
0.0
 20
0.0
  0
INSERT
  2
*DIM_0096
  8
寸法
  6
CONTINUOUS
 10
0.0
 20
0.0
  0
INSERT
  2
*DIM_0111
  8
寸法
  6
CONTINUOUS
 10
0.0
 20
0.0
  0
INSERT
  2
*GRP_0112
  8
寸法
  6
CONTINUOUS
 10
0.0
 20
0.0
  0
INSERT
  2
*HAT_0010
  8
ﾊｯﾁﾝｸﾞ
 10
0.0
 20
0.0
  0
INSERT
  2
*HAT_0011
  8
ﾊｯﾁﾝｸﾞ
 10
0.0
 20
0.0
  0
INSERT
  2
*HAT_0012
  8
ﾊｯﾁﾝｸﾞ
 10
0.0
 20
0.0
  0
INSERT
  2
*HAT_0013
  8
ﾊｯﾁﾝｸﾞ
 10
0.0
 20
0.0
  0
INSERT
  2
*HAT_0014
  8
ﾊｯﾁﾝｸﾞ
 10
0.0
 20
0.0
  0
INSERT
  2
*HAT_0015
  8
ﾊｯﾁﾝｸﾞ
 10
0.0
 20
0.0
  0
INSERT
  2
*GRP_0031
  8
別途部材
  6
CONTINUOUS
 10
0.0
 20
0.0
  0
INSERT
  2
*GRP_0035
  8
別途部材
  6
CONTINUOUS
 10
0.0
 20
0.0
  0
INSERT
  2
*GRP_0045
  8
別途部材
  6
CONTINUOUS
 10
0.0
 20
0.0
  0
INSERT
  2
*GRP_0046
  8
別途部材
  6
CONTINUOUS
 10
0.0
 20
0.0
  0
INSERT
  2
*GRP_0032
  8
曲げ物
  6
DASHDOT
 10
0.0
 20
0.0
  0
INSERT
  2
*GRP_0036
  8
曲げ物
  6
DASHDOT
 10
0.0
 20
0.0
  0
LINE
  8
St
  6
CONTINUOUS
 10
111.153197
 20
-69.85573
 11
111.153197
 21
-70.922397
  0
INSERT
  2
*GRP_0017
  8
St
  6
CONTINUOUS
 10
0.0
 20
0.0
  0
LINE
  8
St
  6
CONTINUOUS
 10
-120.017658
 20
-69.85573
 11
-120.017658
 21
-70.922397
  0
INSERT
  2
*GRP_0018
  8
St
  6
CONTINUOUS
 10
0.0
 20
0.0
  0
LINE
  8
St
  6
CONTINUOUS
 10
12.234438
 20
-29.922397
 11
5.134438
 21
-29.922397
  0
LINE
  8
St
  6
CONTINUOUS
 10
-13.998898
 20
-29.922397
 11
-21.098898
 21
-29.922397
  0
LINE
  8
St
  6
DOT
 10
5.134438
 20
-29.922397
 11
-14.062283
 21
-29.922397
  0
LINE
  8
St
  6
CONTINUOUS
 10
12.234438
 20
-29.922397
 11
12.234438
 21
-33.922395
  0
LINE
  8
St
  6
DOT
 10
12.234438
 20
-33.922395
 11
12.234438
 21
-35.589062
  0
LINE
  8
St
  6
CONTINUOUS
 10
-21.098898
 20
-29.922397
 11
-21.098898
 21
-33.922395
  0
LINE
  8
St
  6
DOT
 10
-21.098898
 20
-33.922395
 11
-21.098898
 21
-35.589062
  0
LINE
  8
St
  6
DOT
 10
12.234438
 20
-35.589062
 11
-21.098898
 21
-35.589062
  0
INSERT
  2
*GRP_0091
  8
St
  6
DOT
 10
0.0
 20
0.0
  0
INSERT
  2
*GRP_0092
  8
St
  6
DOT
 10
0.0
 20
0.0
  0
LINE
  8
St
  6
CONTINUOUS
 10
12.234445
 20
-89.420285
 11
5.134445
 21
-89.420285
  0
LINE
  8
St
  6
CONTINUOUS
 10
-13.99889
 20
-89.420285
 11
-21.09889
 21
-89.420285
  0
LINE
  8
St
  6
DOT
 10
5.134445
 20
-89.420285
 11
-14.062275
 21
-89.420285
  0
LINE
  8
St
  6
CONTINUOUS
 10
12.234445
 20
-89.420285
 11
12.234445
 21
-93.420283
  0
LINE
  8
St
  6
DOT
 10
12.234445
 20
-93.420283
 11
12.234445
 21
-95.08695
  0
LINE
  8
St
  6
CONTINUOUS
 10
-21.09889
 20
-89.420285
 11
-21.09889
 21
-93.420283
  0
LINE
  8
St
  6
DOT
 10
-21.09889
 20
-93.420283
 11
-21.09889
 21
-95.08695
  0
LINE
  8
St
  6
DOT
 10
12.234445
 20
-95.08695
 11
-21.09889
 21
-95.08695
  0
LINE
  8
その他部品等
  6
CONTINUOUS
 10
-98.350778
 20
-50.922393
 11
-98.350778
 21
-55.922393
  0
LINE
  8
その他部品等
  6
CONTINUOUS
 10
-95.818435
 20
-50.922393
 11
-95.818435
 21
-55.577855
  0
LINE
  8
その他部品等
  6
CONTINUOUS
 10
-93.88421
 20
-55.314695
 11
-95.818435
 21
-50.922393
  0
INSERT
  2
*HAT_0016
  8
その他部品等
 10
0.0
 20
0.0
  0
LINE
  8
その他部品等
  6
CONTINUOUS
 10
89.486318
 20
-50.922393
 11
89.486318
 21
-55.922393
  0
LINE
  8
その他部品等
  6
CONTINUOUS
 10
86.953975
 20
-50.922393
 11
86.953975
 21
-55.577855
  0
LINE
  8
その他部品等
  6
CONTINUOUS
 10
85.01975
 20
-55.314695
 11
86.953975
 21
-50.922393
  0
LINE
  8
その他部品等
  6
CONTINUOUS
 10
122.286457
 20
-80.457553
 11
116.15324
 21
-80.457553
  0
LINE
  8
その他部品等
  6
CONTINUOUS
 10
122.286457
 20
-77.790885
 11
116.15324
 21
-77.790885
  0
LINE
  8
その他部品等
  6
CONTINUOUS
 10
116.15324
 20
-75.12422
 11
121.119758
 21
-75.12422
  0
LINE
  8
その他部品等
  6
CONTINUOUS
 10
121.119758
 20
-75.12422
 11
121.119758
 21
-77.790885
  0
LINE
  8
その他部品等
  6
CONTINUOUS
 10
121.119758
 20
-75.12422
 11
116.15324
 21
-77.790885
  0
INSERT
  2
*HAT_0017
  8
その他部品等
 10
0.0
 20
0.0
  0
INSERT
  2
*HAT_0018
  8
その他部品等
 10
0.0
 20
0.0
  0
LINE
  8
その他部品等
  6
CONTINUOUS
 10
-131.150918
 20
-80.457553
 11
-125.0177
 21
-80.457553
  0
LINE
  8
その他部品等
  6
CONTINUOUS
 10
-131.150918
 20
-77.790885
 11
-125.0177
 21
-77.790885
  0
LINE
  8
その他部品等
  6
CONTINUOUS
 10
-125.0177
 20
-75.12422
 11
-129.984217
 21
-75.12422
  0
LINE
  8
その他部品等
  6
CONTINUOUS
 10
-129.984217
 20
-75.12422
 11
-129.984217
 21
-77.790885
  0
LINE
  8
その他部品等
  6
CONTINUOUS
 10
-129.984217
 20
-75.12422
 11
-125.0177
 21
-77.790885
  0
INSERT
  2
*HAT_0019
  8
その他部品等
 10
0.0
 20
0.0
  0
LINE
  8
その他部品等
  6
CONTINUOUS
 10
-63.148815
 20
-21.0557
 11
-62.03671
 21
-18.822378
  0
LINE
  8
その他部品等
  6
CONTINUOUS
 10
-62.03671
 20
-18.822378
 11
-62.03671
 21
-21.655728
  0
LINE
  8
その他部品等
  6
CONTINUOUS
 10
-59.815485
 20
-18.822378
 11
-59.815485
 21
-21.655728
  0
LINE
  8
その他部品等
  6
CONTINUOUS
 10
-63.148815
 20
-21.655728
 11
-63.148815
 21
-18.422378
  0
LINE
  8
その他部品等
  6
CONTINUOUS
 10
54.284355
 20
-21.0557
 11
53.17225
 21
-18.822378
  0
LINE
  8
その他部品等
  6
CONTINUOUS
 10
53.17225
 20
-18.822378
 11
53.17225
 21
-21.655728
  0
LINE
  8
その他部品等
  6
CONTINUOUS
 10
50.951025
 20
-18.822378
 11
50.951025
 21
-21.655728
  0
LINE
  8
その他部品等
  6
CONTINUOUS
 10
54.284355
 20
-21.655728
 11
54.284355
 21
-18.422378
  0
LINE
  8
その他部品等
  6
CONTINUOUS
 10
7.23441
 20
-21.655728
 11
7.23441
 21
-18.722362
  0
LINE
  8
その他部品等
  6
CONTINUOUS
 10
4.567742
 20
-21.655728
 11
4.567742
 21
-18.489027
  0
LINE
  8
その他部品等
  6
CONTINUOUS
 10
3.359787
 20
-21.655728
 11
3.359787
 21
-18.489027
  0
LINE
  8
その他部品等
  6
CONTINUOUS
 10
4.567742
 20
-18.489027
 11
3.359787
 21
-21.655728
  0
LINE
  8
その他部品等
  6
CONTINUOUS
 10
-16.09887
 20
-21.655728
 11
-16.09887
 21
-18.722362
  0
LINE
  8
その他部品等
  6
CONTINUOUS
 10
-13.432203
 20
-21.655728
 11
-13.432203
 21
-18.489027
  0
LINE
  8
その他部品等
  6
CONTINUOUS
 10
-12.224248
 20
-21.655728
 11
-12.224248
 21
-18.489027
  0
LINE
  8
その他部品等
  6
CONTINUOUS
 10
-13.432203
 20
-18.489027
 11
-12.224248
 21
-21.655728
  0
LINE
  8
その他部品等
  6
CONTINUOUS
 10
7.234418
 20
-81.153615
 11
7.234418
 21
-78.22025
  0
LINE
  8
その他部品等
  6
CONTINUOUS
 10
4.56775
 20
-81.153615
 11
4.56775
 21
-77.986915
  0
LINE
  8
その他部品等
  6
CONTINUOUS
 10
3.359795
 20
-81.153615
 11
3.359795
 21
-77.986915
  0
LINE
  8
その他部品等
  6
CONTINUOUS
 10
4.56775
 20
-77.986915
 11
3.359795
 21
-81.153615
  0
LINE
  8
その他部品等
  6
CONTINUOUS
 10
-16.098862
 20
-81.153615
 11
-16.098862
 21
-78.22025
  0
LINE
  8
その他部品等
  6
CONTINUOUS
 10
-13.432195
 20
-81.153615
 11
-13.432195
 21
-77.986915
  0
LINE
  8
その他部品等
  6
CONTINUOUS
 10
-12.22424
 20
-81.153615
 11
-12.22424
 21
-77.986915
  0
LINE
  8
その他部品等
  6
CONTINUOUS
 10
-13.432195
 20
-77.986915
 11
-12.22424
 21
-81.153615
  0
CIRCLE
  8
LAYER010
  6
CONTINUOUS
 62
     7
 10
-98.350782
 20
-45.92242
 40
0.11111
  0
CIRCLE
  8
LAYER010
  6
CONTINUOUS
 62
     7
 10
89.486322
 20
-45.92242
 40
0.11111
  0
ENDSEC
  0
EOF
