  0
SECTION
  2
HEADER
  9
$EXTMIN
 10
-210.0
 20
-148.5
  9
$EXTMAX
 10
210.0
 20
148.5
  9
$PDMODE
 70
    32
  9
$PDSIZE
 40
1.5
  9
$LTSCALE
 40
10.0
  0
ENDSEC
  0
SECTION
  2
TABLES
  0
TABLE
  2
LTYPE
 70
    15
  0
LTYPE
  2
CONTINUOUS
 70
    64
  3
実線
 72
    65
 73
     0
 40
0.0
  0
LTYPE
  2
DASHED
 70
    64
  3
破線A
 72
    65
 73
     2
 40
0.6
 49
0.4
 49
-0.2
  0
LTYPE
  2
DASHEDX2
 70
    64
  3
破線B
 72
    65
 73
     2
 40
1.3
 49
0.9
 49
-0.4
  0
LTYPE
  2
DASHDOT
 70
    64
  3
１点鎖線A
 72
    65
 73
     4
 40
0.5375
 49
0.375
 49
-0.05
 49
0.0625
 49
-0.05
  0
LTYPE
  2
DASHDOTX2
 70
    64
  3
１点鎖線B
 72
    65
 73
     4
 40
1.075
 49
0.75
 49
-0.1
 49
0.125
 49
-0.1
  0
LTYPE
  2
DIVIDE2
 70
    64
  3
２点鎖線A
 72
    65
 73
     6
 40
0.5125
 49
0.3
 49
-0.0375
 49
0.05
 49
-0.0375
 49
0.05
 49
-0.0375
  0
LTYPE
  2
DIVIDE
 70
    64
  3
２点鎖線B
 72
    65
 73
     6
 40
1.05
 49
0.55
 49
-0.1
 49
0.1
 49
-0.1
 49
0.1
 49
-0.1
  0
LTYPE
  2
DOT
 70
    64
  3
点線A
 72
    65
 73
     2
 40
0.1125
 49
0.0625
 49
-0.05
  0
LTYPE
  2
DOTX2
 70
    64
  3
点線B
 72
    65
 73
     2
 40
0.275
 49
0.15
 49
-0.125
  0
LTYPE
  2
CONTINUOUS
 70
    64
  3
実線
 72
    65
 73
     0
 40
0.0
  0
LTYPE
  2
CONTINUOUS
 70
    64
  3
実線
 72
    65
 73
     0
 40
0.0
  0
LTYPE
  2
CONTINUOUS
 70
    64
  3
実線
 72
    65
 73
     0
 40
0.0
  0
LTYPE
  2
CONTINUOUS
 70
    64
  3
実線
 72
    65
 73
     0
 40
0.0
  0
LTYPE
  2
CONTINUOUS
 70
    64
  3
実線
 72
    65
 73
     0
 40
0.0
  0
LTYPE
  2
CONTINUOUS
 70
    64
  3
実線
 72
    65
 73
     0
 40
0.0
  0
ENDTAB
  0
TABLE
  2
LAYER
 70
    36
  0
LAYER
  2
通り芯
 70
     0
 62
    15
  6
CONTINUOUS
  0
LAYER
  2
補助線
 70
     0
 62
    16
  6
DOT
  0
LAYER
  2
躯体
 70
     0
 62
    31
  6
CONTINUOUS
  0
LAYER
  2
型材
 70
     0
 62
    32
  6
CONTINUOUS
  0
LAYER
  2
型材断面
 70
     0
 62
    47
  6
CONTINUOUS
  0
LAYER
  2
ガラス
 70
     0
 62
    48
  6
CONTINUOUS
  0
LAYER
  2
ゴム等
 70
     0
 62
    63
  6
CONTINUOUS
  0
LAYER
  2
ボルト／ビス
 70
     0
 62
    64
  6
CONTINUOUS
  0
LAYER
  2
文字
 70
     0
 62
    79
  6
CONTINUOUS
  0
LAYER
  2
寸法
 70
     0
 62
    80
  6
CONTINUOUS
  0
LAYER
  2
ﾊｯﾁﾝｸﾞ
 70
     0
 62
    95
  6
CONTINUOUS
  0
LAYER
  2
別途部材
 70
     0
 62
    96
  6
CONTINUOUS
  0
LAYER
  2
曲げ物
 70
     0
 62
   111
  6
CONTINUOUS
  0
LAYER
  2
鉄骨等
 70
     0
 62
   112
  6
CONTINUOUS
  0
LAYER
  2
St
 70
     0
 62
   127
  6
CONTINUOUS
  0
LAYER
  2
その他部品等
 70
     0
 62
   128
  6
CONTINUOUS
  0
LAYER
  2
ｶﾞｽｹｯﾄ
 70
     0
 62
   143
  6
CONTINUOUS
  0
LAYER
  2
ｽｹｯﾁ
 70
     0
 62
    14
  6
CONTINUOUS
  0
LAYER
  2
0
 70
     0
 62
    17
  6
CONTINUOUS
  0
LAYER
  2
1
 70
     0
 62
    30
  6
CONTINUOUS
  0
LAYER
  2
4
 70
     0
 62
    33
  6
CONTINUOUS
  0
LAYER
  2
ﾚｲﾔ3
 70
     0
 62
    46
  6
CONTINUOUS
  0
LAYER
  2
外形線
 70
     0
 62
    49
  6
CONTINUOUS
  0
LAYER
  2
部品
 70
     0
 62
    14
  6
CONTINUOUS
  0
LAYER
  2
サッシ芯
 70
     0
 62
    17
  6
DASHDOTX2
  0
LAYER
  2
寸法線
 70
     0
 62
    62
  6
CONTINUOUS
  0
LAYER
  2
姿図外形線
 70
     0
 62
    65
  6
CONTINUOUS
  0
LAYER
  2
姿補助線
 70
     0
 62
    30
  6
CONTINUOUS
  0
LAYER
  2
透視線
 70
     0
 62
    78
  6
DOT
  0
LAYER
  2
用紙
 70
     0
 62
    81
  6
CONTINUOUS
  0
LAYER
  2
実線図枠
 70
     0
 62
    94
  6
CONTINUOUS
  0
LAYER
  2
補助図枠
 70
     0
 62
    97
  6
CONTINUOUS
  0
LAYER
  2
建具記号
 70
     0
 62
   110
  6
CONTINUOUS
  0
LAYER
  2
補助文字
 70
     0
 62
   113
  6
CONTINUOUS
  0
LAYER
  2
LAYER001
 70
     0
 62
     7
  6
CONTINUOUS
  0
LAYER
  2
LAYER010
 70
     0
 62
    11
  6
CONTINUOUS
  0
ENDTAB
  0
TABLE
  2
STYLE
 70
    10
  0
STYLE
  2
STANDARD
 70
     0
 40
1.0
 41
1.0
 42
1.0
 50
0.0
 71
     0
  3
TXT
  4
BIGFONT
  0
STYLE
  2
TATE
 70
     4
 40
1.0
 41
1.0
 42
1.0
 50
0.0
 71
     0
  3
TXT
  4
BIGFONT
  0
STYLE
  2
TextStyle03
 70
     0
 40
1.0
 41
1.0
 42
1.0
 50
0.0
 71
     0
  3
MONOTXT
  4
BIGFONT
  0
STYLE
  2
TextStyle04
 70
     0
 40
1.0
 41
1.0
 42
1.0
 50
0.0
 71
     0
  3
MONOTXT
  4
BIGFONT
  0
STYLE
  2
TextStyle05
 70
     0
 40
1.0
 41
1.0
 42
1.0
 50
0.0
 71
     0
  3
MONOTXT
  4
BIGFONT
  0
STYLE
  2
TextStyle06
 70
     0
 40
1.0
 41
1.0
 42
1.0
 50
0.0
 71
     0
  3
MONOTXT
  4
BIGFONT
  0
STYLE
  2
TextStyle07
 70
     0
 40
1.0
 41
1.0
 42
1.0
 50
0.0
 71
     0
  3
MONOTXT
  4
BIGFONT
  0
STYLE
  2
TextStyle08
 70
     0
 40
1.0
 41
1.0
 42
1.0
 50
0.0
 71
     0
  3
MONOTXT
  4
BIGFONT
  0
STYLE
  2
TextStyle09
 70
     0
 40
1.0
 41
1.0
 42
1.0
 50
0.0
 71
     0
  3
MONOTXT
  4
BIGFONT
  0
STYLE
  2
TextStyle10
 70
     0
 40
1.0
 41
1.0
 42
1.0
 50
0.0
 71
     0
  3
MONOTXT
  4
BIGFONT
  0
ENDTAB
  0
ENDSEC
  0
SECTION
  2
BLOCKS
  0
BLOCK
  2
*HAT_0001
 70
    65
 10
0.0
 20
0.0
  0
LINE
  8
ゴム等
 10
-7.25
 20
-3.75
 11
-6.2
 21
-4.8
  0
LINE
  8
ゴム等
 10
-7.25
 20
-1.8
 11
-4.325
 21
-4.8
  0
LINE
  8
ゴム等
 10
-7.25
 20
0.075
 11
-2.45
 21
-4.8
  0
LINE
  8
ゴム等
 10
-7.25
 20
1.95
 11
-0.8
 21
-4.575
  0
LINE
  8
ゴム等
 10
-6.65
 20
3.15
 11
-0.8
 21
-2.7
  0
LINE
  8
ゴム等
 10
-4.775
 20
3.15
 11
-0.8
 21
-0.75
  0
LINE
  8
ゴム等
 10
-2.9
 20
3.15
 11
-0.8
 21
1.05
  0
LINE
  8
ゴム等
 10
-0.95
 20
3.15
 11
-0.8
 21
3.0
  0
ENDBLK
  0
BLOCK
  2
*HAT_0002
 70
    65
 10
0.0
 20
0.0
  0
LINE
  8
ﾊｯﾁﾝｸﾞ
 10
1.75
 20
21.825
 11
3.1
 21
23.175
  0
LINE
  8
ﾊｯﾁﾝｸﾞ
 10
-1.025
 20
21.825
 11
3.1
 21
25.95
  0
LINE
  8
ﾊｯﾁﾝｸﾞ
 10
-3.575
 20
22.125
 11
3.1
 21
28.8
  0
LINE
  8
ﾊｯﾁﾝｸﾞ
 10
-3.575
 20
24.975
 11
1.825
 21
30.3
  0
LINE
  8
ﾊｯﾁﾝｸﾞ
 10
-3.575
 20
27.75
 11
-1.025
 21
30.3
  0
LINE
  8
ﾊｯﾁﾝｸﾞ
 10
-3.575
 20
24.45
 11
-1.025
 21
21.825
  0
LINE
  8
ﾊｯﾁﾝｸﾞ
 10
-3.575
 20
27.225
 11
1.825
 21
21.825
  0
LINE
  8
ﾊｯﾁﾝｸﾞ
 10
-3.575
 20
30.075
 11
3.1
 21
23.4
  0
LINE
  8
ﾊｯﾁﾝｸﾞ
 10
-1.025
 20
30.3
 11
3.1
 21
26.25
  0
LINE
  8
ﾊｯﾁﾝｸﾞ
 10
1.825
 20
30.3
 11
3.1
 21
29.025
  0
ENDBLK
  0
BLOCK
  2
*HAT_0003
 70
    65
 10
0.0
 20
0.0
  0
LINE
  8
ﾊｯﾁﾝｸﾞ
 10
154.95
 20
22.05
 11
156.45
 21
23.55
  0
LINE
  8
ﾊｯﾁﾝｸﾞ
 10
152.125
 20
22.05
 11
156.45
 21
26.375
  0
LINE
  8
ﾊｯﾁﾝｸﾞ
 10
149.775
 20
22.55
 11
156.45
 21
29.2
  0
LINE
  8
ﾊｯﾁﾝｸﾞ
 10
149.775
 20
25.375
 11
154.775
 21
30.35
  0
LINE
  8
ﾊｯﾁﾝｸﾞ
 10
149.775
 20
28.2
 11
151.95
 21
30.35
  0
LINE
  8
ﾊｯﾁﾝｸﾞ
 10
149.775
 20
22.675
 11
150.4
 21
22.05
  0
LINE
  8
ﾊｯﾁﾝｸﾞ
 10
149.775
 20
25.5
 11
153.225
 21
22.05
  0
LINE
  8
ﾊｯﾁﾝｸﾞ
 10
149.775
 20
28.325
 11
156.05
 21
22.05
  0
LINE
  8
ﾊｯﾁﾝｸﾞ
 10
150.575
 20
30.35
 11
156.425
 21
24.5
  0
LINE
  8
ﾊｯﾁﾝｸﾞ
 10
153.4
 20
30.35
 11
156.425
 21
27.325
  0
LINE
  8
ﾊｯﾁﾝｸﾞ
 10
156.225
 20
30.375
 11
156.425
 21
30.15
  0
ENDBLK
  0
BLOCK
  2
*HAT_0004
 70
    65
 10
0.0
 20
0.0
  0
LINE
  8
その他部品等
 10
5.2
 20
-36.4
 11
5.5
 21
-36.1
  0
LINE
  8
その他部品等
 10
2.125
 20
-36.925
 11
5.5
 21
-33.55
  0
LINE
  8
その他部品等
 10
-0.875
 20
-37.375
 11
3.1
 21
-33.4
  0
LINE
  8
その他部品等
 10
-3.95
 20
-37.9
 11
0.025
 21
-33.925
  0
LINE
  8
その他部品等
 10
-7.025
 20
-38.425
 11
-3.05
 21
-34.45
  0
LINE
  8
その他部品等
 10
-10.1
 20
-38.95
 11
-6.05
 21
-34.975
  0
LINE
  8
その他部品等
 10
-13.175
 20
-39.475
 11
-9.125
 21
-35.5
  0
LINE
  8
その他部品等
 10
-16.175
 20
-40.0
 11
-12.2
 21
-36.025
  0
LINE
  8
その他部品等
 10
-19.25
 20
-40.525
 11
-15.275
 21
-36.55
  0
LINE
  8
その他部品等
 10
-22.325
 20
-41.05
 11
-18.35
 21
-37.0
  0
LINE
  8
その他部品等
 10
-25.4
 20
-41.575
 11
-21.425
 21
-37.525
  0
LINE
  8
その他部品等
 10
-28.475
 20
-42.1
 11
-24.425
 21
-38.05
  0
LINE
  8
その他部品等
 10
-31.475
 20
-42.55
 11
-27.5
 21
-38.575
  0
LINE
  8
その他部品等
 10
-34.55
 20
-43.075
 11
-30.575
 21
-39.1
  0
LINE
  8
その他部品等
 10
-37.625
 20
-43.6
 11
-33.65
 21
-39.625
  0
LINE
  8
その他部品等
 10
-40.7
 20
-44.125
 11
-36.725
 21
-40.15
  0
LINE
  8
その他部品等
 10
-43.775
 20
-44.65
 11
-39.725
 21
-40.675
  0
LINE
  8
その他部品等
 10
-46.775
 20
-45.175
 11
-42.8
 21
-41.2
  0
LINE
  8
その他部品等
 10
-49.85
 20
-45.7
 11
-45.875
 21
-41.725
  0
LINE
  8
その他部品等
 10
-52.925
 20
-46.225
 11
-48.95
 21
-42.25
  0
LINE
  8
その他部品等
 10
-56.0
 20
-46.75
 11
-52.025
 21
-42.775
  0
LINE
  8
その他部品等
 10
-59.075
 20
-47.275
 11
-55.025
 21
-43.3
  0
LINE
  8
その他部品等
 10
-62.15
 20
-47.8
 11
-58.1
 21
-43.75
  0
LINE
  8
その他部品等
 10
-65.15
 20
-48.325
 11
-61.175
 21
-44.275
  0
LINE
  8
その他部品等
 10
-68.225
 20
-48.85
 11
-64.25
 21
-44.8
  0
LINE
  8
その他部品等
 10
-71.3
 20
-49.375
 11
-67.325
 21
-45.325
  0
LINE
  8
その他部品等
 10
-74.375
 20
-49.825
 11
-70.325
 21
-45.85
  0
LINE
  8
その他部品等
 10
-77.45
 20
-50.35
 11
-73.4
 21
-46.375
  0
LINE
  8
その他部品等
 10
-80.45
 20
-50.875
 11
-76.475
 21
-46.9
  0
LINE
  8
その他部品等
 10
-83.525
 20
-51.4
 11
-79.55
 21
-47.425
  0
LINE
  8
その他部品等
 10
-86.6
 20
-51.925
 11
-82.625
 21
-47.95
  0
LINE
  8
その他部品等
 10
-89.675
 20
-52.45
 11
-85.625
 21
-48.475
  0
LINE
  8
その他部品等
 10
-92.75
 20
-52.975
 11
-88.7
 21
-49.0
  0
LINE
  8
その他部品等
 10
-95.75
 20
-53.5
 11
-91.775
 21
-49.45
  0
LINE
  8
その他部品等
 10
-108.8
 20
-64.0
 11
-107.525
 21
-62.65
  0
LINE
  8
その他部品等
 10
-98.825
 20
-54.025
 11
-94.85
 21
-49.975
  0
LINE
  8
その他部品等
 10
-110.525
 20
-63.175
 11
-107.525
 21
-60.175
  0
LINE
  8
その他部品等
 10
-110.525
 20
-60.625
 11
-107.525
 21
-57.625
  0
LINE
  8
その他部品等
 10
-101.9
 20
-54.55
 11
-97.925
 21
-50.5
  0
LINE
  8
その他部品等
 10
-104.975
 20
-55.075
 11
-100.925
 21
-51.025
  0
LINE
  8
その他部品等
 10
-110.525
 20
-58.075
 11
-104.0
 21
-51.55
  0
LINE
  8
その他部品等
 10
-110.525
 20
-55.525
 11
-107.075
 21
-52.075
  0
LINE
  8
その他部品等
 10
-110.525
 20
-52.975
 11
-110.15
 21
-52.6
  0
LINE
  8
その他部品等
 10
-110.525
 20
-61.6
 11
-108.125
 21
-64.0
  0
LINE
  8
その他部品等
 10
-110.525
 20
-59.05
 11
-107.525
 21
-62.05
  0
LINE
  8
その他部品等
 10
-110.525
 20
-56.5
 11
-107.525
 21
-59.5
  0
LINE
  8
その他部品等
 10
-110.525
 20
-53.95
 11
-107.525
 21
-56.95
  0
LINE
  8
その他部品等
 10
-109.475
 20
-52.45
 11
-106.4
 21
-55.525
  0
LINE
  8
その他部品等
 10
-107.3
 20
-52.075
 11
-104.45
 21
-54.925
  0
LINE
  8
その他部品等
 10
-105.125
 20
-51.775
 11
-102.275
 21
-54.55
  0
LINE
  8
その他部品等
 10
-102.95
 20
-51.4
 11
-100.1
 21
-54.25
  0
LINE
  8
その他部品等
 10
-100.775
 20
-51.025
 11
-97.925
 21
-53.875
  0
LINE
  8
その他部品等
 10
-98.6
 20
-50.65
 11
-95.75
 21
-53.5
  0
LINE
  8
その他部品等
 10
-96.425
 20
-50.275
 11
-93.575
 21
-53.125
  0
LINE
  8
その他部品等
 10
-94.25
 20
-49.9
 11
-91.4
 21
-52.75
  0
LINE
  8
その他部品等
 10
-92.075
 20
-49.525
 11
-89.225
 21
-52.375
  0
LINE
  8
その他部品等
 10
-89.9
 20
-49.15
 11
-87.05
 21
-52.0
  0
LINE
  8
その他部品等
 10
-87.725
 20
-48.775
 11
-84.875
 21
-51.625
  0
LINE
  8
その他部品等
 10
-85.55
 20
-48.4
 11
-82.7
 21
-51.25
  0
LINE
  8
その他部品等
 10
-83.375
 20
-48.025
 11
-80.525
 21
-50.875
  0
LINE
  8
その他部品等
 10
-81.2
 20
-47.65
 11
-78.35
 21
-50.5
  0
LINE
  8
その他部品等
 10
-79.025
 20
-47.35
 11
-76.175
 21
-50.125
  0
LINE
  8
その他部品等
 10
-76.85
 20
-46.975
 11
-74.0
 21
-49.825
  0
LINE
  8
その他部品等
 10
-74.675
 20
-46.6
 11
-71.825
 21
-49.45
  0
LINE
  8
その他部品等
 10
-72.5
 20
-46.225
 11
-69.65
 21
-49.075
  0
LINE
  8
その他部品等
 10
-70.325
 20
-45.85
 11
-67.475
 21
-48.7
  0
LINE
  8
その他部品等
 10
-68.15
 20
-45.475
 11
-65.3
 21
-48.325
  0
LINE
  8
その他部品等
 10
-65.975
 20
-45.1
 11
-63.125
 21
-47.95
  0
LINE
  8
その他部品等
 10
-63.8
 20
-44.725
 11
-61.025
 21
-47.575
  0
LINE
  8
その他部品等
 10
-61.625
 20
-44.35
 11
-58.85
 21
-47.2
  0
LINE
  8
その他部品等
 10
-59.45
 20
-43.975
 11
-56.675
 21
-46.825
  0
LINE
  8
その他部品等
 10
-57.275
 20
-43.675
 11
-54.5
 21
-46.45
  0
LINE
  8
その他部品等
 10
-55.1
 20
-43.3
 11
-52.325
 21
-46.15
  0
LINE
  8
その他部品等
 10
-52.925
 20
-42.925
 11
-50.15
 21
-45.775
  0
LINE
  8
その他部品等
 10
-50.825
 20
-42.55
 11
-47.975
 21
-45.4
  0
LINE
  8
その他部品等
 10
-48.65
 20
-42.175
 11
-45.8
 21
-45.025
  0
LINE
  8
その他部品等
 10
-46.475
 20
-41.8
 11
-43.625
 21
-44.65
  0
LINE
  8
その他部品等
 10
-44.3
 20
-41.425
 11
-41.45
 21
-44.275
  0
LINE
  8
その他部品等
 10
-42.125
 20
-41.05
 11
-39.275
 21
-43.9
  0
LINE
  8
その他部品等
 10
-39.95
 20
-40.675
 11
-37.1
 21
-43.525
  0
LINE
  8
その他部品等
 10
-37.775
 20
-40.3
 11
-34.925
 21
-43.15
  0
LINE
  8
その他部品等
 10
-35.6
 20
-39.925
 11
-32.75
 21
-42.775
  0
LINE
  8
その他部品等
 10
-33.425
 20
-39.55
 11
-30.575
 21
-42.4
  0
LINE
  8
その他部品等
 10
-31.25
 20
-39.25
 11
-28.4
 21
-42.025
  0
LINE
  8
その他部品等
 10
-29.075
 20
-38.875
 11
-26.225
 21
-41.725
  0
LINE
  8
その他部品等
 10
-26.9
 20
-38.5
 11
-24.05
 21
-41.35
  0
LINE
  8
その他部品等
 10
-24.725
 20
-38.125
 11
-21.875
 21
-40.975
  0
LINE
  8
その他部品等
 10
-22.55
 20
-37.75
 11
-19.7
 21
-40.6
  0
LINE
  8
その他部品等
 10
-20.375
 20
-37.375
 11
-17.525
 21
-40.225
  0
LINE
  8
その他部品等
 10
-18.2
 20
-37.0
 11
-15.35
 21
-39.85
  0
LINE
  8
その他部品等
 10
-16.025
 20
-36.625
 11
-13.175
 21
-39.475
  0
LINE
  8
その他部品等
 10
-13.85
 20
-36.25
 11
-11.0
 21
-39.1
  0
LINE
  8
その他部品等
 10
-11.675
 20
-35.875
 11
-8.825
 21
-38.725
  0
LINE
  8
その他部品等
 10
-9.5
 20
-35.5
 11
-6.65
 21
-38.35
  0
LINE
  8
その他部品等
 10
-7.325
 20
-35.125
 11
-4.475
 21
-37.975
  0
LINE
  8
その他部品等
 10
-5.15
 20
-34.825
 11
-2.3
 21
-37.675
  0
LINE
  8
その他部品等
 10
-2.975
 20
-34.45
 11
-0.125
 21
-37.3
  0
LINE
  8
その他部品等
 10
-0.8
 20
-34.075
 11
2.05
 21
-36.925
  0
LINE
  8
その他部品等
 10
1.375
 20
-33.7
 11
4.225
 21
-36.55
  0
LINE
  8
その他部品等
 10
3.55
 20
-33.325
 11
5.5
 21
-35.275
  0
ENDBLK
  0
BLOCK
  2
*HAT_0005
 70
    65
 10
0.0
 20
0.0
  0
LINE
  8
その他部品等
 10
4.6
 20
-62.35
 11
5.5
 21
-61.525
  0
LINE
  8
その他部品等
 10
2.05
 20
-62.35
 11
5.5
 21
-58.975
  0
LINE
  8
その他部品等
 10
-0.5
 20
-62.35
 11
5.5
 21
-56.425
  0
LINE
  8
その他部品等
 10
-2.975
 20
-62.35
 11
5.5
 21
-53.875
  0
LINE
  8
その他部品等
 10
-5.525
 20
-62.35
 11
5.5
 21
-51.325
  0
LINE
  8
その他部品等
 10
-8.075
 20
-62.35
 11
5.5
 21
-48.775
  0
LINE
  8
その他部品等
 10
-10.625
 20
-62.35
 11
5.5
 21
-46.225
  0
LINE
  8
その他部品等
 10
-13.175
 20
-62.35
 11
5.5
 21
-43.75
  0
LINE
  8
その他部品等
 10
-13.775
 20
-60.475
 11
5.5
 21
-41.2
  0
LINE
  8
その他部品等
 10
-13.775
 20
-57.925
 11
5.5
 21
-38.65
  0
LINE
  8
その他部品等
 10
-13.775
 20
-55.375
 11
3.25
 21
-38.35
  0
LINE
  8
その他部品等
 10
-13.775
 20
-52.825
 11
0.175
 21
-38.875
  0
LINE
  8
その他部品等
 10
-13.775
 20
-50.275
 11
-2.825
 21
-39.325
  0
LINE
  8
その他部品等
 10
-13.775
 20
-47.725
 11
-5.9
 21
-39.85
  0
LINE
  8
その他部品等
 10
-13.775
 20
-45.175
 11
-8.975
 21
-40.375
  0
LINE
  8
その他部品等
 10
-13.775
 20
-42.7
 11
-12.05
 21
-40.9
  0
LINE
  8
その他部品等
 10
-13.775
 20
-61.75
 11
-13.175
 21
-62.35
  0
LINE
  8
その他部品等
 10
-13.775
 20
-59.2
 11
-10.625
 21
-62.35
  0
LINE
  8
その他部品等
 10
-13.775
 20
-56.65
 11
-8.075
 21
-62.35
  0
LINE
  8
その他部品等
 10
-13.775
 20
-54.1
 11
-5.525
 21
-62.35
  0
LINE
  8
その他部品等
 10
-13.775
 20
-51.55
 11
-2.975
 21
-62.35
  0
LINE
  8
その他部品等
 10
-13.775
 20
-49.0
 11
-0.425
 21
-62.35
  0
LINE
  8
その他部品等
 10
-13.775
 20
-46.45
 11
2.125
 21
-62.35
  0
LINE
  8
その他部品等
 10
-13.775
 20
-43.975
 11
4.6
 21
-62.35
  0
LINE
  8
その他部品等
 10
-13.775
 20
-41.425
 11
5.5
 21
-60.7
  0
LINE
  8
その他部品等
 10
-11.825
 20
-40.9
 11
5.5
 21
-58.15
  0
LINE
  8
その他部品等
 10
-9.65
 20
-40.525
 11
5.5
 21
-55.6
  0
LINE
  8
その他部品等
 10
-7.475
 20
-40.15
 11
5.5
 21
-53.05
  0
LINE
  8
その他部品等
 10
-5.3
 20
-39.775
 11
5.5
 21
-50.5
  0
LINE
  8
その他部品等
 10
-3.125
 20
-39.4
 11
5.5
 21
-47.95
  0
LINE
  8
その他部品等
 10
-0.95
 20
-39.025
 11
5.5
 21
-45.4
  0
LINE
  8
その他部品等
 10
1.225
 20
-38.65
 11
5.5
 21
-42.85
  0
LINE
  8
その他部品等
 10
3.4
 20
-38.275
 11
5.5
 21
-40.3
  0
ENDBLK
  0
BLOCK
  2
*GRP_0001
 70
    65
 10
0.0
 20
0.0
  0
LINE
  8
型材断面
  6
CONTINUOUS
 62
    47
 10
5.512745
 20
-63.920612
 11
5.512745
 21
-32.949017
  0
LINE
  8
型材断面
  6
CONTINUOUS
 62
    47
 10
-110.48746
 20
-52.610102
 11
5.512745
 21
-32.949017
  0
LINE
  8
型材断面
  6
CONTINUOUS
 62
    47
 10
-110.48746
 20
-52.610102
 11
-110.48746
 21
-63.920612
  0
LINE
  8
型材断面
  6
CONTINUOUS
 62
    47
 10
-97.487342
 20
-65.920488
 11
-112.487095
 21
-65.920488
  0
LINE
  8
型材断面
  6
CONTINUOUS
 62
    47
 10
-12.087145
 20
-63.920612
 11
5.512745
 21
-63.920612
  0
LINE
  8
型材断面
  6
CONTINUOUS
 62
    47
 10
-12.087145
 20
-65.920488
 11
7.512717
 21
-65.920488
  0
LINE
  8
型材断面
  6
CONTINUOUS
 62
    47
 10
-12.487315
 20
-65.520497
 11
-12.487315
 21
-64.32043
  0
LINE
  8
型材断面
  6
CONTINUOUS
 62
    47
 10
-87.887147
 20
-63.920612
 11
-110.48746
 21
-63.920612
  0
LINE
  8
型材断面
  6
CONTINUOUS
 62
    47
 10
-87.887147
 20
-65.920488
 11
-95.487198
 21
-65.920488
  0
LINE
  8
型材断面
  6
CONTINUOUS
 62
    47
 10
-87.48733
 20
-65.520497
 11
-87.48733
 21
-64.32043
  0
LINE
  8
型材断面
  6
CONTINUOUS
 62
    47
 10
-112.487095
 20
-65.920488
 11
-112.487095
 21
-50.920555
  0
LINE
  8
型材断面
  6
CONTINUOUS
 62
    47
 10
-112.487095
 20
-50.920555
 11
-24.48715
 21
-36.00514
  0
LINE
  8
型材断面
  6
CONTINUOUS
 62
    47
 10
-22.487327
 20
-35.66614
 11
5.512745
 21
-30.920515
  0
LINE
  8
型材断面
  6
CONTINUOUS
 62
    47
 10
-22.487327
 20
-27.920583
 11
-17.987522
 21
-27.920583
  0
LINE
  8
型材断面
  6
CONTINUOUS
 62
    47
 10
-17.987522
 20
-22.920572
 11
-19.187327
 21
-22.920572
  0
LINE
  8
型材断面
  6
CONTINUOUS
 62
    47
 10
-19.187327
 20
-22.920572
 11
-19.187327
 21
-25.920543
  0
LINE
  8
型材断面
  6
CONTINUOUS
 62
    47
 10
-19.187327
 20
-25.920543
 11
-22.487327
 21
-25.920543
  0
LINE
  8
型材断面
  6
CONTINUOUS
 62
    47
 10
-22.487327
 20
-27.920583
 11
-22.487327
 21
-35.66614
  0
LINE
  8
型材断面
  6
CONTINUOUS
 62
    47
 10
-17.987522
 20
-22.920572
 11
-17.987522
 21
-27.920583
  0
ARC
  8
型材断面
  6
CONTINUOUS
 62
    47
 10
-12.087145
 20
-64.320433
 40
0.4
 50
90.001373
 51
180.002747
  0
ARC
  8
型材断面
  6
CONTINUOUS
 62
    47
 10
-12.087145
 20
-65.520501
 40
0.4
 50
180.002747
 51
270.00412
  0
ARC
  8
型材断面
  6
CONTINUOUS
 62
    47
 10
-87.887147
 20
-64.320433
 40
0.4
 50
0.0
 51
90.001373
  0
ARC
  8
型材断面
  6
CONTINUOUS
 62
    47
 10
-87.887147
 20
-65.520501
 40
0.4
 50
270.00412
 51
360.0
  0
LINE
  8
型材断面
  6
CONTINUOUS
 62
    47
 10
-19.187327
 20
16.079203
 11
-17.987522
 21
16.079203
  0
LINE
  8
型材断面
  6
CONTINUOUS
 62
    47
 10
-19.187327
 20
14.079162
 11
-22.487327
 21
14.079162
  0
LINE
  8
型材断面
  6
CONTINUOUS
 62
    47
 10
-17.987522
 20
16.079203
 11
-24.48715
 21
16.079203
  0
LINE
  8
型材断面
  6
CONTINUOUS
 62
    47
 10
-24.48715
 20
14.079545
 11
-24.48715
 21
16.079203
  0
LINE
  8
型材断面
  6
CONTINUOUS
 62
    47
 10
-22.487327
 20
14.079545
 11
-19.187327
 21
14.079545
  0
LINE
  8
型材断面
  6
CONTINUOUS
 62
    47
 10
-22.487327
 20
-6.920575
 11
0.512652
 21
-6.920575
  0
LINE
  8
型材断面
  6
CONTINUOUS
 62
    47
 10
0.512652
 20
-6.920575
 11
0.512652
 21
-2.920622
  0
LINE
  8
型材断面
  6
CONTINUOUS
 62
    47
 10
0.512652
 20
-2.920622
 11
-0.687152
 21
-2.920622
  0
LINE
  8
型材断面
  6
CONTINUOUS
 62
    47
 10
-0.687152
 20
-4.920482
 11
-0.687152
 21
-2.920622
  0
LINE
  8
型材断面
  6
CONTINUOUS
 62
    47
 10
-15.487652
 20
-1.120683
 11
-11.487543
 21
-1.120683
  0
LINE
  8
型材断面
  6
CONTINUOUS
 62
    47
 10
-11.487543
 20
-1.120683
 11
-11.487543
 21
-4.920693
  0
LINE
  8
型材断面
  6
CONTINUOUS
 62
    47
 10
-12.98743
 20
-4.920693
 11
-12.98743
 21
-2.620683
  0
LINE
  8
型材断面
  6
CONTINUOUS
 62
    47
 10
-12.98743
 20
-2.620683
 11
-15.487652
 21
-2.620683
  0
LINE
  8
型材断面
  6
CONTINUOUS
 62
    47
 10
-15.487652
 20
-2.620683
 11
-15.487652
 21
-1.120683
  0
LINE
  8
型材断面
  6
CONTINUOUS
 62
    47
 10
-0.687152
 20
-4.920482
 11
-11.487543
 21
-4.920482
  0
LINE
  8
型材断面
  6
CONTINUOUS
 62
    47
 10
-12.98743
 20
-4.920693
 11
-22.487327
 21
-4.920693
  0
LINE
  8
型材断面
  6
CONTINUOUS
 62
    47
 10
-22.487327
 20
-25.920543
 11
-22.487327
 21
-6.920575
  0
LINE
  8
型材断面
  6
CONTINUOUS
 62
    47
 10
-22.487327
 20
14.079545
 11
-22.487327
 21
-4.920693
  0
LINE
  8
型材断面
  6
CONTINUOUS
 10
-17.987522
 20
11.079207
 11
-19.187327
 21
11.079207
  0
LINE
  8
型材断面
  6
CONTINUOUS
 62
    47
 10
-19.187327
 20
14.079162
 11
-19.187327
 21
11.079207
  0
LINE
  8
型材断面
  6
CONTINUOUS
 62
    47
 10
-27.08725
 20
7.77944
 11
-24.48715
 21
7.77944
  0
LINE
  8
型材断面
  6
CONTINUOUS
 62
    47
 10
-27.08725
 20
6.579508
 11
-24.48715
 21
6.579508
  0
LINE
  8
型材断面
  6
CONTINUOUS
 62
    47
 10
-27.487068
 20
6.979505
 11
-27.487068
 21
7.379495
  0
ARC
  8
型材断面
  6
CONTINUOUS
 62
    47
 10
-27.087253
 20
7.379493
 40
0.4
 50
90.001373
 51
180.002747
  0
ARC
  8
型材断面
  6
CONTINUOUS
 62
    47
 10
-27.087253
 20
6.9795
 40
0.4
 50
180.002747
 51
270.00412
  0
LINE
  8
型材断面
  6
CONTINUOUS
 62
    47
 10
-54.085638
 20
6.579508
 11
-58.68556
 21
6.579508
  0
LINE
  8
型材断面
  6
CONTINUOUS
 62
    47
 10
-54.085638
 20
7.77944
 11
-56.685805
 21
7.77944
  0
LINE
  8
型材断面
  6
CONTINUOUS
 62
    47
 10
-53.68582
 20
7.379495
 11
-53.68582
 21
6.979505
  0
ARC
  8
型材断面
  6
CONTINUOUS
 62
    47
 10
-54.085638
 20
6.9795
 40
0.4
 50
270.00412
 51
360.0
  0
ARC
  8
型材断面
  6
CONTINUOUS
 62
    47
 10
-54.085638
 20
7.379493
 40
0.4
 50
0.0
 51
90.001373
  0
LINE
  8
型材断面
  6
CONTINUOUS
 62
    47
 10
-24.48715
 20
-36.00514
 11
-24.48715
 21
6.579508
  0
LINE
  8
型材断面
  6
CONTINUOUS
 10
-24.48715
 20
11.079545
 11
-56.685805
 21
11.079545
  0
LINE
  8
型材断面
  6
CONTINUOUS
 62
    47
 10
-56.685805
 20
7.77944
 11
-56.685805
 21
11.079545
  0
LINE
  8
型材断面
  6
CONTINUOUS
 62
    47
 10
-24.48715
 20
7.77944
 11
-24.48715
 21
11.079545
  0
LINE
  8
型材断面
  6
CONTINUOUS
 10
-42.485755
 20
13.779545
 11
-42.185755
 21
14.079545
  0
LINE
  8
型材断面
  6
CONTINUOUS
 62
    47
 10
-24.48715
 20
14.079545
 11
-42.185755
 21
14.079545
  0
LINE
  8
型材断面
  6
CONTINUOUS
 10
-42.485755
 20
13.779545
 11
-42.785755
 21
14.079545
  0
LINE
  8
型材断面
  6
CONTINUOUS
 62
    47
 10
-42.785755
 20
14.079545
 11
-58.68556
 21
14.079545
  0
LINE
  8
型材断面
  6
CONTINUOUS
 10
-58.68556
 20
6.579508
 11
-58.68556
 21
14.079545
  0
LINE
  8
型材断面
  6
CONTINUOUS
 62
    47
 10
-95.487198
 20
-65.920488
 11
-95.487198
 21
-80.920488
  0
LINE
  8
型材断面
  6
CONTINUOUS
 10
-97.48738
 20
-80.920488
 11
-95.487198
 21
-80.920488
  0
LINE
  8
型材断面
  6
CONTINUOUS
 10
-97.18738
 20
-73.420488
 11
-97.48738
 21
-73.120488
  0
LINE
  8
型材断面
  6
CONTINUOUS
 10
-97.18738
 20
-73.420488
 11
-97.48738
 21
-73.720488
  0
LINE
  8
型材断面
  6
CONTINUOUS
 62
    47
 10
-97.487342
 20
-65.920488
 11
-97.487342
 21
-73.120525
  0
LINE
  8
型材断面
  6
CONTINUOUS
 62
    47
 10
-97.487342
 20
-73.72045
 11
-97.487342
 21
-80.920488
  0
LINE
  8
型材断面
  6
CONTINUOUS
 10
5.512745
 20
-21.920515
 11
7.512717
 21
-21.920515
  0
LINE
  8
型材断面
  6
CONTINUOUS
 62
    47
 10
5.512745
 20
-30.920515
 11
5.512745
 21
-21.920515
  0
LINE
  8
型材断面
  6
CONTINUOUS
 62
    47
 10
7.512717
 20
-65.920488
 11
7.512717
 21
-21.920515
  0
LINE
  8
型材断面
  6
CONTINUOUS
 10
-17.987522
 20
16.079203
 11
-17.987522
 21
11.079207
  0
CIRCLE
  8
LAYER010
  6
CONTINUOUS
 62
     7
 10
-112.487095
 20
-50.920555
 40
0.33333
  0
ENDBLK
  0
BLOCK
  2
*GRP_0002
 70
    65
 10
0.0
 20
0.0
  0
POLYLINE
  8
ガラス
  6
CONTINUOUS
 66
     1
 70
     4
  0
VERTEX
  8
ガラス
 10
-7.3
 20
-30.675
 70
     8
  0
VERTEX
  8
ガラス
 10
-7.2
 20
-30.65
 70
     8
  0
VERTEX
  8
ガラス
 10
-7.1
 20
-30.65
 70
     8
  0
VERTEX
  8
ガラス
 10
-7.0
 20
-30.65
 70
     8
  0
VERTEX
  8
ガラス
 10
-6.925
 20
-30.625
 70
     8
  0
VERTEX
  8
ガラス
 10
-6.825
 20
-30.625
 70
     8
  0
VERTEX
  8
ガラス
 10
-6.725
 20
-30.6
 70
     8
  0
VERTEX
  8
ガラス
 10
-6.65
 20
-30.6
 70
     8
  0
VERTEX
  8
ガラス
 10
-6.55
 20
-30.6
 70
     8
  0
VERTEX
  8
ガラス
 10
-6.475
 20
-30.6
 70
     8
  0
VERTEX
  8
ガラス
 10
-6.375
 20
-30.6
 70
     8
  0
VERTEX
  8
ガラス
 10
-6.275
 20
-30.6
 70
     8
  0
VERTEX
  8
ガラス
 10
-6.2
 20
-30.6
 70
     8
  0
VERTEX
  8
ガラス
 10
-6.1
 20
-30.6
 70
     8
  0
VERTEX
  8
ガラス
 10
-6.025
 20
-30.6
 70
     8
  0
VERTEX
  8
ガラス
 10
-5.95
 20
-30.625
 70
     8
  0
VERTEX
  8
ガラス
 10
-5.85
 20
-30.625
 70
     8
  0
VERTEX
  8
ガラス
 10
-5.775
 20
-30.65
 70
     8
  0
VERTEX
  8
ガラス
 10
-5.7
 20
-30.675
 70
     8
  0
VERTEX
  8
ガラス
 10
-5.6
 20
-30.7
 70
     8
  0
VERTEX
  8
ガラス
 10
-5.525
 20
-30.725
 70
     8
  0
VERTEX
  8
ガラス
 10
-5.45
 20
-30.75
 70
     8
  0
VERTEX
  8
ガラス
 10
-5.375
 20
-30.775
 70
     8
  0
VERTEX
  8
ガラス
 10
-5.3
 20
-30.825
 70
     8
  0
VERTEX
  8
ガラス
 10
-5.225
 20
-30.85
 70
     8
  0
VERTEX
  8
ガラス
 10
-5.175
 20
-30.9
 70
     8
  0
VERTEX
  8
ガラス
 10
-5.1
 20
-30.95
 70
     8
  0
VERTEX
  8
ガラス
 10
-5.025
 20
-31.0
 70
     8
  0
VERTEX
  8
ガラス
 10
-4.95
 20
-31.05
 70
     8
  0
VERTEX
  8
ガラス
 10
-4.9
 20
-31.1
 70
     8
  0
VERTEX
  8
ガラス
 10
-4.825
 20
-31.175
 70
     8
  0
VERTEX
  8
ガラス
 10
-4.75
 20
-31.225
 70
     8
  0
VERTEX
  8
ガラス
 10
-4.7
 20
-31.3
 70
     8
  0
VERTEX
  8
ガラス
 10
-4.625
 20
-31.35
 70
     8
  0
VERTEX
  8
ガラス
 10
-4.575
 20
-31.425
 70
     8
  0
VERTEX
  8
ガラス
 10
-4.5
 20
-31.5
 70
     8
  0
VERTEX
  8
ガラス
 10
-4.45
 20
-31.55
 70
     8
  0
VERTEX
  8
ガラス
 10
-4.375
 20
-31.625
 70
     8
  0
VERTEX
  8
ガラス
 10
-4.325
 20
-31.7
 70
     8
  0
VERTEX
  8
ガラス
 10
-4.25
 20
-31.775
 70
     8
  0
VERTEX
  8
ガラス
 10
-4.2
 20
-31.825
 70
     8
  0
SEQEND
  0
POLYLINE
  8
ガラス
  6
CONTINUOUS
 66
     1
 70
     4
  0
VERTEX
  8
ガラス
 10
-4.2
 20
-31.825
 70
     8
  0
VERTEX
  8
ガラス
 10
-4.25
 20
-31.85
 70
     8
  0
VERTEX
  8
ガラス
 10
-4.325
 20
-31.85
 70
     8
  0
VERTEX
  8
ガラス
 10
-4.375
 20
-31.85
 70
     8
  0
VERTEX
  8
ガラス
 10
-4.45
 20
-31.875
 70
     8
  0
VERTEX
  8
ガラス
 10
-4.5
 20
-31.875
 70
     8
  0
VERTEX
  8
ガラス
 10
-4.575
 20
-31.875
 70
     8
  0
VERTEX
  8
ガラス
 10
-4.625
 20
-31.875
 70
     8
  0
VERTEX
  8
ガラス
 10
-4.7
 20
-31.9
 70
     8
  0
VERTEX
  8
ガラス
 10
-4.75
 20
-31.9
 70
     8
  0
VERTEX
  8
ガラス
 10
-4.8
 20
-31.9
 70
     8
  0
VERTEX
  8
ガラス
 10
-4.875
 20
-31.925
 70
     8
  0
VERTEX
  8
ガラス
 10
-4.925
 20
-31.925
 70
     8
  0
VERTEX
  8
ガラス
 10
-5.0
 20
-31.95
 70
     8
  0
VERTEX
  8
ガラス
 10
-5.05
 20
-31.95
 70
     8
  0
VERTEX
  8
ガラス
 10
-5.125
 20
-31.95
 70
     8
  0
VERTEX
  8
ガラス
 10
-5.175
 20
-31.975
 70
     8
  0
VERTEX
  8
ガラス
 10
-5.225
 20
-31.975
 70
     8
  0
VERTEX
  8
ガラス
 10
-5.3
 20
-32.0
 70
     8
  0
VERTEX
  8
ガラス
 10
-5.35
 20
-32.0
 70
     8
  0
VERTEX
  8
ガラス
 10
-5.425
 20
-32.025
 70
     8
  0
VERTEX
  8
ガラス
 10
-5.475
 20
-32.05
 70
     8
  0
VERTEX
  8
ガラス
 10
-5.525
 20
-32.05
 70
     8
  0
VERTEX
  8
ガラス
 10
-5.6
 20
-32.075
 70
     8
  0
VERTEX
  8
ガラス
 10
-5.65
 20
-32.1
 70
     8
  0
VERTEX
  8
ガラス
 10
-5.7
 20
-32.1
 70
     8
  0
VERTEX
  8
ガラス
 10
-5.775
 20
-32.125
 70
     8
  0
VERTEX
  8
ガラス
 10
-5.825
 20
-32.15
 70
     8
  0
VERTEX
  8
ガラス
 10
-5.875
 20
-32.175
 70
     8
  0
VERTEX
  8
ガラス
 10
-5.95
 20
-32.175
 70
     8
  0
VERTEX
  8
ガラス
 10
-6.0
 20
-32.2
 70
     8
  0
VERTEX
  8
ガラス
 10
-6.05
 20
-32.225
 70
     8
  0
VERTEX
  8
ガラス
 10
-6.1
 20
-32.25
 70
     8
  0
VERTEX
  8
ガラス
 10
-6.175
 20
-32.275
 70
     8
  0
VERTEX
  8
ガラス
 10
-6.225
 20
-32.3
 70
     8
  0
VERTEX
  8
ガラス
 10
-6.275
 20
-32.325
 70
     8
  0
VERTEX
  8
ガラス
 10
-6.35
 20
-32.35
 70
     8
  0
VERTEX
  8
ガラス
 10
-6.4
 20
-32.375
 70
     8
  0
VERTEX
  8
ガラス
 10
-6.45
 20
-32.4
 70
     8
  0
VERTEX
  8
ガラス
 10
-6.5
 20
-32.425
 70
     8
  0
VERTEX
  8
ガラス
 10
-6.575
 20
-32.425
 70
     8
  0
SEQEND
  0
ARC
  8
ガラス
  6
CONTINUOUS
 10
-6.915605
 20
-31.540045
 40
0.955135
 50
112.264588
 51
292.264588
  0
ENDBLK
  0
BLOCK
  2
*GRP_0003
 70
    65
 10
0.0
 20
0.0
  0
POLYLINE
  8
ガラス
  6
CONTINUOUS
 66
     1
 70
     4
  0
VERTEX
  8
ガラス
 10
-19.475
 20
-32.725
 70
     8
  0
VERTEX
  8
ガラス
 10
-19.4
 20
-32.725
 70
     8
  0
VERTEX
  8
ガラス
 10
-19.3
 20
-32.725
 70
     8
  0
VERTEX
  8
ガラス
 10
-19.2
 20
-32.7
 70
     8
  0
VERTEX
  8
ガラス
 10
-19.125
 20
-32.7
 70
     8
  0
VERTEX
  8
ガラス
 10
-19.025
 20
-32.675
 70
     8
  0
VERTEX
  8
ガラス
 10
-18.925
 20
-32.675
 70
     8
  0
VERTEX
  8
ガラス
 10
-18.85
 20
-32.675
 70
     8
  0
VERTEX
  8
ガラス
 10
-18.75
 20
-32.675
 70
     8
  0
VERTEX
  8
ガラス
 10
-18.65
 20
-32.675
 70
     8
  0
VERTEX
  8
ガラス
 10
-18.575
 20
-32.65
 70
     8
  0
VERTEX
  8
ガラス
 10
-18.475
 20
-32.65
 70
     8
  0
VERTEX
  8
ガラス
 10
-18.4
 20
-32.675
 70
     8
  0
VERTEX
  8
ガラス
 10
-18.3
 20
-32.675
 70
     8
  0
VERTEX
  8
ガラス
 10
-18.225
 20
-32.675
 70
     8
  0
VERTEX
  8
ガラス
 10
-18.125
 20
-32.675
 70
     8
  0
VERTEX
  8
ガラス
 10
-18.05
 20
-32.7
 70
     8
  0
VERTEX
  8
ガラス
 10
-17.975
 20
-32.725
 70
     8
  0
VERTEX
  8
ガラス
 10
-17.875
 20
-32.725
 70
     8
  0
VERTEX
  8
ガラス
 10
-17.8
 20
-32.75
 70
     8
  0
VERTEX
  8
ガラス
 10
-17.725
 20
-32.775
 70
     8
  0
VERTEX
  8
ガラス
 10
-17.65
 20
-32.8
 70
     8
  0
VERTEX
  8
ガラス
 10
-17.575
 20
-32.85
 70
     8
  0
VERTEX
  8
ガラス
 10
-17.5
 20
-32.875
 70
     8
  0
VERTEX
  8
ガラス
 10
-17.425
 20
-32.925
 70
     8
  0
VERTEX
  8
ガラス
 10
-17.35
 20
-32.975
 70
     8
  0
VERTEX
  8
ガラス
 10
-17.3
 20
-33.025
 70
     8
  0
VERTEX
  8
ガラス
 10
-17.225
 20
-33.075
 70
     8
  0
VERTEX
  8
ガラス
 10
-17.15
 20
-33.125
 70
     8
  0
VERTEX
  8
ガラス
 10
-17.075
 20
-33.175
 70
     8
  0
VERTEX
  8
ガラス
 10
-17.025
 20
-33.25
 70
     8
  0
VERTEX
  8
ガラス
 10
-16.95
 20
-33.3
 70
     8
  0
VERTEX
  8
ガラス
 10
-16.9
 20
-33.35
 70
     8
  0
VERTEX
  8
ガラス
 10
-16.825
 20
-33.425
 70
     8
  0
VERTEX
  8
ガラス
 10
-16.775
 20
-33.5
 70
     8
  0
VERTEX
  8
ガラス
 10
-16.7
 20
-33.55
 70
     8
  0
VERTEX
  8
ガラス
 10
-16.65
 20
-33.625
 70
     8
  0
VERTEX
  8
ガラス
 10
-16.575
 20
-33.7
 70
     8
  0
VERTEX
  8
ガラス
 10
-16.525
 20
-33.775
 70
     8
  0
VERTEX
  8
ガラス
 10
-16.45
 20
-33.825
 70
     8
  0
VERTEX
  8
ガラス
 10
-16.4
 20
-33.9
 70
     8
  0
SEQEND
  0
POLYLINE
  8
ガラス
  6
CONTINUOUS
 66
     1
 70
     4
  0
VERTEX
  8
ガラス
 10
-16.4
 20
-33.9
 70
     8
  0
VERTEX
  8
ガラス
 10
-16.45
 20
-33.9
 70
     8
  0
VERTEX
  8
ガラス
 10
-16.525
 20
-33.925
 70
     8
  0
VERTEX
  8
ガラス
 10
-16.575
 20
-33.925
 70
     8
  0
VERTEX
  8
ガラス
 10
-16.65
 20
-33.925
 70
     8
  0
VERTEX
  8
ガラス
 10
-16.7
 20
-33.95
 70
     8
  0
VERTEX
  8
ガラス
 10
-16.75
 20
-33.95
 70
     8
  0
VERTEX
  8
ガラス
 10
-16.825
 20
-33.95
 70
     8
  0
VERTEX
  8
ガラス
 10
-16.875
 20
-33.95
 70
     8
  0
VERTEX
  8
ガラス
 10
-16.95
 20
-33.975
 70
     8
  0
VERTEX
  8
ガラス
 10
-17.0
 20
-33.975
 70
     8
  0
VERTEX
  8
ガラス
 10
-17.075
 20
-33.975
 70
     8
  0
VERTEX
  8
ガラス
 10
-17.125
 20
-34.0
 70
     8
  0
VERTEX
  8
ガラス
 10
-17.2
 20
-34.0
 70
     8
  0
VERTEX
  8
ガラス
 10
-17.25
 20
-34.025
 70
     8
  0
VERTEX
  8
ガラス
 10
-17.3
 20
-34.025
 70
     8
  0
VERTEX
  8
ガラス
 10
-17.375
 20
-34.05
 70
     8
  0
VERTEX
  8
ガラス
 10
-17.425
 20
-34.05
 70
     8
  0
VERTEX
  8
ガラス
 10
-17.5
 20
-34.075
 70
     8
  0
VERTEX
  8
ガラス
 10
-17.55
 20
-34.075
 70
     8
  0
VERTEX
  8
ガラス
 10
-17.6
 20
-34.1
 70
     8
  0
VERTEX
  8
ガラス
 10
-17.675
 20
-34.1
 70
     8
  0
VERTEX
  8
ガラス
 10
-17.725
 20
-34.125
 70
     8
  0
VERTEX
  8
ガラス
 10
-17.775
 20
-34.15
 70
     8
  0
VERTEX
  8
ガラス
 10
-17.85
 20
-34.15
 70
     8
  0
VERTEX
  8
ガラス
 10
-17.9
 20
-34.175
 70
     8
  0
VERTEX
  8
ガラス
 10
-17.95
 20
-34.2
 70
     8
  0
VERTEX
  8
ガラス
 10
-18.025
 20
-34.2
 70
     8
  0
VERTEX
  8
ガラス
 10
-18.075
 20
-34.225
 70
     8
  0
VERTEX
  8
ガラス
 10
-18.125
 20
-34.25
 70
     8
  0
VERTEX
  8
ガラス
 10
-18.2
 20
-34.275
 70
     8
  0
VERTEX
  8
ガラス
 10
-18.25
 20
-34.3
 70
     8
  0
VERTEX
  8
ガラス
 10
-18.3
 20
-34.325
 70
     8
  0
VERTEX
  8
ガラス
 10
-18.35
 20
-34.35
 70
     8
  0
VERTEX
  8
ガラス
 10
-18.425
 20
-34.375
 70
     8
  0
VERTEX
  8
ガラス
 10
-18.475
 20
-34.375
 70
     8
  0
VERTEX
  8
ガラス
 10
-18.525
 20
-34.4
 70
     8
  0
VERTEX
  8
ガラス
 10
-18.6
 20
-34.425
 70
     8
  0
VERTEX
  8
ガラス
 10
-18.65
 20
-34.45
 70
     8
  0
VERTEX
  8
ガラス
 10
-18.7
 20
-34.475
 70
     8
  0
VERTEX
  8
ガラス
 10
-18.75
 20
-34.5
 70
     8
  0
SEQEND
  0
ARC
  8
ガラス
  6
CONTINUOUS
 10
-19.110156
 20
-33.606853
 40
0.955135
 50
112.264588
 51
292.264588
  0
ENDBLK
  0
BLOCK
  2
*GRP_0004
 70
    65
 10
0.0
 20
0.0
  0
POLYLINE
  8
ガラス
  6
CONTINUOUS
 66
     1
 70
     4
  0
VERTEX
  8
ガラス
 10
-34.075
 20
-35.2
 70
     8
  0
VERTEX
  8
ガラス
 10
-34.0
 20
-35.2
 70
     8
  0
VERTEX
  8
ガラス
 10
-33.9
 20
-35.2
 70
     8
  0
VERTEX
  8
ガラス
 10
-33.8
 20
-35.175
 70
     8
  0
VERTEX
  8
ガラス
 10
-33.7
 20
-35.175
 70
     8
  0
VERTEX
  8
ガラス
 10
-33.625
 20
-35.15
 70
     8
  0
VERTEX
  8
ガラス
 10
-33.525
 20
-35.15
 70
     8
  0
VERTEX
  8
ガラス
 10
-33.425
 20
-35.15
 70
     8
  0
VERTEX
  8
ガラス
 10
-33.35
 20
-35.15
 70
     8
  0
VERTEX
  8
ガラス
 10
-33.25
 20
-35.15
 70
     8
  0
VERTEX
  8
ガラス
 10
-33.175
 20
-35.125
 70
     8
  0
VERTEX
  8
ガラス
 10
-33.075
 20
-35.125
 70
     8
  0
VERTEX
  8
ガラス
 10
-33.0
 20
-35.15
 70
     8
  0
VERTEX
  8
ガラス
 10
-32.9
 20
-35.15
 70
     8
  0
VERTEX
  8
ガラス
 10
-32.825
 20
-35.15
 70
     8
  0
VERTEX
  8
ガラス
 10
-32.725
 20
-35.15
 70
     8
  0
VERTEX
  8
ガラス
 10
-32.65
 20
-35.175
 70
     8
  0
VERTEX
  8
ガラス
 10
-32.575
 20
-35.2
 70
     8
  0
VERTEX
  8
ガラス
 10
-32.475
 20
-35.2
 70
     8
  0
VERTEX
  8
ガラス
 10
-32.4
 20
-35.225
 70
     8
  0
VERTEX
  8
ガラス
 10
-32.325
 20
-35.25
 70
     8
  0
VERTEX
  8
ガラス
 10
-32.25
 20
-35.275
 70
     8
  0
VERTEX
  8
ガラス
 10
-32.175
 20
-35.325
 70
     8
  0
VERTEX
  8
ガラス
 10
-32.1
 20
-35.35
 70
     8
  0
VERTEX
  8
ガラス
 10
-32.025
 20
-35.4
 70
     8
  0
VERTEX
  8
ガラス
 10
-31.95
 20
-35.45
 70
     8
  0
VERTEX
  8
ガラス
 10
-31.875
 20
-35.5
 70
     8
  0
VERTEX
  8
ガラス
 10
-31.825
 20
-35.55
 70
     8
  0
VERTEX
  8
ガラス
 10
-31.75
 20
-35.6
 70
     8
  0
VERTEX
  8
ガラス
 10
-31.675
 20
-35.65
 70
     8
  0
VERTEX
  8
ガラス
 10
-31.625
 20
-35.7
 70
     8
  0
VERTEX
  8
ガラス
 10
-31.55
 20
-35.775
 70
     8
  0
VERTEX
  8
ガラス
 10
-31.5
 20
-35.825
 70
     8
  0
VERTEX
  8
ガラス
 10
-31.425
 20
-35.9
 70
     8
  0
VERTEX
  8
ガラス
 10
-31.375
 20
-35.975
 70
     8
  0
VERTEX
  8
ガラス
 10
-31.3
 20
-36.025
 70
     8
  0
VERTEX
  8
ガラス
 10
-31.25
 20
-36.1
 70
     8
  0
VERTEX
  8
ガラス
 10
-31.175
 20
-36.175
 70
     8
  0
VERTEX
  8
ガラス
 10
-31.125
 20
-36.25
 70
     8
  0
VERTEX
  8
ガラス
 10
-31.05
 20
-36.3
 70
     8
  0
VERTEX
  8
ガラス
 10
-31.0
 20
-36.375
 70
     8
  0
SEQEND
  0
POLYLINE
  8
ガラス
  6
CONTINUOUS
 66
     1
 70
     4
  0
VERTEX
  8
ガラス
 10
-31.0
 20
-36.375
 70
     8
  0
VERTEX
  8
ガラス
 10
-31.05
 20
-36.375
 70
     8
  0
VERTEX
  8
ガラス
 10
-31.125
 20
-36.4
 70
     8
  0
VERTEX
  8
ガラス
 10
-31.175
 20
-36.4
 70
     8
  0
VERTEX
  8
ガラス
 10
-31.25
 20
-36.4
 70
     8
  0
VERTEX
  8
ガラス
 10
-31.3
 20
-36.425
 70
     8
  0
VERTEX
  8
ガラス
 10
-31.35
 20
-36.425
 70
     8
  0
VERTEX
  8
ガラス
 10
-31.425
 20
-36.425
 70
     8
  0
VERTEX
  8
ガラス
 10
-31.475
 20
-36.425
 70
     8
  0
VERTEX
  8
ガラス
 10
-31.55
 20
-36.45
 70
     8
  0
VERTEX
  8
ガラス
 10
-31.6
 20
-36.45
 70
     8
  0
VERTEX
  8
ガラス
 10
-31.675
 20
-36.45
 70
     8
  0
VERTEX
  8
ガラス
 10
-31.725
 20
-36.475
 70
     8
  0
VERTEX
  8
ガラス
 10
-31.775
 20
-36.475
 70
     8
  0
VERTEX
  8
ガラス
 10
-31.85
 20
-36.5
 70
     8
  0
VERTEX
  8
ガラス
 10
-31.9
 20
-36.5
 70
     8
  0
VERTEX
  8
ガラス
 10
-31.975
 20
-36.5
 70
     8
  0
VERTEX
  8
ガラス
 10
-32.025
 20
-36.525
 70
     8
  0
VERTEX
  8
ガラス
 10
-32.075
 20
-36.525
 70
     8
  0
VERTEX
  8
ガラス
 10
-32.15
 20
-36.55
 70
     8
  0
VERTEX
  8
ガラス
 10
-32.2
 20
-36.575
 70
     8
  0
VERTEX
  8
ガラス
 10
-32.275
 20
-36.575
 70
     8
  0
VERTEX
  8
ガラス
 10
-32.325
 20
-36.6
 70
     8
  0
VERTEX
  8
ガラス
 10
-32.375
 20
-36.6
 70
     8
  0
VERTEX
  8
ガラス
 10
-32.45
 20
-36.625
 70
     8
  0
VERTEX
  8
ガラス
 10
-32.5
 20
-36.65
 70
     8
  0
VERTEX
  8
ガラス
 10
-32.55
 20
-36.675
 70
     8
  0
VERTEX
  8
ガラス
 10
-32.625
 20
-36.675
 70
     8
  0
VERTEX
  8
ガラス
 10
-32.675
 20
-36.7
 70
     8
  0
VERTEX
  8
ガラス
 10
-32.725
 20
-36.725
 70
     8
  0
VERTEX
  8
ガラス
 10
-32.8
 20
-36.75
 70
     8
  0
VERTEX
  8
ガラス
 10
-32.85
 20
-36.775
 70
     8
  0
VERTEX
  8
ガラス
 10
-32.9
 20
-36.8
 70
     8
  0
VERTEX
  8
ガラス
 10
-32.95
 20
-36.825
 70
     8
  0
VERTEX
  8
ガラス
 10
-33.025
 20
-36.825
 70
     8
  0
VERTEX
  8
ガラス
 10
-33.075
 20
-36.85
 70
     8
  0
VERTEX
  8
ガラス
 10
-33.125
 20
-36.875
 70
     8
  0
VERTEX
  8
ガラス
 10
-33.2
 20
-36.9
 70
     8
  0
VERTEX
  8
ガラス
 10
-33.25
 20
-36.925
 70
     8
  0
VERTEX
  8
ガラス
 10
-33.3
 20
-36.95
 70
     8
  0
VERTEX
  8
ガラス
 10
-33.35
 20
-36.975
 70
     8
  0
SEQEND
  0
ARC
  8
ガラス
  6
CONTINUOUS
 10
-33.709094
 20
-36.081171
 40
0.955135
 50
112.264588
 51
292.264588
  0
ENDBLK
  0
BLOCK
  2
*GRP_0005
 70
    65
 10
0.0
 20
0.0
  0
POLYLINE
  8
ガラス
  6
CONTINUOUS
 66
     1
 70
     4
  0
VERTEX
  8
ガラス
 10
3.2
 20
-7.825
 70
     8
  0
VERTEX
  8
ガラス
 10
3.225
 20
-7.725
 70
     8
  0
VERTEX
  8
ガラス
 10
3.225
 20
-7.65
 70
     8
  0
VERTEX
  8
ガラス
 10
3.25
 20
-7.55
 70
     8
  0
VERTEX
  8
ガラス
 10
3.25
 20
-7.45
 70
     8
  0
VERTEX
  8
ガラス
 10
3.25
 20
-7.375
 70
     8
  0
VERTEX
  8
ガラス
 10
3.275
 20
-7.275
 70
     8
  0
VERTEX
  8
ガラス
 10
3.275
 20
-7.175
 70
     8
  0
VERTEX
  8
ガラス
 10
3.275
 20
-7.1
 70
     8
  0
VERTEX
  8
ガラス
 10
3.275
 20
-7.0
 70
     8
  0
VERTEX
  8
ガラス
 10
3.275
 20
-6.925
 70
     8
  0
VERTEX
  8
ガラス
 10
3.275
 20
-6.825
 70
     8
  0
VERTEX
  8
ガラス
 10
3.275
 20
-6.725
 70
     8
  0
VERTEX
  8
ガラス
 10
3.275
 20
-6.65
 70
     8
  0
VERTEX
  8
ガラス
 10
3.275
 20
-6.575
 70
     8
  0
VERTEX
  8
ガラス
 10
3.25
 20
-6.475
 70
     8
  0
VERTEX
  8
ガラス
 10
3.25
 20
-6.4
 70
     8
  0
VERTEX
  8
ガラス
 10
3.225
 20
-6.3
 70
     8
  0
VERTEX
  8
ガラス
 10
3.225
 20
-6.225
 70
     8
  0
VERTEX
  8
ガラス
 10
3.2
 20
-6.15
 70
     8
  0
VERTEX
  8
ガラス
 10
3.175
 20
-6.075
 70
     8
  0
VERTEX
  8
ガラス
 10
3.125
 20
-6.0
 70
     8
  0
VERTEX
  8
ガラス
 10
3.1
 20
-5.925
 70
     8
  0
VERTEX
  8
ガラス
 10
3.05
 20
-5.85
 70
     8
  0
VERTEX
  8
ガラス
 10
3.025
 20
-5.775
 70
     8
  0
VERTEX
  8
ガラス
 10
2.975
 20
-5.7
 70
     8
  0
VERTEX
  8
ガラス
 10
2.925
 20
-5.625
 70
     8
  0
VERTEX
  8
ガラス
 10
2.875
 20
-5.575
 70
     8
  0
VERTEX
  8
ガラス
 10
2.825
 20
-5.5
 70
     8
  0
VERTEX
  8
ガラス
 10
2.775
 20
-5.425
 70
     8
  0
VERTEX
  8
ガラス
 10
2.7
 20
-5.375
 70
     8
  0
VERTEX
  8
ガラス
 10
2.65
 20
-5.3
 70
     8
  0
VERTEX
  8
ガラス
 10
2.575
 20
-5.225
 70
     8
  0
VERTEX
  8
ガラス
 10
2.525
 20
-5.175
 70
     8
  0
VERTEX
  8
ガラス
 10
2.45
 20
-5.1
 70
     8
  0
VERTEX
  8
ガラス
 10
2.375
 20
-5.05
 70
     8
  0
VERTEX
  8
ガラス
 10
2.325
 20
-4.975
 70
     8
  0
VERTEX
  8
ガラス
 10
2.25
 20
-4.925
 70
     8
  0
VERTEX
  8
ガラス
 10
2.175
 20
-4.85
 70
     8
  0
VERTEX
  8
ガラス
 10
2.1
 20
-4.8
 70
     8
  0
VERTEX
  8
ガラス
 10
2.05
 20
-4.75
 70
     8
  0
SEQEND
  0
POLYLINE
  8
ガラス
  6
CONTINUOUS
 66
     1
 70
     4
  0
VERTEX
  8
ガラス
 10
2.05
 20
-4.75
 70
     8
  0
VERTEX
  8
ガラス
 10
2.025
 20
-4.8
 70
     8
  0
VERTEX
  8
ガラス
 10
2.025
 20
-4.85
 70
     8
  0
VERTEX
  8
ガラス
 10
2.025
 20
-4.925
 70
     8
  0
VERTEX
  8
ガラス
 10
2.025
 20
-4.975
 70
     8
  0
VERTEX
  8
ガラス
 10
2.0
 20
-5.05
 70
     8
  0
VERTEX
  8
ガラス
 10
2.0
 20
-5.1
 70
     8
  0
VERTEX
  8
ガラス
 10
2.0
 20
-5.175
 70
     8
  0
VERTEX
  8
ガラス
 10
1.975
 20
-5.225
 70
     8
  0
VERTEX
  8
ガラス
 10
1.975
 20
-5.3
 70
     8
  0
VERTEX
  8
ガラス
 10
1.975
 20
-5.35
 70
     8
  0
VERTEX
  8
ガラス
 10
1.95
 20
-5.4
 70
     8
  0
VERTEX
  8
ガラス
 10
1.95
 20
-5.475
 70
     8
  0
VERTEX
  8
ガラス
 10
1.95
 20
-5.525
 70
     8
  0
VERTEX
  8
ガラス
 10
1.925
 20
-5.6
 70
     8
  0
VERTEX
  8
ガラス
 10
1.925
 20
-5.65
 70
     8
  0
VERTEX
  8
ガラス
 10
1.9
 20
-5.725
 70
     8
  0
VERTEX
  8
ガラス
 10
1.9
 20
-5.775
 70
     8
  0
VERTEX
  8
ガラス
 10
1.875
 20
-5.825
 70
     8
  0
VERTEX
  8
ガラス
 10
1.875
 20
-5.9
 70
     8
  0
VERTEX
  8
ガラス
 10
1.85
 20
-5.95
 70
     8
  0
VERTEX
  8
ガラス
 10
1.85
 20
-6.0
 70
     8
  0
VERTEX
  8
ガラス
 10
1.825
 20
-6.075
 70
     8
  0
VERTEX
  8
ガラス
 10
1.8
 20
-6.125
 70
     8
  0
VERTEX
  8
ガラス
 10
1.8
 20
-6.2
 70
     8
  0
VERTEX
  8
ガラス
 10
1.775
 20
-6.25
 70
     8
  0
VERTEX
  8
ガラス
 10
1.75
 20
-6.3
 70
     8
  0
VERTEX
  8
ガラス
 10
1.725
 20
-6.35
 70
     8
  0
VERTEX
  8
ガラス
 10
1.725
 20
-6.425
 70
     8
  0
VERTEX
  8
ガラス
 10
1.7
 20
-6.475
 70
     8
  0
VERTEX
  8
ガラス
 10
1.675
 20
-6.525
 70
     8
  0
VERTEX
  8
ガラス
 10
1.65
 20
-6.6
 70
     8
  0
VERTEX
  8
ガラス
 10
1.625
 20
-6.65
 70
     8
  0
VERTEX
  8
ガラス
 10
1.6
 20
-6.7
 70
     8
  0
VERTEX
  8
ガラス
 10
1.575
 20
-6.775
 70
     8
  0
VERTEX
  8
ガラス
 10
1.55
 20
-6.825
 70
     8
  0
VERTEX
  8
ガラス
 10
1.525
 20
-6.875
 70
     8
  0
VERTEX
  8
ガラス
 10
1.525
 20
-6.925
 70
     8
  0
VERTEX
  8
ガラス
 10
1.5
 20
-7.0
 70
     8
  0
VERTEX
  8
ガラス
 10
1.475
 20
-7.05
 70
     8
  0
VERTEX
  8
ガラス
 10
1.45
 20
-7.1
 70
     8
  0
SEQEND
  0
ARC
  8
ガラス
  6
CONTINUOUS
 10
2.338321
 20
-7.455207
 40
0.955135
 50
157.735412
 51
337.735412
  0
ENDBLK
  0
BLOCK
  2
*GRP_0006
 70
    65
 10
0.0
 20
0.0
  0
POLYLINE
  8
ガラス
  6
CONTINUOUS
 66
     1
 70
     4
  0
VERTEX
  8
ガラス
 10
3.2
 20
-23.525
 70
     8
  0
VERTEX
  8
ガラス
 10
3.225
 20
-23.45
 70
     8
  0
VERTEX
  8
ガラス
 10
3.225
 20
-23.35
 70
     8
  0
VERTEX
  8
ガラス
 10
3.25
 20
-23.25
 70
     8
  0
VERTEX
  8
ガラス
 10
3.25
 20
-23.175
 70
     8
  0
VERTEX
  8
ガラス
 10
3.25
 20
-23.075
 70
     8
  0
VERTEX
  8
ガラス
 10
3.275
 20
-22.975
 70
     8
  0
VERTEX
  8
ガラス
 10
3.275
 20
-22.9
 70
     8
  0
VERTEX
  8
ガラス
 10
3.275
 20
-22.8
 70
     8
  0
VERTEX
  8
ガラス
 10
3.275
 20
-22.7
 70
     8
  0
VERTEX
  8
ガラス
 10
3.275
 20
-22.625
 70
     8
  0
VERTEX
  8
ガラス
 10
3.275
 20
-22.525
 70
     8
  0
VERTEX
  8
ガラス
 10
3.275
 20
-22.45
 70
     8
  0
VERTEX
  8
ガラス
 10
3.275
 20
-22.35
 70
     8
  0
VERTEX
  8
ガラス
 10
3.275
 20
-22.275
 70
     8
  0
VERTEX
  8
ガラス
 10
3.25
 20
-22.175
 70
     8
  0
VERTEX
  8
ガラス
 10
3.25
 20
-22.1
 70
     8
  0
VERTEX
  8
ガラス
 10
3.225
 20
-22.025
 70
     8
  0
VERTEX
  8
ガラス
 10
3.225
 20
-21.925
 70
     8
  0
VERTEX
  8
ガラス
 10
3.2
 20
-21.85
 70
     8
  0
VERTEX
  8
ガラス
 10
3.175
 20
-21.775
 70
     8
  0
VERTEX
  8
ガラス
 10
3.125
 20
-21.7
 70
     8
  0
VERTEX
  8
ガラス
 10
3.1
 20
-21.625
 70
     8
  0
VERTEX
  8
ガラス
 10
3.05
 20
-21.55
 70
     8
  0
VERTEX
  8
ガラス
 10
3.025
 20
-21.475
 70
     8
  0
VERTEX
  8
ガラス
 10
2.975
 20
-21.4
 70
     8
  0
VERTEX
  8
ガラス
 10
2.925
 20
-21.35
 70
     8
  0
VERTEX
  8
ガラス
 10
2.875
 20
-21.275
 70
     8
  0
VERTEX
  8
ガラス
 10
2.825
 20
-21.2
 70
     8
  0
VERTEX
  8
ガラス
 10
2.775
 20
-21.125
 70
     8
  0
VERTEX
  8
ガラス
 10
2.7
 20
-21.075
 70
     8
  0
VERTEX
  8
ガラス
 10
2.65
 20
-21.0
 70
     8
  0
VERTEX
  8
ガラス
 10
2.575
 20
-20.95
 70
     8
  0
VERTEX
  8
ガラス
 10
2.525
 20
-20.875
 70
     8
  0
VERTEX
  8
ガラス
 10
2.45
 20
-20.825
 70
     8
  0
VERTEX
  8
ガラス
 10
2.375
 20
-20.75
 70
     8
  0
VERTEX
  8
ガラス
 10
2.325
 20
-20.7
 70
     8
  0
VERTEX
  8
ガラス
 10
2.25
 20
-20.625
 70
     8
  0
VERTEX
  8
ガラス
 10
2.175
 20
-20.575
 70
     8
  0
VERTEX
  8
ガラス
 10
2.1
 20
-20.5
 70
     8
  0
VERTEX
  8
ガラス
 10
2.05
 20
-20.45
 70
     8
  0
SEQEND
  0
POLYLINE
  8
ガラス
  6
CONTINUOUS
 66
     1
 70
     4
  0
VERTEX
  8
ガラス
 10
2.05
 20
-20.45
 70
     8
  0
VERTEX
  8
ガラス
 10
2.025
 20
-20.5
 70
     8
  0
VERTEX
  8
ガラス
 10
2.025
 20
-20.575
 70
     8
  0
VERTEX
  8
ガラス
 10
2.025
 20
-20.625
 70
     8
  0
VERTEX
  8
ガラス
 10
2.025
 20
-20.7
 70
     8
  0
VERTEX
  8
ガラス
 10
2.0
 20
-20.75
 70
     8
  0
VERTEX
  8
ガラス
 10
2.0
 20
-20.825
 70
     8
  0
VERTEX
  8
ガラス
 10
2.0
 20
-20.875
 70
     8
  0
VERTEX
  8
ガラス
 10
1.975
 20
-20.925
 70
     8
  0
VERTEX
  8
ガラス
 10
1.975
 20
-21.0
 70
     8
  0
VERTEX
  8
ガラス
 10
1.975
 20
-21.05
 70
     8
  0
VERTEX
  8
ガラス
 10
1.95
 20
-21.125
 70
     8
  0
VERTEX
  8
ガラス
 10
1.95
 20
-21.175
 70
     8
  0
VERTEX
  8
ガラス
 10
1.95
 20
-21.25
 70
     8
  0
VERTEX
  8
ガラス
 10
1.925
 20
-21.3
 70
     8
  0
VERTEX
  8
ガラス
 10
1.925
 20
-21.35
 70
     8
  0
VERTEX
  8
ガラス
 10
1.9
 20
-21.425
 70
     8
  0
VERTEX
  8
ガラス
 10
1.9
 20
-21.475
 70
     8
  0
VERTEX
  8
ガラス
 10
1.875
 20
-21.55
 70
     8
  0
VERTEX
  8
ガラス
 10
1.875
 20
-21.6
 70
     8
  0
VERTEX
  8
ガラス
 10
1.85
 20
-21.65
 70
     8
  0
VERTEX
  8
ガラス
 10
1.85
 20
-21.725
 70
     8
  0
VERTEX
  8
ガラス
 10
1.825
 20
-21.775
 70
     8
  0
VERTEX
  8
ガラス
 10
1.8
 20
-21.825
 70
     8
  0
VERTEX
  8
ガラス
 10
1.8
 20
-21.9
 70
     8
  0
VERTEX
  8
ガラス
 10
1.775
 20
-21.95
 70
     8
  0
VERTEX
  8
ガラス
 10
1.75
 20
-22.0
 70
     8
  0
VERTEX
  8
ガラス
 10
1.725
 20
-22.075
 70
     8
  0
VERTEX
  8
ガラス
 10
1.725
 20
-22.125
 70
     8
  0
VERTEX
  8
ガラス
 10
1.7
 20
-22.175
 70
     8
  0
VERTEX
  8
ガラス
 10
1.675
 20
-22.25
 70
     8
  0
VERTEX
  8
ガラス
 10
1.65
 20
-22.3
 70
     8
  0
VERTEX
  8
ガラス
 10
1.625
 20
-22.35
 70
     8
  0
VERTEX
  8
ガラス
 10
1.6
 20
-22.425
 70
     8
  0
VERTEX
  8
ガラス
 10
1.575
 20
-22.475
 70
     8
  0
VERTEX
  8
ガラス
 10
1.55
 20
-22.525
 70
     8
  0
VERTEX
  8
ガラス
 10
1.525
 20
-22.575
 70
     8
  0
VERTEX
  8
ガラス
 10
1.525
 20
-22.65
 70
     8
  0
VERTEX
  8
ガラス
 10
1.5
 20
-22.7
 70
     8
  0
VERTEX
  8
ガラス
 10
1.475
 20
-22.75
 70
     8
  0
VERTEX
  8
ガラス
 10
1.45
 20
-22.8
 70
     8
  0
SEQEND
  0
ARC
  8
ガラス
  6
CONTINUOUS
 10
2.338321
 20
-23.161423
 40
0.955135
 50
157.735412
 51
337.735412
  0
ENDBLK
  0
BLOCK
  2
*GRP_0007
 70
    65
 10
0.0
 20
0.0
  0
LINE
  8
ボルト／ビス
  6
CONTINUOUS
 62
    64
 10
-105.487457
 20
-64.120615
 11
-101.48746
 21
-64.120615
  0
LINE
  8
ボルト／ビス
  6
CONTINUOUS
 62
    64
 10
-106.487455
 20
-65.920615
 11
-105.487457
 21
-64.120615
  0
LINE
  8
ボルト／ビス
  6
CONTINUOUS
 62
    64
 10
-106.487455
 20
-65.920615
 11
-100.487455
 21
-65.920615
  0
LINE
  8
ボルト／ビス
  6
CONTINUOUS
 62
    64
 10
-100.487455
 20
-65.920615
 11
-101.48746
 21
-64.120615
  0
LINE
  8
ボルト／ビス
  6
CONTINUOUS
 62
    64
 10
-103.487455
 20
-67.404145
 11
-103.487455
 21
-57.04159
  0
LINE
  8
ボルト／ビス
  6
CONTINUOUS
 62
    64
 10
-105.487457
 20
-58.420615
 11
-104.987455
 21
-57.920612
  0
LINE
  8
ボルト／ビス
  6
CONTINUOUS
 62
    64
 10
-101.48746
 20
-58.420615
 11
-101.987455
 21
-57.920612
  0
LINE
  8
ボルト／ビス
  6
CONTINUOUS
 62
    64
 10
-104.987455
 20
-57.920612
 11
-101.987455
 21
-57.920612
  0
LINE
  8
ボルト／ビス
  6
CONTINUOUS
 62
    64
 10
-105.487457
 20
-58.420615
 11
-101.48746
 21
-58.420615
  0
LINE
  8
ボルト／ビス
  6
CONTINUOUS
 62
    64
 10
-104.987455
 20
-64.120615
 11
-104.987455
 21
-57.920612
  0
LINE
  8
ボルト／ビス
  6
CONTINUOUS
 62
    64
 10
-101.987455
 20
-64.120615
 11
-101.987455
 21
-57.920612
  0
LINE
  8
ボルト／ビス
  6
CONTINUOUS
 62
    64
 10
-101.48746
 20
-64.120615
 11
-101.48746
 21
-58.420615
  0
LINE
  8
ボルト／ビス
  6
CONTINUOUS
 62
    64
 10
-105.487457
 20
-64.120615
 11
-105.487457
 21
-58.420615
  0
ENDBLK
  0
BLOCK
  2
*GRP_0008
 70
    65
 10
0.0
 20
0.0
  0
LINE
  8
ボルト／ビス
  6
CONTINUOUS
 62
    64
 10
-4.85485
 20
-64.120615
 11
-0.854853
 21
-64.120615
  0
LINE
  8
ボルト／ビス
  6
CONTINUOUS
 62
    64
 10
-5.854855
 20
-65.920615
 11
-4.85485
 21
-64.120615
  0
LINE
  8
ボルト／ビス
  6
CONTINUOUS
 62
    64
 10
-5.854855
 20
-65.920615
 11
0.145145
 21
-65.920615
  0
LINE
  8
ボルト／ビス
  6
CONTINUOUS
 62
    64
 10
0.145145
 20
-65.920615
 11
-0.854853
 21
-64.120615
  0
LINE
  8
ボルト／ビス
  6
CONTINUOUS
 62
    64
 10
-2.854855
 20
-67.404145
 11
-2.854855
 21
-57.04159
  0
LINE
  8
ボルト／ビス
  6
CONTINUOUS
 62
    64
 10
-4.85485
 20
-58.420615
 11
-4.354855
 21
-57.920612
  0
LINE
  8
ボルト／ビス
  6
CONTINUOUS
 62
    64
 10
-0.854853
 20
-58.420615
 11
-1.354855
 21
-57.920612
  0
LINE
  8
ボルト／ビス
  6
CONTINUOUS
 62
    64
 10
-4.354855
 20
-57.920612
 11
-1.354855
 21
-57.920612
  0
LINE
  8
ボルト／ビス
  6
CONTINUOUS
 62
    64
 10
-4.85485
 20
-58.420615
 11
-0.854853
 21
-58.420615
  0
LINE
  8
ボルト／ビス
  6
CONTINUOUS
 62
    64
 10
-4.354855
 20
-64.120615
 11
-4.354855
 21
-57.920612
  0
LINE
  8
ボルト／ビス
  6
CONTINUOUS
 62
    64
 10
-1.354855
 20
-64.120615
 11
-1.354855
 21
-57.920612
  0
LINE
  8
ボルト／ビス
  6
CONTINUOUS
 62
    64
 10
-0.854853
 20
-64.120615
 11
-0.854853
 21
-58.420615
  0
LINE
  8
ボルト／ビス
  6
CONTINUOUS
 62
    64
 10
-4.85485
 20
-64.120615
 11
-4.85485
 21
-58.420615
  0
ENDBLK
  0
BLOCK
  2
*GRP_0009
 70
    65
 10
0.0
 20
0.0
  0
POLYLINE
  8
寸法
  6
BYBLOCK
 62
     0
 66
     1
  0
VERTEX
  8
寸法
 10
-43.408803
 20
-69.020463
  0
VERTEX
  8
寸法
 10
-46.006877
 20
-67.520463
  0
VERTEX
  8
寸法
 10
-44.506877
 20
-70.118538
  0
SEQEND
  0
POLYLINE
  8
寸法
  6
BYBLOCK
 62
     0
 66
     1
  0
VERTEX
  8
寸法
 10
-46.006877
 20
-67.520463
  0
VERTEX
  8
寸法
 10
-23.80147
 20
-89.72587
  0
VERTEX
  8
寸法
 10
-20.765105
 20
-89.72587
  0
SEQEND
  0
ENDBLK
  0
BLOCK
  2
*GRP_0010
 70
    65
 10
0.0
 20
0.0
  0
POLYLINE
  8
寸法
  6
BYBLOCK
 62
     0
 66
     1
  0
VERTEX
  8
寸法
 10
-49.05573
 20
-38.228997
  0
VERTEX
  8
寸法
 10
-46.457655
 20
-39.728997
  0
VERTEX
  8
寸法
 10
-47.957655
 20
-37.13092
  0
SEQEND
  0
POLYLINE
  8
寸法
  6
BYBLOCK
 62
     0
 66
     1
  0
VERTEX
  8
寸法
 10
-46.457655
 20
-39.728997
  0
VERTEX
  8
寸法
 10
-56.921785
 20
-29.264865
  0
VERTEX
  8
寸法
 10
-61.183003
 20
-29.264865
  0
SEQEND
  0
ENDBLK
  0
BLOCK
  2
*DIM_0011
 70
    65
 10
0.0
 20
0.0
  0
LINE
  8
寸法
  6
BYBLOCK
 62
     0
 10
-112.487095
 20
-49.920555
 11
-112.487095
 21
81.03789
  0
LINE
  8
寸法
  6
BYBLOCK
 62
     0
 10
7.512717
 20
-24.920543
 11
7.512717
 21
81.03789
  0
LINE
  8
寸法
  6
BYBLOCK
 62
     0
 10
-112.487095
 20
81.03789
 11
7.512717
 21
81.03789
  0
POINT
  8
寸法
 62
     0
 10
-112.487095
 20
81.03789
  0
POINT
  8
寸法
 62
     0
 10
7.512717
 20
81.03789
  0
TEXT
  7
TextStyle03
  8
寸法
  6
CONTINUOUS
 62
     0
 10
-55.75
 20
81.375
  1
120
 40
4.0
 72
     5
 11
-49.25
 21
81.375
  0
ENDBLK
  0
BLOCK
  2
*DIM_0012
 70
    65
 10
0.0
 20
0.0
  0
LINE
  8
寸法
  6
BYBLOCK
 62
     0
 10
-112.487095
 20
73.176353
 11
-112.487095
 21
72.51068
  0
LINE
  8
寸法
  6
BYBLOCK
 62
     0
 10
-22.485753
 20
53.03302
 11
-22.485753
 21
72.51068
  0
LINE
  8
寸法
  6
BYBLOCK
 62
     0
 10
-112.487095
 20
72.51068
 11
-22.485753
 21
72.51068
  0
POINT
  8
寸法
 62
     0
 10
-112.487095
 20
72.51068
  0
POINT
  8
寸法
 62
     0
 10
-22.485753
 20
72.51068
  0
TEXT
  7
TextStyle03
  8
寸法
  6
CONTINUOUS
 62
     0
 10
-69.625
 20
72.875
  1
90
 40
4.0
 72
     5
 11
-65.375
 21
72.875
  0
ENDBLK
  0
BLOCK
  2
*DIM_0013
 70
    65
 10
0.0
 20
0.0
  0
LINE
  8
寸法
  6
BYBLOCK
 62
     0
 10
-22.485753
 20
65.110305
 11
7.512717
 21
65.110305
  0
POINT
  8
寸法
 62
     0
 10
-22.485753
 20
65.110305
  0
POINT
  8
寸法
 62
     0
 10
7.512717
 20
65.110305
  0
TEXT
  7
TextStyle03
  8
寸法
  6
CONTINUOUS
 62
     0
 10
-9.625
 20
65.475
  1
30
 40
4.0
 72
     5
 11
-5.375
 21
65.475
  0
ENDBLK
  0
BLOCK
  2
*GRP_0014
 70
    65
 10
0.0
 20
0.0
  0
POLYLINE
  8
寸法
  6
BYBLOCK
 62
     0
 66
     1
  0
VERTEX
  8
寸法
 10
-74.18987
 20
-47.836595
  0
VERTEX
  8
寸法
 10
-71.591792
 20
-49.336595
  0
VERTEX
  8
寸法
 10
-73.091792
 20
-46.738518
  0
SEQEND
  0
POLYLINE
  8
寸法
  6
BYBLOCK
 62
     0
 66
     1
  0
VERTEX
  8
寸法
 10
-71.591792
 20
-49.336595
  0
VERTEX
  8
寸法
 10
-82.571598
 20
-38.35679
  0
VERTEX
  8
寸法
 10
-120.263665
 20
-38.35679
  0
SEQEND
  0
ENDBLK
  0
BLOCK
  2
*DIM_0015
 70
    65
 10
0.0
 20
0.0
  0
LINE
  8
寸法
  6
BYBLOCK
 62
     0
 10
-163.105695
 20
-65.920488
 11
-163.47702
 21
-65.920488
  0
LINE
  8
寸法
  6
BYBLOCK
 62
     0
 10
-113.487095
 20
-50.920555
 11
-163.47702
 21
-50.920555
  0
LINE
  8
寸法
  6
BYBLOCK
 62
     0
 10
-163.47702
 20
-65.920488
 11
-163.47702
 21
-50.920555
  0
POINT
  8
寸法
 62
     0
 10
-163.47702
 20
-65.920488
  0
POINT
  8
寸法
 62
     0
 10
-163.47702
 20
-50.920555
  0
TEXT
  7
TextStyle03
  8
寸法
  6
CONTINUOUS
 62
     0
 10
-163.85
 20
-60.01875
  1
15
 40
3.0
 50
90.0
 72
     5
 11
-163.85
 21
-56.83125
  0
ENDBLK
  0
BLOCK
  2
*DIM_0016
 70
    65
 10
0.0
 20
0.0
  0
LINE
  8
寸法
  6
BYBLOCK
 62
     0
 10
-112.487095
 20
-66.920488
 11
-112.487095
 21
-97.355403
  0
LINE
  8
寸法
  6
BYBLOCK
 62
     0
 10
-97.487342
 20
-76.92059
 11
-97.487342
 21
-97.355403
  0
LINE
  8
寸法
  6
BYBLOCK
 62
     0
 10
-112.487095
 20
-97.355403
 11
-97.487342
 21
-97.355403
  0
POINT
  8
寸法
 62
     0
 10
-112.487095
 20
-97.355403
  0
POINT
  8
寸法
 62
     0
 10
-97.487342
 20
-97.355403
  0
TEXT
  7
TextStyle03
  8
寸法
  6
CONTINUOUS
 62
     0
 10
-106.59375
 20
-97.0
  1
15
 40
3.0
 72
     5
 11
-103.40625
 21
-97.0
  0
ENDBLK
  0
BLOCK
  2
*DIM_0017
 70
    65
 10
0.0
 20
0.0
  0
LINE
  8
寸法
  6
BYBLOCK
 62
     0
 10
8.512717
 20
-65.920488
 11
45.42028
 21
-65.920488
  0
LINE
  8
寸法
  6
BYBLOCK
 62
     0
 10
8.512717
 20
-21.920515
 11
45.42028
 21
-21.920515
  0
LINE
  8
寸法
  6
BYBLOCK
 62
     0
 10
45.42028
 20
-65.920488
 11
45.42028
 21
-21.920515
  0
POINT
  8
寸法
 62
     0
 10
45.42028
 20
-65.920488
  0
POINT
  8
寸法
 62
     0
 10
45.42028
 20
-21.920515
  0
TEXT
  7
TextStyle03
  8
寸法
  6
CONTINUOUS
 62
     0
 10
45.05
 20
-45.51875
  1
44
 40
3.0
 50
90.0
 72
     5
 11
45.05
 21
-42.33125
  0
ENDBLK
  0
BLOCK
  2
*DIM_0018
 70
    65
 10
0.0
 20
0.0
  0
LINE
  8
寸法
  6
BYBLOCK
 62
     0
 10
36.61699
 20
-6.920575
 11
45.42028
 21
-6.920575
  0
LINE
  8
寸法
  6
BYBLOCK
 62
     0
 10
45.42028
 20
-21.920515
 11
45.42028
 21
-6.920575
  0
POINT
  8
寸法
 62
     0
 10
45.42028
 20
-21.920515
  0
POINT
  8
寸法
 62
     0
 10
45.42028
 20
-6.920575
  0
TEXT
  7
TextStyle03
  8
寸法
  6
CONTINUOUS
 62
     0
 10
45.05
 20
-16.01875
  1
15
 40
3.0
 50
90.0
 72
     5
 11
45.05
 21
-12.83125
  0
ENDBLK
  0
BLOCK
  2
*DIM_0019
 70
    65
 10
0.0
 20
0.0
  0
LINE
  8
寸法
  6
BYBLOCK
 62
     0
 10
-98.48738
 20
-80.920488
 11
-170.306992
 21
-80.920488
  0
LINE
  8
寸法
  6
BYBLOCK
 62
     0
 10
-170.306992
 20
-65.920488
 11
-170.306992
 21
-80.920488
  0
POINT
  8
寸法
 62
     0
 10
-170.306992
 20
-65.920488
  0
POINT
  8
寸法
 62
     0
 10
-170.306992
 20
-80.920488
  0
TEXT
  7
TextStyle03
  8
寸法
  6
CONTINUOUS
 62
     0
 10
-170.675
 20
-75.01875
  1
15
 40
3.0
 50
90.0
 72
     5
 11
-170.675
 21
-71.83125
  0
ENDBLK
  0
BLOCK
  2
*GRP_0020
 70
    65
 10
0.0
 20
0.0
  0
POLYLINE
  8
寸法
  6
BYBLOCK
 62
     0
 66
     1
  0
VERTEX
  8
寸法
 10
-14.487327
 20
-31.812038
  0
VERTEX
  8
寸法
 10
0.344988
 20
-16.979723
  0
VERTEX
  8
寸法
 10
14.080083
 20
-16.979723
  0
SEQEND
  0
ENDBLK
  0
BLOCK
  2
*GRP_0021
 70
    65
 10
0.0
 20
0.0
  0
POLYLINE
  8
寸法
  6
BYBLOCK
 62
     0
 66
     1
  0
VERTEX
  8
寸法
 10
-24.48715
 20
-30.416005
  0
VERTEX
  8
寸法
 10
-35.987792
 20
-18.915362
  0
VERTEX
  8
寸法
 10
-39.283145
 20
-18.915362
  0
SEQEND
  0
ENDBLK
  0
BLOCK
  2
*GRP_0022
 70
    65
 10
0.0
 20
0.0
  0
LINE
  8
別途部材
  6
CONTINUOUS
 62
    96
 10
-92.487422
 20
-67.520463
 11
-92.487422
 21
-65.920488
  0
LINE
  8
別途部材
  6
CONTINUOUS
 62
    96
 10
-92.487422
 20
-62.320285
 11
-92.487422
 21
-63.920522
  0
LINE
  8
別途部材
  6
CONTINUOUS
 62
    96
 10
-83.150035
 20
-63.920522
 11
-92.487422
 21
-63.920522
  0
LINE
  8
別途部材
  6
CONTINUOUS
 62
    96
 10
-92.487422
 20
-62.320285
 11
-82.48723
 21
-62.320285
  0
LINE
  8
別途部材
  6
CONTINUOUS
 62
    96
 10
-82.48723
 20
-62.320285
 11
-77.287315
 21
-67.520463
  0
LINE
  8
別途部材
  6
CONTINUOUS
 62
    96
 10
-81.15007
 20
-65.920488
 11
-83.150035
 21
-63.920522
  0
LINE
  8
別途部材
  6
CONTINUOUS
 62
    96
 10
-7.487568
 20
-67.520463
 11
-7.487568
 21
-65.920488
  0
LINE
  8
別途部材
  6
CONTINUOUS
 62
    96
 10
-7.487568
 20
-62.320285
 11
-7.487568
 21
-63.920522
  0
LINE
  8
別途部材
  6
CONTINUOUS
 62
    96
 10
-16.824947
 20
-63.920522
 11
-7.487568
 21
-63.920522
  0
LINE
  8
別途部材
  6
CONTINUOUS
 62
    96
 10
-7.487568
 20
-62.320285
 11
-17.48776
 21
-62.320285
  0
LINE
  8
別途部材
  6
CONTINUOUS
 62
    96
 10
-17.48776
 20
-62.320285
 11
-22.687675
 21
-67.520463
  0
LINE
  8
別途部材
  6
CONTINUOUS
 62
    96
 10
-18.82492
 20
-65.920488
 11
-16.824947
 21
-63.920522
  0
LINE
  8
別途部材
  6
CONTINUOUS
 62
    96
 10
-92.487422
 20
-67.520463
 11
-7.487568
 21
-67.520463
  0
LINE
  8
別途部材
  6
CONTINUOUS
 62
    96
 10
-12.08767
 20
-65.920488
 11
-87.88732
 21
-65.920488
  0
LINE
  8
別途部材
  6
CONTINUOUS
 62
    96
 10
-72.830868
 20
-80.920338
 11
-52.830843
 21
-80.920338
  0
LINE
  8
別途部材
  6
CONTINUOUS
 62
    96
 10
-52.830843
 20
-80.920338
 11
-52.830843
 21
-67.520463
  0
LINE
  8
別途部材
  6
CONTINUOUS
 62
    96
 10
-72.830868
 20
-80.920338
 11
-72.830868
 21
-67.520463
  0
ENDBLK
  0
BLOCK
  2
*GRP_0023
 70
    65
 10
0.0
 20
0.0
  0
LINE
  8
ボルト／ビス
  6
CONTINUOUS
 62
    64
 10
-60.185552
 20
0.579567
 11
-61.2337
 21
0.487873
  0
ARC
  8
ボルト／ビス
  6
CONTINUOUS
 62
    64
 10
-61.085564
 20
-1.205701
 40
1.7
 50
94.999989
 51
180.0
  0
LINE
  8
ボルト／ビス
  6
CONTINUOUS
 62
    64
 10
-62.785548
 20
-1.20568
 11
-62.785548
 21
-2.920428
  0
LINE
  8
ボルト／ビス
  6
CONTINUOUS
 62
    64
 10
-60.185552
 20
-6.42043
 11
-61.2337
 21
-6.328727
  0
ARC
  8
ボルト／ビス
  6
CONTINUOUS
 62
    64
 10
-61.085564
 20
-4.635234
 40
1.7
 50
180.0
 51
265.000011
  0
LINE
  8
ボルト／ビス
  6
CONTINUOUS
 62
    64
 10
-62.785548
 20
-4.635182
 11
-62.785548
 21
-2.920428
  0
LINE
  8
ボルト／ビス
  6
CONTINUOUS
 62
    64
 10
-62.400648
 20
-0.52378
 11
-62.6428
 21
-0.52378
  0
LINE
  8
ボルト／ビス
  6
CONTINUOUS
 62
    64
 10
-61.750547
 20
-2.22043
 11
-61.750547
 21
-2.920428
  0
LINE
  8
ボルト／ビス
  6
CONTINUOUS
 62
    64
 10
-62.400648
 20
-1.820432
 11
-62.400648
 21
-0.52378
  0
LINE
  8
ボルト／ビス
  6
CONTINUOUS
 62
    64
 10
-61.750547
 20
-2.22043
 11
-62.00065
 21
-2.22043
  0
ARC
  8
ボルト／ビス
  6
CONTINUOUS
 62
    64
 10
-62.000659
 20
-1.820468
 40
0.4
 50
180.0
 51
270.0
  0
LINE
  8
ボルト／ビス
  6
CONTINUOUS
 62
    64
 10
-62.400648
 20
-5.317083
 11
-62.6428
 21
-5.317083
  0
LINE
  8
ボルト／ビス
  6
CONTINUOUS
 62
    64
 10
-61.750547
 20
-3.620432
 11
-61.750547
 21
-2.920428
  0
LINE
  8
ボルト／ビス
  6
CONTINUOUS
 62
    64
 10
-62.400648
 20
-4.02043
 11
-62.400648
 21
-5.317083
  0
LINE
  8
ボルト／ビス
  6
CONTINUOUS
 62
    64
 10
-61.750547
 20
-3.620432
 11
-62.00065
 21
-3.620432
  0
ARC
  8
ボルト／ビス
  6
CONTINUOUS
 62
    64
 10
-62.000659
 20
-4.020468
 40
0.4
 50
90.0
 51
180.0
  0
LINE
  8
ボルト／ビス
  6
CONTINUOUS
 62
    64
 10
-60.185552
 20
0.579567
 11
-60.185552
 21
-6.42043
  0
LINE
  8
ボルト／ビス
  6
CONTINUOUS
 62
    64
 10
-48.685548
 20
-0.920432
 11
-48.185552
 21
-1.420428
  0
LINE
  8
ボルト／ビス
  6
CONTINUOUS
 62
    64
 10
-48.685548
 20
-4.92043
 11
-48.185552
 21
-4.420428
  0
LINE
  8
ボルト／ビス
  6
CONTINUOUS
 62
    64
 10
-48.685548
 20
-0.920432
 11
-48.685548
 21
-4.92043
  0
LINE
  8
ボルト／ビス
  6
CONTINUOUS
 62
    64
 10
-48.185552
 20
-1.420428
 11
-48.185552
 21
-4.420428
  0
LINE
  8
ボルト／ビス
  6
CONTINUOUS
 62
    64
 10
-60.185552
 20
-1.420428
 11
-48.185552
 21
-1.420428
  0
LINE
  8
ボルト／ビス
  6
CONTINUOUS
 62
    64
 10
-60.185552
 20
-4.420428
 11
-48.185552
 21
-4.420428
  0
LINE
  8
ボルト／ビス
  6
CONTINUOUS
 62
    64
 10
-60.185552
 20
-4.92043
 11
-48.685548
 21
-4.92043
  0
LINE
  8
ボルト／ビス
  6
CONTINUOUS
 62
    64
 10
-60.185552
 20
-0.920432
 11
-48.685548
 21
-0.920432
  0
LINE
  8
ボルト／ビス
  6
DASHDOT
 62
    64
 10
-65.785548
 20
-2.920428
 11
-45.185552
 21
-2.920428
  0
ENDBLK
  0
BLOCK
  2
*GRP_0024
 70
    65
 10
0.0
 20
0.0
  0
LINE
  8
ボルト／ビス
  6
CONTINUOUS
 62
    64
 10
-46.685747
 20
14.079545
 11
-44.48575
 21
11.379545
  0
LINE
  8
ボルト／ビス
  6
CONTINUOUS
 62
    64
 10
-38.285747
 20
14.079545
 11
-40.485753
 21
11.379545
  0
LINE
  8
ボルト／ビス
  6
CONTINUOUS
 62
    64
 10
-38.285747
 20
14.079545
 11
-46.685747
 21
14.079545
  0
LINE
  8
ボルト／ビス
  6
CONTINUOUS
 62
    64
 10
-42.485747
 20
-0.157352
 11
-42.485747
 21
18.29762
  0
LINE
  8
ボルト／ビス
  6
CONTINUOUS
 62
    64
 10
-40.485753
 20
11.379545
 11
-44.48575
 21
11.379545
  0
LINE
  8
ボルト／ビス
  6
CONTINUOUS
 62
    64
 10
-40.485753
 20
2.579548
 11
-40.985747
 21
2.079545
  0
LINE
  8
ボルト／ビス
  6
CONTINUOUS
 62
    64
 10
-44.48575
 20
2.579548
 11
-43.985747
 21
2.079545
  0
LINE
  8
ボルト／ビス
  6
CONTINUOUS
 62
    64
 10
-44.48575
 20
2.579548
 11
-40.485753
 21
2.579548
  0
LINE
  8
ボルト／ビス
  6
CONTINUOUS
 62
    64
 10
-40.985747
 20
2.079545
 11
-43.985747
 21
2.079545
  0
LINE
  8
ボルト／ビス
  6
CONTINUOUS
 62
    64
 10
-40.485753
 20
11.379545
 11
-40.485753
 21
2.579548
  0
LINE
  8
ボルト／ビス
  6
CONTINUOUS
 62
    64
 10
-44.48575
 20
11.379545
 11
-44.48575
 21
2.579548
  0
LINE
  8
ボルト／ビス
  6
CONTINUOUS
 62
    64
 10
-43.985747
 20
11.379545
 11
-43.985747
 21
2.079545
  0
LINE
  8
ボルト／ビス
  6
CONTINUOUS
 62
    64
 10
-40.985747
 20
11.379545
 11
-40.985747
 21
2.079545
  0
ENDBLK
  0
BLOCK
  2
*GRP_0025
 70
    65
 10
0.0
 20
0.0
  0
LINE
  8
別途部材
  6
CONTINUOUS
 10
-71.881203
 20
28.579572
 11
-70.381203
 21
28.579572
  0
LINE
  8
別途部材
  6
CONTINUOUS
 10
-71.881203
 20
30.579567
 11
-71.881203
 21
28.579572
  0
ARC
  8
別途部材
  6
CONTINUOUS
 10
-68.881214
 20
30.579558
 40
3.0
 50
90.0
 51
180.0
  0
LINE
  8
別途部材
  6
CONTINUOUS
 10
-70.381203
 20
30.579567
 11
-70.381203
 21
28.579572
  0
ARC
  8
別途部材
  6
CONTINUOUS
 10
-68.881214
 20
30.579558
 40
1.5
 50
90.0
 51
180.0
  0
LINE
  8
別途部材
  6
CONTINUOUS
 10
-68.881203
 20
32.079567
 11
-67.18555
 21
32.079567
  0
LINE
  8
別途部材
  6
CONTINUOUS
 10
-4.881197
 20
30.379572
 11
-4.881197
 21
31.579572
  0
LINE
  8
別途部材
  6
CONTINUOUS
 10
3.118798
 20
32.57957
 11
3.118798
 21
30.379572
  0
ARC
  8
別途部材
  6
CONTINUOUS
 10
2.118786
 20
32.579558
 40
1.0
 50
0.0
 51
90.0
  0
LINE
  8
別途部材
  6
CONTINUOUS
 10
3.118798
 20
30.379572
 11
-4.881197
 21
30.379572
  0
LINE
  8
別途部材
  6
CONTINUOUS
 10
-68.881203
 20
33.579567
 11
2.1188
 21
33.579567
  0
LINE
  8
別途部材
  6
CONTINUOUS
 10
-24.685548
 20
31.579572
 11
-4.881197
 21
31.579572
  0
ARC
  8
別途部材
  6
CONTINUOUS
 10
-24.685571
 20
28.579548
 40
3.0
 50
90.0
 51
180.0
  0
LINE
  8
別途部材
  6
CONTINUOUS
 10
-27.985548
 20
20.57957
 11
-27.685548
 21
20.87957
  0
LINE
  8
別途部材
  6
CONTINUOUS
 10
-27.985548
 20
20.57957
 11
-27.685548
 21
20.27957
  0
LINE
  8
別途部材
  6
CONTINUOUS
 10
-27.685548
 20
28.579572
 11
-27.685548
 21
20.87957
  0
LINE
  8
別途部材
  6
CONTINUOUS
 10
-27.685548
 20
20.27957
 11
-27.685548
 21
14.079567
  0
LINE
  8
別途部材
  6
CONTINUOUS
 10
-66.88555
 20
-2.920428
 11
-67.18555
 21
-2.620428
  0
LINE
  8
別途部材
  6
CONTINUOUS
 10
-66.88555
 20
-2.920428
 11
-67.18555
 21
-3.220428
  0
LINE
  8
別途部材
  6
CONTINUOUS
 10
-67.18555
 20
32.079567
 11
-67.18555
 21
-2.620428
  0
LINE
  8
別途部材
  6
CONTINUOUS
 10
-67.18555
 20
-3.220428
 11
-67.18555
 21
-16.420428
  0
LINE
  8
別途部材
  6
CONTINUOUS
 10
-58.685552
 20
9.079572
 11
-58.685552
 21
-7.92043
  0
LINE
  8
別途部材
  6
CONTINUOUS
 10
-60.185552
 20
-7.92043
 11
-58.685552
 21
-7.92043
  0
LINE
  8
別途部材
  6
CONTINUOUS
 10
-67.18555
 20
-16.420428
 11
-65.68555
 21
-16.420428
  0
LINE
  8
別途部材
  6
CONTINUOUS
 10
-58.685552
 20
9.079572
 11
-65.68555
 21
9.079572
  0
LINE
  8
別途部材
  6
CONTINUOUS
 10
-60.185552
 20
7.579572
 11
-65.68555
 21
7.579572
  0
LINE
  8
別途部材
  6
CONTINUOUS
 10
-65.68555
 20
7.579572
 11
-65.68555
 21
-16.420428
  0
LINE
  8
別途部材
  6
CONTINUOUS
 10
-65.68555
 20
14.079567
 11
-65.68555
 21
9.079572
  0
LINE
  8
別途部材
  6
CONTINUOUS
 10
-59.885552
 20
-2.920428
 11
-60.185552
 21
-2.620428
  0
LINE
  8
別途部材
  6
CONTINUOUS
 10
-59.885552
 20
-2.920428
 11
-60.185552
 21
-3.220428
  0
LINE
  8
別途部材
  6
CONTINUOUS
 10
-60.185552
 20
7.579572
 11
-60.185552
 21
-2.620428
  0
LINE
  8
別途部材
  6
CONTINUOUS
 10
-60.185552
 20
-3.220428
 11
-60.185552
 21
-7.92043
  0
LINE
  8
別途部材
  6
DOT
 10
-67.18555
 20
2.079567
 11
-65.68555
 21
2.079567
  0
LINE
  8
別途部材
  6
DOT
 10
-67.18555
 20
-7.92043
 11
-65.68555
 21
-7.92043
  0
LINE
  8
別途部材
  6
CONTINUOUS
 10
-65.68555
 20
32.079567
 11
-29.185548
 21
32.079567
  0
LINE
  8
別途部材
  6
DOT
 10
-66.81055
 20
2.079567
 11
-66.81055
 21
-7.92043
  0
LINE
  8
別途部材
  6
DOT
 10
-66.43555
 20
2.079567
 11
-66.43555
 21
-7.92043
  0
LINE
  8
別途部材
  6
DOT
 10
-66.06055
 20
2.079567
 11
-66.06055
 21
-7.92043
  0
LINE
  8
別途部材
  6
CONTINUOUS
 10
-29.185548
 20
32.079567
 11
-29.185548
 21
15.579567
  0
LINE
  8
別途部材
  6
CONTINUOUS
 10
-65.68555
 20
32.079567
 11
-65.68555
 21
15.579567
  0
LINE
  8
別途部材
  6
CONTINUOUS
 10
-29.185548
 20
15.579567
 11
-65.68555
 21
15.579567
  0
LINE
  8
別途部材
  6
CONTINUOUS
 10
-50.935548
 20
14.379567
 11
-50.635548
 21
14.079567
  0
LINE
  8
別途部材
  6
CONTINUOUS
 10
-50.935548
 20
14.379567
 11
-51.235548
 21
14.079567
  0
LINE
  8
別途部材
  6
CONTINUOUS
 10
-38.435552
 20
14.379567
 11
-38.135552
 21
14.079567
  0
LINE
  8
別途部材
  6
CONTINUOUS
 10
-38.435552
 20
14.379567
 11
-38.735552
 21
14.079567
  0
LINE
  8
別途部材
  6
CONTINUOUS
 10
-50.635548
 20
14.079567
 11
-38.735552
 21
14.079567
  0
LINE
  8
別途部材
  6
CONTINUOUS
 10
-27.685548
 20
14.079567
 11
-38.135552
 21
14.079567
  0
LINE
  8
別途部材
  6
CONTINUOUS
 10
-65.68555
 20
14.079567
 11
-51.235548
 21
14.079567
  0
ENDBLK
  0
BLOCK
  2
*GRP_0026
 70
    65
 10
0.0
 20
0.0
  0
LINE
  8
曲げ物
  6
CONTINUOUS
 10
-56.68555
 20
4.57952
 11
-24.487097
 21
4.57952
  0
LINE
  8
曲げ物
  6
CONTINUOUS
 10
-24.487097
 20
6.579522
 11
-24.487097
 21
4.57952
  0
LINE
  8
曲げ物
  6
CONTINUOUS
 10
-56.68555
 20
4.57952
 11
-56.68555
 21
-7.42048
  0
LINE
  8
曲げ物
  6
CONTINUOUS
 10
-56.68555
 20
-7.42048
 11
-58.685552
 21
-7.42048
  0
ARC
  8
曲げ物
  6
CONTINUOUS
 10
-56.685544
 20
4.579494
 40
2.0
 50
90.0
 51
180.0
  0
LINE
  8
曲げ物
  6
CONTINUOUS
 10
-24.487097
 20
6.579522
 11
-56.68555
 21
6.579522
  0
LINE
  8
曲げ物
  6
CONTINUOUS
 10
-58.685552
 20
-7.42048
 11
-58.685552
 21
4.57952
  0
ENDBLK
  0
BLOCK
  2
*GRP_0027
 70
    65
 10
0.0
 20
0.0
  0
LINE
  8
ゴム等
  6
CONTINUOUS
 10
-0.687152
 20
3.07952
 11
-0.687152
 21
-4.920482
  0
LINE
  8
ゴム等
  6
CONTINUOUS
 10
-0.687152
 20
3.07952
 11
-7.187155
 21
3.07952
  0
LINE
  8
ゴム等
  6
CONTINUOUS
 10
-0.687152
 20
-4.920482
 11
-6.18715
 21
-4.920482
  0
LINE
  8
ゴム等
  6
CONTINUOUS
 10
-7.187155
 20
-3.920485
 11
-7.187155
 21
3.07952
  0
LINE
  8
ゴム等
  6
CONTINUOUS
 10
-6.18715
 20
-4.920482
 11
-7.187155
 21
-3.920485
  0
INSERT
  2
*HAT_0001
  8
ゴム等
 10
0.0
 20
0.0
  0
ENDBLK
  0
BLOCK
  2
*GRP_0028
 70
    65
 10
0.0
 20
0.0
  0
LINE
  8
ボルト／ビス
  6
CONTINUOUS
 62
    64
 10
93.14783
 20
0.579567
 11
92.099683
 21
0.487873
  0
ARC
  8
ボルト／ビス
  6
CONTINUOUS
 62
    64
 10
92.247819
 20
-1.205701
 40
1.7
 50
94.999989
 51
180.0
  0
LINE
  8
ボルト／ビス
  6
CONTINUOUS
 62
    64
 10
90.547835
 20
-1.20568
 11
90.547835
 21
-2.920428
  0
LINE
  8
ボルト／ビス
  6
CONTINUOUS
 62
    64
 10
93.14783
 20
-6.42043
 11
92.099683
 21
-6.328727
  0
ARC
  8
ボルト／ビス
  6
CONTINUOUS
 62
    64
 10
92.247819
 20
-4.635234
 40
1.7
 50
180.0
 51
265.000011
  0
LINE
  8
ボルト／ビス
  6
CONTINUOUS
 62
    64
 10
90.547835
 20
-4.635182
 11
90.547835
 21
-2.920428
  0
LINE
  8
ボルト／ビス
  6
CONTINUOUS
 62
    64
 10
90.932735
 20
-0.52378
 11
90.690582
 21
-0.52378
  0
LINE
  8
ボルト／ビス
  6
CONTINUOUS
 62
    64
 10
91.582835
 20
-2.22043
 11
91.582835
 21
-2.920428
  0
LINE
  8
ボルト／ビス
  6
CONTINUOUS
 62
    64
 10
90.932735
 20
-1.820432
 11
90.932735
 21
-0.52378
  0
LINE
  8
ボルト／ビス
  6
CONTINUOUS
 62
    64
 10
91.582835
 20
-2.22043
 11
91.332733
 21
-2.22043
  0
ARC
  8
ボルト／ビス
  6
CONTINUOUS
 62
    64
 10
91.332724
 20
-1.820468
 40
0.4
 50
180.0
 51
270.0
  0
LINE
  8
ボルト／ビス
  6
CONTINUOUS
 62
    64
 10
90.932735
 20
-5.317083
 11
90.690582
 21
-5.317083
  0
LINE
  8
ボルト／ビス
  6
CONTINUOUS
 62
    64
 10
91.582835
 20
-3.620432
 11
91.582835
 21
-2.920428
  0
LINE
  8
ボルト／ビス
  6
CONTINUOUS
 62
    64
 10
90.932735
 20
-4.02043
 11
90.932735
 21
-5.317083
  0
LINE
  8
ボルト／ビス
  6
CONTINUOUS
 62
    64
 10
91.582835
 20
-3.620432
 11
91.332733
 21
-3.620432
  0
ARC
  8
ボルト／ビス
  6
CONTINUOUS
 62
    64
 10
91.332724
 20
-4.020468
 40
0.4
 50
90.0
 51
180.0
  0
LINE
  8
ボルト／ビス
  6
CONTINUOUS
 62
    64
 10
93.14783
 20
0.579567
 11
93.14783
 21
-6.42043
  0
LINE
  8
ボルト／ビス
  6
CONTINUOUS
 62
    64
 10
104.647835
 20
-0.920432
 11
105.14783
 21
-1.420428
  0
LINE
  8
ボルト／ビス
  6
CONTINUOUS
 62
    64
 10
104.647835
 20
-4.92043
 11
105.14783
 21
-4.420428
  0
LINE
  8
ボルト／ビス
  6
CONTINUOUS
 62
    64
 10
104.647835
 20
-0.920432
 11
104.647835
 21
-4.92043
  0
LINE
  8
ボルト／ビス
  6
CONTINUOUS
 62
    64
 10
105.14783
 20
-1.420428
 11
105.14783
 21
-4.420428
  0
LINE
  8
ボルト／ビス
  6
CONTINUOUS
 62
    64
 10
93.14783
 20
-1.420428
 11
105.14783
 21
-1.420428
  0
LINE
  8
ボルト／ビス
  6
CONTINUOUS
 62
    64
 10
93.14783
 20
-4.420428
 11
105.14783
 21
-4.420428
  0
LINE
  8
ボルト／ビス
  6
CONTINUOUS
 62
    64
 10
93.14783
 20
-4.92043
 11
104.647835
 21
-4.92043
  0
LINE
  8
ボルト／ビス
  6
CONTINUOUS
 62
    64
 10
93.14783
 20
-0.920432
 11
104.647835
 21
-0.920432
  0
LINE
  8
ボルト／ビス
  6
DASHDOT
 62
    64
 10
87.547835
 20
-2.920428
 11
108.14783
 21
-2.920428
  0
ENDBLK
  0
BLOCK
  2
*GRP_0029
 70
    65
 10
0.0
 20
0.0
  0
LINE
  8
ボルト／ビス
  6
CONTINUOUS
 62
    64
 10
106.647635
 20
14.079545
 11
108.847632
 21
11.379545
  0
LINE
  8
ボルト／ビス
  6
CONTINUOUS
 62
    64
 10
115.047635
 20
14.079545
 11
112.84763
 21
11.379545
  0
LINE
  8
ボルト／ビス
  6
CONTINUOUS
 62
    64
 10
115.047635
 20
14.079545
 11
106.647635
 21
14.079545
  0
LINE
  8
ボルト／ビス
  6
CONTINUOUS
 62
    64
 10
110.847635
 20
-0.157352
 11
110.847635
 21
18.29762
  0
LINE
  8
ボルト／ビス
  6
CONTINUOUS
 62
    64
 10
112.84763
 20
11.379545
 11
108.847632
 21
11.379545
  0
LINE
  8
ボルト／ビス
  6
CONTINUOUS
 62
    64
 10
112.84763
 20
2.579548
 11
112.347635
 21
2.079545
  0
LINE
  8
ボルト／ビス
  6
CONTINUOUS
 62
    64
 10
108.847632
 20
2.579548
 11
109.347635
 21
2.079545
  0
LINE
  8
ボルト／ビス
  6
CONTINUOUS
 62
    64
 10
108.847632
 20
2.579548
 11
112.84763
 21
2.579548
  0
LINE
  8
ボルト／ビス
  6
CONTINUOUS
 62
    64
 10
112.347635
 20
2.079545
 11
109.347635
 21
2.079545
  0
LINE
  8
ボルト／ビス
  6
CONTINUOUS
 62
    64
 10
112.84763
 20
11.379545
 11
112.84763
 21
2.579548
  0
LINE
  8
ボルト／ビス
  6
CONTINUOUS
 62
    64
 10
108.847632
 20
11.379545
 11
108.847632
 21
2.579548
  0
LINE
  8
ボルト／ビス
  6
CONTINUOUS
 62
    64
 10
109.347635
 20
11.379545
 11
109.347635
 21
2.079545
  0
LINE
  8
ボルト／ビス
  6
CONTINUOUS
 62
    64
 10
112.347635
 20
11.379545
 11
112.347635
 21
2.079545
  0
ENDBLK
  0
BLOCK
  2
*GRP_0030
 70
    65
 10
0.0
 20
0.0
  0
LINE
  8
別途部材
  6
CONTINUOUS
 10
81.45218
 20
28.579572
 11
82.95218
 21
28.579572
  0
LINE
  8
別途部材
  6
CONTINUOUS
 10
81.45218
 20
30.579567
 11
81.45218
 21
28.579572
  0
ARC
  8
別途部材
  6
CONTINUOUS
 10
84.452168
 20
30.579558
 40
3.0
 50
90.0
 51
180.0
  0
LINE
  8
別途部材
  6
CONTINUOUS
 10
82.95218
 20
30.579567
 11
82.95218
 21
28.579572
  0
ARC
  8
別途部材
  6
CONTINUOUS
 10
84.452168
 20
30.579558
 40
1.5
 50
90.0
 51
180.0
  0
LINE
  8
別途部材
  6
CONTINUOUS
 10
84.45218
 20
32.079567
 11
86.147833
 21
32.079567
  0
LINE
  8
別途部材
  6
CONTINUOUS
 10
148.452185
 20
30.379572
 11
148.452185
 21
31.579572
  0
LINE
  8
別途部材
  6
CONTINUOUS
 10
156.45218
 20
32.57957
 11
156.45218
 21
30.379572
  0
ARC
  8
別途部材
  6
CONTINUOUS
 10
155.452168
 20
32.579558
 40
1.0
 50
0.0
 51
90.0
  0
LINE
  8
別途部材
  6
CONTINUOUS
 10
156.45218
 20
30.379572
 11
148.452185
 21
30.379572
  0
LINE
  8
別途部材
  6
CONTINUOUS
 10
84.45218
 20
33.579567
 11
155.452182
 21
33.579567
  0
LINE
  8
別途部材
  6
CONTINUOUS
 10
128.647835
 20
31.579572
 11
148.452185
 21
31.579572
  0
ARC
  8
別途部材
  6
CONTINUOUS
 10
128.647811
 20
28.579548
 40
3.0
 50
90.0
 51
180.0
  0
LINE
  8
別途部材
  6
CONTINUOUS
 10
125.347835
 20
20.57957
 11
125.647835
 21
20.87957
  0
LINE
  8
別途部材
  6
CONTINUOUS
 10
125.347835
 20
20.57957
 11
125.647835
 21
20.27957
  0
LINE
  8
別途部材
  6
CONTINUOUS
 10
125.647835
 20
28.579572
 11
125.647835
 21
20.87957
  0
LINE
  8
別途部材
  6
CONTINUOUS
 10
125.647835
 20
20.27957
 11
125.647835
 21
14.079567
  0
LINE
  8
別途部材
  6
CONTINUOUS
 10
86.447833
 20
-2.920428
 11
86.147833
 21
-2.620428
  0
LINE
  8
別途部材
  6
CONTINUOUS
 10
86.447833
 20
-2.920428
 11
86.147833
 21
-3.220428
  0
LINE
  8
別途部材
  6
CONTINUOUS
 10
86.147833
 20
32.079567
 11
86.147833
 21
-2.620428
  0
LINE
  8
別途部材
  6
CONTINUOUS
 10
86.147833
 20
-3.220428
 11
86.147833
 21
-16.420428
  0
LINE
  8
別途部材
  6
CONTINUOUS
 10
94.64783
 20
9.079572
 11
94.64783
 21
-7.92043
  0
LINE
  8
別途部材
  6
CONTINUOUS
 10
93.14783
 20
-7.92043
 11
94.64783
 21
-7.92043
  0
LINE
  8
別途部材
  6
CONTINUOUS
 10
86.147833
 20
-16.420428
 11
87.647833
 21
-16.420428
  0
LINE
  8
別途部材
  6
CONTINUOUS
 10
94.64783
 20
9.079572
 11
87.647833
 21
9.079572
  0
LINE
  8
別途部材
  6
CONTINUOUS
 10
93.14783
 20
7.579572
 11
87.647833
 21
7.579572
  0
LINE
  8
別途部材
  6
CONTINUOUS
 10
87.647833
 20
7.579572
 11
87.647833
 21
-16.420428
  0
LINE
  8
別途部材
  6
CONTINUOUS
 10
87.647833
 20
14.079567
 11
87.647833
 21
9.079572
  0
LINE
  8
別途部材
  6
CONTINUOUS
 10
93.44783
 20
-2.920428
 11
93.14783
 21
-2.620428
  0
LINE
  8
別途部材
  6
CONTINUOUS
 10
93.44783
 20
-2.920428
 11
93.14783
 21
-3.220428
  0
LINE
  8
別途部材
  6
CONTINUOUS
 10
93.14783
 20
7.579572
 11
93.14783
 21
-2.620428
  0
LINE
  8
別途部材
  6
CONTINUOUS
 10
93.14783
 20
-3.220428
 11
93.14783
 21
-7.92043
  0
LINE
  8
別途部材
  6
DOT
 10
86.147833
 20
2.079567
 11
87.647833
 21
2.079567
  0
LINE
  8
別途部材
  6
DOT
 10
86.147833
 20
-7.92043
 11
87.647833
 21
-7.92043
  0
LINE
  8
別途部材
  6
CONTINUOUS
 10
87.647833
 20
32.079567
 11
124.147835
 21
32.079567
  0
LINE
  8
別途部材
  6
DOT
 10
86.522833
 20
2.079567
 11
86.522833
 21
-7.92043
  0
LINE
  8
別途部材
  6
DOT
 10
86.897833
 20
2.079567
 11
86.897833
 21
-7.92043
  0
LINE
  8
別途部材
  6
DOT
 10
87.272833
 20
2.079567
 11
87.272833
 21
-7.92043
  0
LINE
  8
別途部材
  6
CONTINUOUS
 10
124.147835
 20
32.079567
 11
124.147835
 21
15.579567
  0
LINE
  8
別途部材
  6
CONTINUOUS
 10
87.647833
 20
32.079567
 11
87.647833
 21
15.579567
  0
LINE
  8
別途部材
  6
CONTINUOUS
 10
124.147835
 20
15.579567
 11
87.647833
 21
15.579567
  0
LINE
  8
別途部材
  6
CONTINUOUS
 10
102.397835
 20
14.379567
 11
102.697835
 21
14.079567
  0
LINE
  8
別途部材
  6
CONTINUOUS
 10
102.397835
 20
14.379567
 11
102.097835
 21
14.079567
  0
LINE
  8
別途部材
  6
CONTINUOUS
 10
114.89783
 20
14.379567
 11
115.19783
 21
14.079567
  0
LINE
  8
別途部材
  6
CONTINUOUS
 10
114.89783
 20
14.379567
 11
114.59783
 21
14.079567
  0
LINE
  8
別途部材
  6
CONTINUOUS
 10
102.697835
 20
14.079567
 11
114.59783
 21
14.079567
  0
LINE
  8
別途部材
  6
CONTINUOUS
 10
125.647835
 20
14.079567
 11
115.19783
 21
14.079567
  0
LINE
  8
別途部材
  6
CONTINUOUS
 10
87.647833
 20
14.079567
 11
102.097835
 21
14.079567
  0
ENDBLK
  0
BLOCK
  2
*GRP_0031
 70
    65
 10
0.0
 20
0.0
  0
LINE
  8
曲げ物
  6
CONTINUOUS
 10
96.647833
 20
4.57952
 11
128.846285
 21
4.57952
  0
LINE
  8
曲げ物
  6
CONTINUOUS
 10
128.846285
 20
6.579522
 11
128.846285
 21
4.57952
  0
LINE
  8
曲げ物
  6
CONTINUOUS
 10
96.647833
 20
4.57952
 11
96.647833
 21
-7.42048
  0
LINE
  8
曲げ物
  6
CONTINUOUS
 10
96.647833
 20
-7.42048
 11
94.64783
 21
-7.42048
  0
ARC
  8
曲げ物
  6
CONTINUOUS
 10
96.647838
 20
4.579494
 40
2.0
 50
90.0
 51
180.0
  0
LINE
  8
曲げ物
  6
CONTINUOUS
 10
128.846285
 20
6.579522
 11
96.647833
 21
6.579522
  0
LINE
  8
曲げ物
  6
CONTINUOUS
 10
94.64783
 20
-7.42048
 11
94.64783
 21
4.57952
  0
ENDBLK
  0
BLOCK
  2
*GRP_0032
 70
    65
 10
0.0
 20
0.0
  0
LINE
  8
型材
  6
CONTINUOUS
 62
    47
 10
155.142755
 20
8.679183
 11
155.142755
 21
7.779183
  0
LINE
  8
型材
  6
CONTINUOUS
 62
    47
 10
155.742755
 20
9.279183
 11
155.142755
 21
8.679183
  0
LINE
  8
型材
  6
CONTINUOUS
 62
    47
 10
155.142755
 20
7.779183
 11
157.642755
 21
7.779207
  0
LINE
  8
型材
  6
CONTINUOUS
 62
    47
 10
155.742755
 20
9.279183
 11
159.142755
 21
9.279207
  0
LINE
  8
型材
  6
CONTINUOUS
 62
    47
 10
159.142755
 20
6.279207
 11
151.242855
 21
-1.620693
  0
LINE
  8
型材
  6
CONTINUOUS
 62
    47
 10
159.142755
 20
9.279207
 11
159.14278
 21
6.279207
  0
LINE
  8
型材
  6
CONTINUOUS
 62
    47
 10
157.642755
 20
7.779207
 11
157.642755
 21
6.900533
  0
LINE
  8
型材
  6
CONTINUOUS
 62
    47
 10
149.64288
 20
-2.320693
 11
149.64288
 21
-1.099367
  0
LINE
  8
型材
  6
CONTINUOUS
 62
    47
 10
151.24288
 20
-3.820693
 11
151.24288
 21
-1.620693
  0
LINE
  8
型材
  6
CONTINUOUS
 62
    47
 10
150.142755
 20
8.679183
 11
150.142755
 21
7.779183
  0
LINE
  8
型材
  6
CONTINUOUS
 62
    47
 10
150.142755
 20
8.679183
 11
149.542755
 21
9.279183
  0
LINE
  8
型材
  6
CONTINUOUS
 62
    47
 10
149.542755
 20
9.279183
 11
146.142755
 21
9.279157
  0
LINE
  8
型材
  6
CONTINUOUS
 62
    47
 10
150.142755
 20
7.779183
 11
147.64278
 21
7.779157
  0
LINE
  8
型材
  6
CONTINUOUS
 62
    47
 10
147.142855
 20
-4.920693
 11
147.142855
 21
-2.320693
  0
LINE
  8
型材
  6
CONTINUOUS
 62
    47
 10
148.642855
 20
-4.920693
 11
148.642855
 21
-3.820693
  0
LINE
  8
型材
  6
CONTINUOUS
 62
    47
 10
148.642855
 20
-4.920693
 11
147.142855
 21
-4.920693
  0
LINE
  8
型材
  6
CONTINUOUS
 62
    47
 10
149.64288
 20
-2.320693
 11
147.142855
 21
-2.320693
  0
LINE
  8
型材
  6
CONTINUOUS
 62
    47
 10
137.34253
 20
-2.920693
 11
135.34588
 21
-2.920693
  0
LINE
  8
型材
  6
CONTINUOUS
 62
    47
 10
137.34253
 20
-2.920693
 11
137.34253
 21
-4.920693
  0
LINE
  8
型材
  6
CONTINUOUS
 62
    47
 10
137.34253
 20
-4.920693
 11
133.84588
 21
-4.920693
  0
LINE
  8
型材
  6
CONTINUOUS
 62
    47
 10
133.84588
 20
-4.920693
 11
133.84588
 21
9.279133
  0
LINE
  8
型材
  6
CONTINUOUS
 62
    47
 10
133.84588
 20
9.279133
 11
135.34588
 21
9.279133
  0
LINE
  8
型材
  6
CONTINUOUS
 62
    47
 10
149.64288
 20
-1.099367
 11
153.52143
 21
2.779183
  0
LINE
  8
型材
  6
CONTINUOUS
 62
    47
 10
157.642755
 20
6.900507
 11
155.02143
 21
4.279183
  0
LINE
  8
型材
  6
CONTINUOUS
 62
    47
 10
147.64278
 20
7.779207
 11
147.64278
 21
4.279157
  0
LINE
  8
型材
  6
CONTINUOUS
 62
    47
 10
135.34588
 20
9.279133
 11
135.34588
 21
4.279157
  0
LINE
  8
型材
  6
CONTINUOUS
 62
    47
 10
153.52143
 20
2.779183
 11
135.34588
 21
2.779133
  0
LINE
  8
型材
  6
CONTINUOUS
 62
    47
 10
135.34588
 20
-2.920693
 11
135.34588
 21
2.779133
  0
LINE
  8
型材
  6
CONTINUOUS
 62
    47
 10
146.142755
 20
9.279207
 11
146.14278
 21
4.279157
  0
LINE
  8
型材
  6
CONTINUOUS
 62
    47
 10
155.02143
 20
4.279183
 11
147.64278
 21
4.279157
  0
LINE
  8
型材
  6
CONTINUOUS
 62
    47
 10
141.84253
 20
3.979157
 11
141.54253
 21
4.279157
  0
LINE
  8
型材
  6
CONTINUOUS
 62
    47
 10
141.84253
 20
3.979157
 11
142.14253
 21
4.279157
  0
LINE
  8
型材
  6
CONTINUOUS
 62
    47
 10
146.14278
 20
4.279157
 11
142.14253
 21
4.279157
  0
LINE
  8
型材
  6
CONTINUOUS
 62
    47
 10
141.54253
 20
4.279157
 11
135.34588
 21
4.279157
  0
LINE
  8
型材
  6
CONTINUOUS
 62
    47
 10
148.642855
 20
-3.820693
 11
151.24288
 21
-3.820693
  0
ENDBLK
  0
BLOCK
  2
*GRP_0033
 70
    65
 10
0.0
 20
0.0
  0
LINE
  8
ゴム等
  6
DOT
 10
142.34588
 20
11.279157
 11
145.34588
 21
11.279157
  0
LINE
  8
ゴム等
  6
DOT
 10
145.34588
 20
4.279157
 11
135.34588
 21
4.279157
  0
LINE
  8
ゴム等
  6
DOT
 10
135.34588
 20
4.279157
 11
135.34588
 21
24.279157
  0
LINE
  8
ゴム等
  6
DOT
 10
142.34588
 20
11.279157
 11
142.34588
 21
24.279157
  0
LINE
  8
ゴム等
  6
DOT
 10
135.34588
 20
4.279157
 11
142.34588
 21
18.279157
  0
LINE
  8
ゴム等
  6
DOT
 10
135.34588
 20
24.279157
 11
142.34588
 21
24.279157
  0
LINE
  8
ゴム等
  6
DOT
 10
145.34588
 20
4.279157
 11
145.34588
 21
11.279157
  0
ENDBLK
  0
BLOCK
  2
*GRP_0034
 70
    65
 10
0.0
 20
0.0
  0
LINE
  8
ゴム等
  6
CONTINUOUS
 10
155.042805
 20
7.479207
 11
155.042805
 21
9.279207
  0
LINE
  8
ゴム等
  6
CONTINUOUS
 10
158.642805
 20
9.279207
 11
155.042805
 21
9.279207
  0
LINE
  8
ゴム等
  6
CONTINUOUS
 10
150.242805
 20
7.479207
 11
150.242805
 21
9.279207
  0
LINE
  8
ゴム等
  6
CONTINUOUS
 10
146.642805
 20
9.279207
 11
150.242805
 21
9.279207
  0
LINE
  8
ゴム等
  6
CONTINUOUS
 10
150.242805
 20
7.479207
 11
149.242805
 21
7.479207
  0
LINE
  8
ゴム等
  6
CONTINUOUS
 10
149.242805
 20
7.479207
 11
149.242805
 21
6.979207
  0
LINE
  8
ゴム等
  6
CONTINUOUS
 10
155.042805
 20
7.479207
 11
156.042805
 21
7.479207
  0
LINE
  8
ゴム等
  6
CONTINUOUS
 10
156.042805
 20
6.979207
 11
156.042805
 21
7.479207
  0
ARC
  8
ゴム等
  6
CONTINUOUS
 10
152.642811
 20
6.679189
 40
1.0
 50
180.0
 51
270.0
  0
LINE
  8
ゴム等
  6
CONTINUOUS
 10
152.642805
 20
5.679207
 11
152.642805
 21
5.679207
  0
ARC
  8
ゴム等
  6
CONTINUOUS
 10
152.642811
 20
6.679189
 40
1.0
 50
270.0
 51
360.0
  0
LINE
  8
ゴム等
  6
CONTINUOUS
 10
153.642805
 20
8.279207
 11
153.642805
 21
6.679207
  0
ARC
  8
ゴム等
  6
CONTINUOUS
 10
152.642811
 20
8.279189
 40
1.0
 50
0.0
 51
90.0
  0
LINE
  8
ゴム等
  6
CONTINUOUS
 10
152.642805
 20
9.279207
 11
152.642805
 21
9.279207
  0
LINE
  8
ゴム等
  6
CONTINUOUS
 10
151.642805
 20
8.279207
 11
151.642805
 21
6.679207
  0
ARC
  8
ゴム等
  6
CONTINUOUS
 10
152.642811
 20
8.279189
 40
1.0
 50
90.0
 51
180.0
  0
LINE
  8
ゴム等
  6
CONTINUOUS
 10
158.47123
 20
9.279207
 11
158.642805
 21
9.450783
  0
LINE
  8
ゴム等
  6
CONTINUOUS
 10
149.600155
 20
7.479207
 11
149.242805
 21
7.121858
  0
LINE
  8
ゴム等
  6
CONTINUOUS
 10
158.642805
 20
10.865007
 11
157.05703
 21
9.279207
  0
LINE
  8
ゴム等
  6
CONTINUOUS
 10
155.25703
 20
7.479207
 11
152.55703
 21
4.779207
  0
LINE
  8
ゴム等
  6
CONTINUOUS
 10
158.642805
 20
12.279207
 11
155.642805
 21
9.279207
  0
LINE
  8
ゴム等
  6
CONTINUOUS
 10
155.042805
 20
8.679207
 11
153.642805
 21
7.279207
  0
LINE
  8
ゴム等
  6
CONTINUOUS
 10
148.642805
 20
13.279207
 11
148.642805
 21
13.279207
  0
LINE
  8
ゴム等
  6
CONTINUOUS
 10
153.579305
 20
8.629908
 11
158.642805
 21
13.693433
  0
ARC
  8
ゴム等
  6
CONTINUOUS
 10
149.142811
 20
15.279189
 40
0.5
 50
180.0
 51
270.0
  0
LINE
  8
ゴム等
  6
CONTINUOUS
 10
156.142805
 20
14.779207
 11
149.142805
 21
14.779207
  0
ARC
  8
ゴム等
  6
CONTINUOUS
 10
156.142811
 20
15.279189
 40
0.5
 50
270.0
 51
360.0
  0
LINE
  8
ゴム等
  6
CONTINUOUS
 10
156.642805
 20
15.279207
 11
158.642805
 21
15.279207
  0
LINE
  8
ゴム等
  6
CONTINUOUS
 10
148.642805
 20
15.279207
 11
146.642805
 21
15.279207
  0
LINE
  8
ゴム等
  6
CONTINUOUS
 10
158.642805
 20
9.279207
 11
158.642805
 21
15.279207
  0
LINE
  8
ゴム等
  6
CONTINUOUS
 10
146.642805
 20
9.279207
 11
146.642805
 21
15.279207
  0
LINE
  8
ゴム等
  6
CONTINUOUS
 10
146.642805
 20
13.007133
 11
148.694155
 21
15.058482
  0
LINE
  8
ゴム等
  6
CONTINUOUS
 10
146.642805
 20
11.592932
 11
149.829105
 21
14.779207
  0
LINE
  8
ゴム等
  6
CONTINUOUS
 10
146.642805
 20
10.178708
 11
151.243305
 21
14.779207
  0
LINE
  8
ゴム等
  6
CONTINUOUS
 10
147.15753
 20
9.279207
 11
152.65753
 21
14.779207
  0
LINE
  8
ゴム等
  6
CONTINUOUS
 10
148.57173
 20
9.279207
 11
154.07173
 21
14.779207
  0
LINE
  8
ゴム等
  6
CONTINUOUS
 10
149.985955
 20
9.279207
 11
155.485955
 21
14.779207
  0
LINE
  8
ゴム等
  6
CONTINUOUS
 10
150.242805
 20
8.121858
 11
157.400155
 21
15.279207
  0
LINE
  8
ゴム等
  6
CONTINUOUS
 10
152.80168
 20
9.266508
 11
158.642805
 21
15.107632
  0
LINE
  8
ゴム等
  6
CONTINUOUS
 10
147.50068
 20
15.279207
 11
146.642805
 21
14.421357
  0
LINE
  8
ゴム等
  6
CONTINUOUS
 10
149.242805
 20
6.979207
 11
151.642805
 21
4.779207
  0
LINE
  8
ゴム等
  6
CONTINUOUS
 10
156.042805
 20
6.979207
 11
153.642805
 21
4.779207
  0
LINE
  8
ゴム等
  6
CONTINUOUS
 10
151.642805
 20
4.779207
 11
153.642805
 21
4.779207
  0
LINE
  8
ゴム等
  6
CONTINUOUS
 10
152.16458
 20
5.800982
 11
151.38193
 21
5.018332
  0
LINE
  8
ゴム等
  6
CONTINUOUS
 10
151.642805
 20
6.693433
 11
150.64408
 21
5.694708
  0
LINE
  8
ゴム等
  6
CONTINUOUS
 10
151.642805
 20
8.107632
 11
149.90623
 21
6.371083
  0
ENDBLK
  0
BLOCK
  2
*DIM_0035
 70
    65
 10
0.0
 20
0.0
  0
LINE
  8
寸法
  6
BYBLOCK
 62
     0
 10
183.014075
 20
15.279207
 11
183.014075
 21
22.079157
  0
POINT
  8
寸法
 62
     0
 10
183.014075
 20
22.079157
  0
TEXT
  7
TextStyle03
  8
寸法
  6
CONTINUOUS
 62
     0
 10
182.625
 20
16.2125
  1
6.8
 40
3.0
 50
90.0
 72
     5
 11
182.625
 21
21.0875
  0
ENDBLK
  0
BLOCK
  2
*DIM_0036
 70
    65
 10
0.0
 20
0.0
  0
LINE
  8
寸法
  6
CONTINUOUS
 10
158.846035
 20
-6.920575
 11
183.014075
 21
-6.920575
  0
LINE
  8
寸法
  6
CONTINUOUS
 10
164.142755
 20
9.279207
 11
183.014075
 21
9.279207
  0
LINE
  8
寸法
  6
CONTINUOUS
 10
183.014075
 20
-6.920575
 11
183.014075
 21
9.279207
  0
POINT
  8
寸法
 10
183.014075
 20
-6.920575
  0
POINT
  8
寸法
 10
183.014075
 20
9.279207
  0
TEXT
  7
TextStyle03
  8
寸法
  6
CONTINUOUS
 10
182.625
 20
-3.2
  1
16.2
 40
4.0
 50
90.0
 72
     5
 11
182.625
 21
5.55
  0
ENDBLK
  0
BLOCK
  2
*DIM_0037
 70
    65
 10
0.0
 20
0.0
  0
LINE
  8
寸法
  6
CONTINUOUS
 10
183.014075
 20
9.279207
 11
183.014075
 21
15.279207
  0
POINT
  8
寸法
 10
183.014075
 20
15.279207
  0
TEXT
  7
TextStyle03
  8
寸法
  6
CONTINUOUS
 10
182.625
 20
11.275
  1
6
 40
4.0
 50
90.0
 72
     5
 11
182.625
 21
13.275
  0
ENDBLK
  0
BLOCK
  2
*DIM_0038
 70
    65
 10
0.0
 20
0.0
  0
LINE
  8
寸法
  6
CONTINUOUS
 10
161.45218
 20
30.379572
 11
183.014075
 21
30.379572
  0
LINE
  8
寸法
  6
CONTINUOUS
 10
183.014075
 20
22.079157
 11
183.014075
 21
30.379572
  0
POINT
  8
寸法
 10
183.014075
 20
22.079157
  0
POINT
  8
寸法
 10
183.014075
 20
30.379572
  0
TEXT
  7
TextStyle03
  8
寸法
  6
CONTINUOUS
 10
182.625
 20
22.975
  1
8.3
 40
4.0
 50
90.0
 72
     5
 11
182.625
 21
29.475
  0
ENDBLK
  0
BLOCK
  2
*DIM_0039
 70
    65
 10
0.0
 20
0.0
  0
LINE
  8
寸法
  6
CONTINUOUS
 10
159.797077
 20
33.579567
 11
183.014075
 21
33.579567
  0
LINE
  8
寸法
  6
CONTINUOUS
 10
183.014075
 20
30.379572
 11
183.014075
 21
33.579567
  0
POINT
  8
寸法
 10
183.014075
 20
30.379572
  0
POINT
  8
寸法
 10
183.014075
 20
33.579567
  0
TEXT
  7
TextStyle03
  8
寸法
  6
CONTINUOUS
 10
187.125
 20
28.725
  1
3.2
 40
4.0
 50
90.0
 72
     5
 11
187.125
 21
35.225
  0
ENDBLK
  0
BLOCK
  2
*DIM_0040
 70
    65
 10
0.0
 20
0.0
  0
LINE
  8
寸法
  6
CONTINUOUS
 10
-71.658447
 20
33.579567
 11
-170.306992
 21
33.579567
  0
LINE
  8
寸法
  6
CONTINUOUS
 10
-170.306992
 20
-65.920488
 11
-170.306992
 21
33.579567
  0
POINT
  8
寸法
 10
-170.306992
 20
-65.920488
  0
POINT
  8
寸法
 10
-170.306992
 20
33.579567
  0
TEXT
  7
TextStyle03
  8
寸法
  6
CONTINUOUS
 10
-170.7
 20
-20.55
  1
99.5
 40
4.0
 50
90.0
 72
     5
 11
-170.7
 21
-11.8
  0
ENDBLK
  0
BLOCK
  2
*DIM_0041
 70
    65
 10
0.0
 20
0.0
  0
LINE
  8
寸法
  6
CONTINUOUS
 10
-71.881203
 20
33.579572
 11
-71.881203
 21
65.110305
  0
LINE
  8
寸法
  6
CONTINUOUS
 10
-22.485753
 20
65.110305
 11
-71.881203
 21
65.110305
  0
POINT
  8
寸法
 10
-22.485753
 20
65.110305
  0
POINT
  8
寸法
 10
-71.881203
 20
65.110305
  0
TEXT
  7
TextStyle03
  8
寸法
  6
CONTINUOUS
 10
-51.575
 20
65.475
  1
49.4
 40
4.0
 72
     5
 11
-42.825
 21
65.475
  0
ENDBLK
  0
BLOCK
  2
*DIM_0042
 70
    65
 10
0.0
 20
0.0
  0
LINE
  8
寸法
  6
CONTINUOUS
 10
-112.487095
 20
-45.920555
 11
-112.487095
 21
65.110305
  0
LINE
  8
寸法
  6
CONTINUOUS
 10
-71.881203
 20
65.110305
 11
-112.487095
 21
65.110305
  0
POINT
  8
寸法
 10
-112.487095
 20
65.110305
  0
TEXT
  7
TextStyle03
  8
寸法
  6
CONTINUOUS
 10
-96.575
 20
65.475
  1
40.6
 40
4.0
 72
     5
 11
-87.825
 21
65.475
  0
ENDBLK
  0
BLOCK
  2
*DIM_0043
 70
    65
 10
0.0
 20
0.0
  0
LINE
  8
寸法
  6
CONTINUOUS
 10
40.61699
 20
3.07952
 11
45.42028
 21
3.07952
  0
LINE
  8
寸法
  6
CONTINUOUS
 10
45.42028
 20
-6.920575
 11
45.42028
 21
3.07952
  0
POINT
  8
寸法
 10
45.42028
 20
-6.920575
  0
POINT
  8
寸法
 10
45.42028
 20
3.07952
  0
TEXT
  7
TextStyle03
  8
寸法
  6
CONTINUOUS
 10
45.025
 20
-4.05
  1
10
 40
4.0
 50
90.0
 72
     5
 11
45.025
 21
0.2
  0
ENDBLK
  0
BLOCK
  2
*DIM_0044
 70
    65
 10
0.0
 20
0.0
  0
LINE
  8
寸法
  6
CONTINUOUS
 10
40.61699
 20
21.879522
 11
45.42028
 21
21.879522
  0
LINE
  8
寸法
  6
CONTINUOUS
 10
45.42028
 20
3.07952
 11
45.42028
 21
21.879522
  0
POINT
  8
寸法
 10
45.42028
 20
21.879522
  0
TEXT
  7
TextStyle03
  8
寸法
  6
CONTINUOUS
 10
45.025
 20
8.1
  1
18.8
 40
4.0
 50
90.0
 72
     5
 11
45.025
 21
16.85
  0
ENDBLK
  0
BLOCK
  2
*DIM_0045
 70
    65
 10
0.0
 20
0.0
  0
LINE
  8
寸法
  6
CONTINUOUS
 10
8.118798
 20
30.379572
 11
45.42028
 21
30.379572
  0
LINE
  8
寸法
  6
CONTINUOUS
 10
45.42028
 20
21.879522
 11
45.42028
 21
30.379572
  0
POINT
  8
寸法
 10
45.42028
 20
30.379572
  0
TEXT
  7
TextStyle03
  8
寸法
  6
CONTINUOUS
 10
45.025
 20
22.875
  1
8.5
 40
4.0
 50
90.0
 72
     5
 11
45.025
 21
29.375
  0
ENDBLK
  0
BLOCK
  2
*DIM_0046
 70
    65
 10
0.0
 20
0.0
  0
LINE
  8
寸法
  6
CONTINUOUS
 10
7.118785
 20
33.579558
 11
45.42028
 21
33.579558
  0
LINE
  8
寸法
  6
CONTINUOUS
 10
45.42028
 20
30.379572
 11
45.42028
 21
33.579558
  0
POINT
  8
寸法
 10
45.42028
 20
33.579558
  0
TEXT
  7
TextStyle03
  8
寸法
  6
CONTINUOUS
 10
45.025
 20
35.475
  1
3.2
 40
4.0
 50
90.0
 72
     5
 11
45.025
 21
41.975
  0
ENDBLK
  0
BLOCK
  2
*GRP_0047
 70
    65
 10
0.0
 20
0.0
  0
LINE
  8
ボルト／ビス
  6
CONTINUOUS
 62
    64
 10
145.342525
 20
4.279157
 11
145.25083
 21
5.327305
  0
ARC
  8
ボルト／ビス
  6
CONTINUOUS
 62
    64
 10
143.557258
 20
5.179169
 40
1.7
 50
4.999989
 51
90.0
  0
LINE
  8
ボルト／ビス
  6
CONTINUOUS
 62
    64
 10
143.557278
 20
6.879153
 11
141.84253
 21
6.879153
  0
LINE
  8
ボルト／ビス
  6
CONTINUOUS
 62
    64
 10
138.342527
 20
4.279157
 11
138.43423
 21
5.327305
  0
ARC
  8
ボルト／ビス
  6
CONTINUOUS
 62
    64
 10
140.127724
 20
5.179169
 40
1.7
 50
90.0
 51
175.000011
  0
LINE
  8
ボルト／ビス
  6
CONTINUOUS
 62
    64
 10
140.127775
 20
6.879153
 11
141.84253
 21
6.879153
  0
LINE
  8
ボルト／ビス
  6
CONTINUOUS
 62
    64
 10
144.239178
 20
6.494253
 11
144.239178
 21
6.736405
  0
LINE
  8
ボルト／ビス
  6
CONTINUOUS
 62
    64
 10
142.542527
 20
5.844153
 11
141.84253
 21
5.844153
  0
LINE
  8
ボルト／ビス
  6
CONTINUOUS
 62
    64
 10
142.942525
 20
6.494253
 11
144.239178
 21
6.494253
  0
LINE
  8
ボルト／ビス
  6
CONTINUOUS
 62
    64
 10
142.542527
 20
5.844153
 11
142.542527
 21
6.094255
  0
ARC
  8
ボルト／ビス
  6
CONTINUOUS
 62
    64
 10
142.942491
 20
6.094264
 40
0.4
 50
90.0
 51
180.0
  0
LINE
  8
ボルト／ビス
  6
CONTINUOUS
 62
    64
 10
139.445875
 20
6.494253
 11
139.445875
 21
6.736405
  0
LINE
  8
ボルト／ビス
  6
CONTINUOUS
 62
    64
 10
141.142525
 20
5.844153
 11
141.84253
 21
5.844153
  0
LINE
  8
ボルト／ビス
  6
CONTINUOUS
 62
    64
 10
140.742527
 20
6.494253
 11
139.445875
 21
6.494253
  0
LINE
  8
ボルト／ビス
  6
CONTINUOUS
 62
    64
 10
141.142525
 20
5.844153
 11
141.142525
 21
6.094255
  0
ARC
  8
ボルト／ビス
  6
CONTINUOUS
 62
    64
 10
140.742491
 20
6.094264
 40
0.4
 50
0.0
 51
90.0
  0
LINE
  8
ボルト／ビス
  6
CONTINUOUS
 62
    64
 10
145.342525
 20
4.279157
 11
138.342527
 21
4.279157
  0
LINE
  8
ボルト／ビス
  6
CONTINUOUS
 62
    64
 10
143.842525
 20
-7.220848
 11
143.34253
 21
-7.720842
  0
LINE
  8
ボルト／ビス
  6
CONTINUOUS
 62
    64
 10
139.842527
 20
-7.220848
 11
140.34253
 21
-7.720842
  0
LINE
  8
ボルト／ビス
  6
CONTINUOUS
 62
    64
 10
143.842525
 20
-7.220848
 11
139.842527
 21
-7.220848
  0
LINE
  8
ボルト／ビス
  6
CONTINUOUS
 62
    64
 10
143.34253
 20
-7.720842
 11
140.34253
 21
-7.720842
  0
LINE
  8
ボルト／ビス
  6
CONTINUOUS
 62
    64
 10
143.34253
 20
4.279157
 11
143.34253
 21
-7.720842
  0
LINE
  8
ボルト／ビス
  6
CONTINUOUS
 62
    64
 10
140.34253
 20
4.279157
 11
140.34253
 21
-7.720842
  0
LINE
  8
ボルト／ビス
  6
CONTINUOUS
 62
    64
 10
139.842527
 20
4.279157
 11
139.842527
 21
-7.220848
  0
LINE
  8
ボルト／ビス
  6
CONTINUOUS
 62
    64
 10
143.842525
 20
4.279157
 11
143.842525
 21
-7.220848
  0
LINE
  8
ボルト／ビス
  6
DASHDOT
 62
    64
 10
141.84253
 20
9.879153
 11
141.84253
 21
-10.720842
  0
ENDBLK
  0
BLOCK
  2
*DIM_0048
 70
    65
 10
0.0
 20
0.0
  0
LINE
  8
寸法
  6
CONTINUOUS
 10
130.846055
 20
-26.920515
 11
130.846055
 21
-29.82069
  0
LINE
  8
寸法
  6
CONTINUOUS
 10
153.846035
 20
-11.920575
 11
153.846035
 21
-29.82069
  0
LINE
  8
寸法
  6
CONTINUOUS
 10
130.846055
 20
-29.82069
 11
153.846035
 21
-29.82069
  0
POINT
  8
寸法
 10
130.846055
 20
-29.82069
  0
POINT
  8
寸法
 10
153.846035
 20
-29.82069
  0
TEXT
  7
TextStyle03
  8
寸法
  6
CONTINUOUS
 10
140.2
 20
-29.45
  1
23
 40
4.0
 72
     5
 11
144.45
 21
-29.45
  0
ENDBLK
  0
BLOCK
  2
*DIM_0049
 70
    65
 10
0.0
 20
0.0
  0
LINE
  8
寸法
  6
CONTINUOUS
 10
159.142755
 20
1.279207
 11
159.142755
 21
-29.82069
  0
LINE
  8
寸法
  6
CONTINUOUS
 10
153.846035
 20
-29.82069
 11
159.142755
 21
-29.82069
  0
POINT
  8
寸法
 10
159.142755
 20
-29.82069
  0
TEXT
  7
TextStyle03
  8
寸法
  6
CONTINUOUS
 10
153.225
 20
-33.95
  1
5.3
 40
4.0
 72
     5
 11
159.725
 21
-33.95
  0
ENDBLK
  0
BLOCK
  2
*DIM_0050
 70
    65
 10
0.0
 20
0.0
  0
LINE
  8
寸法
  6
CONTINUOUS
 10
135.34586
 20
21.079203
 11
135.34586
 21
50.47469
  0
LINE
  8
寸法
  6
CONTINUOUS
 10
130.84763
 20
50.47469
 11
135.34586
 21
50.47469
  0
POINT
  8
寸法
 10
130.84763
 20
50.47469
  0
POINT
  8
寸法
 10
135.34586
 20
50.47469
  0
TEXT
  7
TextStyle03
  8
寸法
  6
CONTINUOUS
 10
129.825
 20
50.825
  1
4.5
 40
4.0
 72
     5
 11
136.325
 21
50.825
  0
ENDBLK
  0
BLOCK
  2
*DIM_0051
 70
    65
 10
0.0
 20
0.0
  0
LINE
  8
寸法
  6
CONTINUOUS
 10
159.142755
 20
14.279207
 11
159.142755
 21
50.47469
  0
LINE
  8
寸法
  6
CONTINUOUS
 10
135.34586
 20
50.47469
 11
159.142755
 21
50.47469
  0
POINT
  8
寸法
 10
159.142755
 20
50.47469
  0
TEXT
  7
TextStyle03
  8
寸法
  6
CONTINUOUS
 10
142.85
 20
50.825
  1
23.8
 40
4.0
 72
     5
 11
151.6
 21
50.825
  0
ENDBLK
  0
ENDSEC
  0
SECTION
  2
ENTITIES
  0
POLYLINE
  8
通り芯
  6
CONTINUOUS
 66
     1
 70
     1
  0
VERTEX
  8
通り芯
 10
-210.0
 20
-148.5
  0
VERTEX
  8
通り芯
 10
210.0
 20
-148.5
  0
VERTEX
  8
通り芯
 10
210.0
 20
148.5
  0
VERTEX
  8
通り芯
 10
-210.0
 20
148.5
  0
SEQEND
  0
LINE
  8
通り芯
  6
CONTINUOUS
 62
    64
 10
110.84763
 20
-4.227775
 11
110.84763
 21
32.929805
  0
LINE
  8
通り芯
  6
CONTINUOUS
 10
-56.435822
 20
11.079545
 11
-56.435822
 21
9.079595
  0
LINE
  8
通り芯
  6
CONTINUOUS
 10
-56.435852
 20
11.079545
 11
-56.4358
 21
9.079595
  0
LINE
  8
型材断面
  6
CONTINUOUS
 10
195.0
 20
133.5
 11
195.0
 21
-133.5
  0
LINE
  8
型材断面
  6
CONTINUOUS
 10
195.0
 20
-133.5
 11
-185.0
 21
-133.5
  0
LINE
  8
型材断面
  6
CONTINUOUS
 10
-185.0
 20
-133.5
 11
-185.0
 21
133.5
  0
LINE
  8
型材断面
  6
CONTINUOUS
 10
195.0
 20
133.5
 11
-185.0
 21
133.5
  0
LINE
  8
型材断面
  6
CONTINUOUS
 10
145.0
 20
-133.5
 11
145.0
 21
-118.5
  0
LINE
  8
型材断面
  6
CONTINUOUS
 10
195.0
 20
-118.5
 11
145.0
 21
-118.5
  0
LINE
  8
型材断面
  6
CONTINUOUS
 10
-22.487327
 20
-8.92036
 11
-22.487327
 21
-10.920453
  0
LINE
  8
型材断面
  6
DASHDOT
 10
-22.485753
 20
1.332035
 11
-22.485753
 21
50.47469
  0
LINE
  8
型材断面
  6
CONTINUOUS
 10
-22.485753
 20
72.51068
 11
50.583005
 21
72.51068
  0
POLYLINE
  8
型材断面
  6
CONTINUOUS
 66
     1
  0
VERTEX
  8
型材断面
 10
50.583005
 20
72.51068
  0
VERTEX
  8
型材断面
 10
44.019953
 20
74.299837
  0
VERTEX
  8
型材断面
 10
44.019953
 20
72.51068
  0
SEQEND
  0
POLYLINE
  8
型材断面
  6
CONTINUOUS
 66
     1
  0
VERTEX
  8
型材断面
 10
47.913758
 20
72.51068
  0
VERTEX
  8
型材断面
 10
41.350705
 20
74.299837
  0
VERTEX
  8
型材断面
 10
41.350705
 20
72.51068
  0
SEQEND
  0
INSERT
  2
*GRP_0001
  8
型材断面
  6
CONTINUOUS
 10
0.0
 20
0.0
  0
LINE
  8
型材断面
  6
CONTINUOUS
 10
0.512652
 20
-6.920575
 11
35.61699
 21
-6.920575
  0
LINE
  8
型材断面
  6
CONTINUOUS
 10
0.512652
 20
-2.920622
 11
35.61699
 21
-2.920622
  0
LINE
  8
型材断面
  6
DOT
 10
-24.48715
 20
-36.00514
 11
-22.487327
 21
-35.66614
  0
LINE
  8
型材断面
  6
DOT
 10
-22.487327
 20
-27.920583
 11
-24.48715
 21
-27.920583
  0
LINE
  8
型材断面
  6
DOT
 10
-23.987195
 20
-35.92039
 11
-23.987195
 21
-27.920583
  0
LINE
  8
型材断面
  6
DOT
 10
-23.487237
 20
-35.83564
 11
-23.487237
 21
-27.920583
  0
LINE
  8
型材断面
  6
DOT
 10
-22.987283
 20
-35.75089
 11
-22.987283
 21
-27.920583
  0
LINE
  8
型材断面
  6
DOT
 10
-17.987522
 20
-27.920583
 11
-14.487327
 21
-27.920583
  0
LINE
  8
型材断面
  6
DOT
 10
-14.487327
 20
-27.920583
 11
-14.487327
 21
-34.31025
  0
LINE
  8
型材断面
  6
DOT
 10
-14.487327
 20
-32.648502
 11
-16.488195
 21
-34.64937
  0
LINE
  8
型材断面
  6
DOT
 10
-14.487327
 20
-30.527182
 11
-19.04242
 21
-35.082275
  0
LINE
  8
型材断面
  6
DOT
 10
-14.487327
 20
-28.405862
 11
-21.596648
 21
-35.515182
  0
LINE
  8
型材断面
  6
DOT
 10
-16.123368
 20
-27.920583
 11
-22.487327
 21
-34.284543
  0
LINE
  8
型材断面
  6
DOT
 10
-18.244687
 20
-27.920583
 11
-22.487327
 21
-32.163223
  0
LINE
  8
型材断面
  6
DOT
 10
-20.366007
 20
-27.920583
 11
-22.487327
 21
-30.041903
  0
LINE
  8
型材断面
  6
CONTINUOUS
 10
130.846055
 20
-8.92036
 11
130.846055
 21
-10.920453
  0
LINE
  8
型材断面
  6
DASHDOT
 10
130.84763
 20
1.332035
 11
130.84763
 21
50.47469
  0
LINE
  8
型材断面
  6
CONTINUOUS
 62
    47
 10
134.146055
 20
16.079203
 11
135.34586
 21
16.079203
  0
LINE
  8
型材断面
  6
CONTINUOUS
 62
    47
 10
134.146055
 20
14.079162
 11
130.846055
 21
14.079162
  0
LINE
  8
型材断面
  6
CONTINUOUS
 62
    47
 10
135.34586
 20
16.079203
 11
128.846233
 21
16.079203
  0
LINE
  8
型材断面
  6
CONTINUOUS
 62
    47
 10
128.846233
 20
14.079545
 11
128.846233
 21
16.079203
  0
LINE
  8
型材断面
  6
CONTINUOUS
 62
    47
 10
130.846055
 20
14.079545
 11
134.146055
 21
14.079545
  0
LINE
  8
型材断面
  6
CONTINUOUS
 62
    47
 10
130.846055
 20
-6.920575
 11
153.846035
 21
-6.920575
  0
LINE
  8
型材断面
  6
CONTINUOUS
 62
    47
 10
153.846035
 20
-6.920575
 11
153.846035
 21
-2.920622
  0
LINE
  8
型材断面
  6
CONTINUOUS
 62
    47
 10
153.846035
 20
-2.920622
 11
152.64623
 21
-2.920622
  0
LINE
  8
型材断面
  6
CONTINUOUS
 62
    47
 10
152.64623
 20
-4.920482
 11
152.64623
 21
-2.920622
  0
LINE
  8
型材断面
  6
CONTINUOUS
 62
    47
 10
137.84573
 20
-1.120683
 11
141.84584
 21
-1.120683
  0
LINE
  8
型材断面
  6
CONTINUOUS
 62
    47
 10
141.84584
 20
-1.120683
 11
141.84584
 21
-4.920693
  0
LINE
  8
型材断面
  6
CONTINUOUS
 62
    47
 10
140.345953
 20
-4.920693
 11
140.345953
 21
-2.620683
  0
LINE
  8
型材断面
  6
CONTINUOUS
 62
    47
 10
140.345953
 20
-2.620683
 11
137.84573
 21
-2.620683
  0
LINE
  8
型材断面
  6
CONTINUOUS
 62
    47
 10
137.84573
 20
-2.620683
 11
137.84573
 21
-1.120683
  0
LINE
  8
型材断面
  6
CONTINUOUS
 62
    47
 10
152.64623
 20
-4.920482
 11
141.84584
 21
-4.920482
  0
LINE
  8
型材断面
  6
CONTINUOUS
 62
    47
 10
140.345953
 20
-4.920693
 11
130.846055
 21
-4.920693
  0
LINE
  8
型材断面
  6
CONTINUOUS
 62
    47
 10
130.846055
 20
14.079545
 11
130.846055
 21
-4.920693
  0
LINE
  8
型材断面
  6
CONTINUOUS
 10
135.34586
 20
11.079207
 11
134.146055
 21
11.079207
  0
LINE
  8
型材断面
  6
CONTINUOUS
 62
    47
 10
134.146055
 20
14.079162
 11
134.146055
 21
11.079207
  0
LINE
  8
型材断面
  6
CONTINUOUS
 62
    47
 10
126.246133
 20
7.77944
 11
128.846233
 21
7.77944
  0
LINE
  8
型材断面
  6
CONTINUOUS
 62
    47
 10
126.246133
 20
6.579508
 11
128.846233
 21
6.579508
  0
LINE
  8
型材断面
  6
CONTINUOUS
 62
    47
 10
125.846315
 20
6.979505
 11
125.846315
 21
7.379495
  0
ARC
  8
型材断面
  6
CONTINUOUS
 62
    47
 10
126.246129
 20
7.379493
 40
0.4
 50
90.001373
 51
180.002747
  0
ARC
  8
型材断面
  6
CONTINUOUS
 62
    47
 10
126.246129
 20
6.9795
 40
0.4
 50
180.002747
 51
270.00412
  0
LINE
  8
型材断面
  6
CONTINUOUS
 62
    47
 10
99.247745
 20
6.579508
 11
94.647823
 21
6.579508
  0
LINE
  8
型材断面
  6
CONTINUOUS
 62
    47
 10
99.247745
 20
7.77944
 11
96.647578
 21
7.77944
  0
LINE
  8
型材断面
  6
CONTINUOUS
 62
    47
 10
99.647562
 20
7.379495
 11
99.647562
 21
6.979505
  0
ARC
  8
型材断面
  6
CONTINUOUS
 62
    47
 10
99.247744
 20
6.9795
 40
0.4
 50
270.00412
 51
360.0
  0
ARC
  8
型材断面
  6
CONTINUOUS
 62
    47
 10
99.247744
 20
7.379493
 40
0.4
 50
0.0
 51
90.001373
  0
LINE
  8
型材断面
  6
CONTINUOUS
 10
128.846233
 20
11.079545
 11
96.647578
 21
11.079545
  0
LINE
  8
型材断面
  6
CONTINUOUS
 62
    47
 10
96.647578
 20
7.77944
 11
96.647578
 21
11.079545
  0
LINE
  8
型材断面
  6
CONTINUOUS
 62
    47
 10
128.846233
 20
7.77944
 11
128.846233
 21
11.079545
  0
LINE
  8
型材断面
  6
CONTINUOUS
 10
110.847628
 20
13.779545
 11
111.147628
 21
14.079545
  0
LINE
  8
型材断面
  6
CONTINUOUS
 62
    47
 10
128.846233
 20
14.079545
 11
111.147628
 21
14.079545
  0
LINE
  8
型材断面
  6
CONTINUOUS
 10
110.847628
 20
13.779545
 11
110.547628
 21
14.079545
  0
LINE
  8
型材断面
  6
CONTINUOUS
 62
    47
 10
110.547628
 20
14.079545
 11
94.647823
 21
14.079545
  0
LINE
  8
型材断面
  6
CONTINUOUS
 10
94.647823
 20
6.579508
 11
94.647823
 21
14.079545
  0
LINE
  8
型材断面
  6
CONTINUOUS
 10
135.34586
 20
16.079203
 11
135.34586
 21
11.079207
  0
LINE
  8
型材断面
  6
CONTINUOUS
 62
    47
 10
128.846233
 20
6.579508
 11
128.846233
 21
-21.920515
  0
LINE
  8
型材断面
  6
CONTINUOUS
 62
    47
 10
130.846055
 20
-6.920575
 11
130.846055
 21
-21.920515
  0
POLYLINE
  8
型材断面
  6
CONTINUOUS
 66
     1
 70
     1
  0
VERTEX
  8
型材断面
 10
195.0
 20
65.294748
  0
VERTEX
  8
型材断面
 10
64.59874
 20
65.294748
  0
VERTEX
  8
型材断面
 10
64.59874
 20
-33.705253
  0
VERTEX
  8
型材断面
 10
195.0
 20
-33.705253
  0
SEQEND
  0
INSERT
  2
*GRP_0032
  8
型材断面
  6
CONTINUOUS
 62
    47
 10
0.0
 20
0.0
  0
LINE
  8
型材断面
  6
CONTINUOUS
 10
-113.487095
 20
-65.920488
 11
-170.306992
 21
-65.920488
  0
INSERT
  2
*GRP_0002
  8
ガラス
  6
CONTINUOUS
 10
0.0
 20
0.0
  0
INSERT
  2
*GRP_0003
  8
ガラス
  6
CONTINUOUS
 10
0.0
 20
0.0
  0
INSERT
  2
*GRP_0004
  8
ガラス
  6
CONTINUOUS
 10
0.0
 20
0.0
  0
INSERT
  2
*GRP_0005
  8
ガラス
  6
CONTINUOUS
 10
0.0
 20
0.0
  0
INSERT
  2
*GRP_0006
  8
ガラス
  6
CONTINUOUS
 10
0.0
 20
0.0
  0
LINE
  8
ガラス
  6
CONTINUOUS
 10
-12.485755
 20
3.07952
 11
35.61699
 21
3.07952
  0
LINE
  8
ガラス
  6
CONTINUOUS
 10
-12.485755
 20
3.579515
 11
35.61699
 21
3.579515
  0
LINE
  8
ガラス
  6
CONTINUOUS
 10
-12.485755
 20
9.379475
 11
35.61699
 21
9.379475
  0
LINE
  8
ガラス
  6
CONTINUOUS
 10
-12.485755
 20
9.87947
 11
35.61699
 21
9.87947
  0
LINE
  8
ガラス
  6
CONTINUOUS
 10
-6.485755
 20
15.879522
 11
-6.485755
 21
9.879522
  0
LINE
  8
ガラス
  6
CONTINUOUS
 10
-12.485755
 20
9.879522
 11
-6.485755
 21
15.879522
  0
LINE
  8
ガラス
  6
CONTINUOUS
 10
-12.485755
 20
15.879522
 11
-6.485755
 21
9.879522
  0
LINE
  8
ガラス
  6
CONTINUOUS
 10
-12.485755
 20
3.07952
 11
-12.485755
 21
21.879522
  0
LINE
  8
ガラス
  6
CONTINUOUS
 10
-12.485755
 20
21.37952
 11
35.61699
 21
21.37952
  0
LINE
  8
ガラス
  6
CONTINUOUS
 10
-12.485755
 20
21.879522
 11
35.61699
 21
21.879522
  0
LINE
  8
ガラス
  6
CONTINUOUS
 10
-12.485755
 20
15.879522
 11
35.61699
 21
15.879522
  0
LINE
  8
ガラス
  6
CONTINUOUS
 10
-12.485755
 20
16.379525
 11
35.61699
 21
16.379525
  0
LINE
  8
ガラス
  6
CONTINUOUS
 10
142.34588
 20
15.279207
 11
142.34588
 21
22.079157
  0
LINE
  8
ガラス
  6
CONTINUOUS
 10
188.950373
 20
21.579162
 11
142.34588
 21
21.579162
  0
LINE
  8
ガラス
  6
CONTINUOUS
 10
188.950373
 20
22.079157
 11
142.34588
 21
22.079157
  0
LINE
  8
ガラス
  6
CONTINUOUS
 10
188.950373
 20
15.279207
 11
142.34588
 21
15.279207
  0
LINE
  8
ガラス
  6
CONTINUOUS
 10
188.950373
 20
15.779203
 11
142.34588
 21
15.779203
  0
INSERT
  2
*GRP_0027
  8
ゴム等
  6
CONTINUOUS
 10
0.0
 20
0.0
  0
INSERT
  2
*GRP_0033
  8
ゴム等
  6
DOT
 10
0.0
 20
0.0
  0
INSERT
  2
*GRP_0034
  8
ゴム等
  6
CONTINUOUS
 10
0.0
 20
0.0
  0
INSERT
  2
*GRP_0007
  8
ボルト／ビス
  6
CONTINUOUS
 62
    64
 10
0.0
 20
0.0
  0
INSERT
  2
*GRP_0008
  8
ボルト／ビス
  6
CONTINUOUS
 62
    64
 10
0.0
 20
0.0
  0
INSERT
  2
*GRP_0023
  8
ボルト／ビス
  6
CONTINUOUS
 10
0.0
 20
0.0
  0
INSERT
  2
*GRP_0024
  8
ボルト／ビス
  6
CONTINUOUS
 62
    64
 10
0.0
 20
0.0
  0
INSERT
  2
*GRP_0028
  8
ボルト／ビス
  6
CONTINUOUS
 10
0.0
 20
0.0
  0
INSERT
  2
*GRP_0029
  8
ボルト／ビス
  6
CONTINUOUS
 62
    64
 10
0.0
 20
0.0
  0
INSERT
  2
*GRP_0047
  8
ボルト／ビス
  6
CONTINUOUS
 10
0.0
 20
0.0
  0
TEXT
  7
TextStyle03
  8
文字
  6
CONTINUOUS
 10
73.45
 20
98.375
  1
ＮＳコード：ＮＳＦＫＺ
 40
5.0
 72
     5
 11
134.7
 21
98.375
  0
TEXT
  7
TextStyle03
  8
文字
  6
CONTINUOUS
 10
-75.1
 20
-30.975
  1
TK-0007
 40
3.0
 72
     5
 11
-63.475
 21
-30.975
  0
TEXT
  7
TextStyle03
  8
文字
  6
CONTINUOUS
 10
-18.675
 20
-91.15
  1
KA-78A（末栄金属）
 40
3.0
 72
     5
 11
11.325
 21
-91.15
  0
TEXT
  7
TextStyle03
  8
文字
  6
CONTINUOUS
 10
14.7
 20
72.675
  1
呼称寸法
 40
4.0
 72
     5
 11
32.2
 21
72.675
  0
TEXT
  7
TextStyle03
  8
文字
  6
CONTINUOUS
 10
-158.275
 20
-39.275
  1
コーナージョイント金物
 40
3.0
 72
     5
 11
-121.525
 21
-39.275
  0
TEXT
  7
TextStyle03
  8
文字
  6
CONTINUOUS
 10
-158.275
 20
-42.65
  1
St-1.6t
 40
3.0
 72
     5
 11
-146.65
 21
-42.65
  0
TEXT
  7
TextStyle03
  8
文字
  6
CONTINUOUS
 10
15.725
 20
-18.5
  1
バッフル材
 40
3.0
 72
     5
 11
32.225
 21
-18.5
  0
TEXT
  7
TextStyle03
  8
文字
  6
CONTINUOUS
 10
-70.35
 20
-16.4
  1
φ8穴加工
 40
3.0
 72
     5
 11
-55.5375
 21
-16.4
  0
TEXT
  7
TextStyle03
  8
文字
  6
CONTINUOUS
 10
-70.35
 20
-19.775
  1
裏面バッフル材付き
 40
3.0
 72
     5
 11
-40.35
 21
-19.775
  0
TEXT
  7
TextStyle03
  8
文字
  6
CONTINUOUS
 10
91.9
 20
57.425
  1
シングルガラスタイプ
 40
3.0
 72
     5
 11
125.275
 21
57.425
  0
TEXT
  7
TextStyle03
  8
文字
  6
CONTINUOUS
 10
74.275
 20
125.15
  1
シリーズ：ＴＦ２ＦＫ
 40
5.0
 72
     5
 11
129.9
 21
125.15
  0
TEXT
  7
TextStyle03
  8
文字
  6
CONTINUOUS
 10
74.275
 20
119.525
  1
　　　　　（固定）
 40
5.0
 72
     5
 11
124.275
 21
119.525
  0
TEXT
  7
TextStyle03
  8
文字
  6
CONTINUOUS
 10
74.275
 20
113.9
  1

 40
5.0
 41
1.125
  0
TEXT
  7
TextStyle03
  8
文字
  6
CONTINUOUS
 10
74.275
 20
108.275
  1
図面名　：下枠断面詳細図
 40
5.0
 72
     5
 11
141.15
 21
108.275
  0
INSERT
  2
*GRP_0009
  8
寸法
  6
CONTINUOUS
 10
0.0
 20
0.0
  0
INSERT
  2
*GRP_0010
  8
寸法
  6
CONTINUOUS
 10
0.0
 20
0.0
  0
INSERT
  2
*DIM_0011
  8
寸法
  6
CONTINUOUS
 10
0.0
 20
0.0
  0
INSERT
  2
*DIM_0012
  8
寸法
  6
CONTINUOUS
 10
0.0
 20
0.0
  0
INSERT
  2
*DIM_0013
  8
寸法
  6
CONTINUOUS
 10
0.0
 20
0.0
  0
INSERT
  2
*GRP_0014
  8
寸法
  6
CONTINUOUS
 10
0.0
 20
0.0
  0
INSERT
  2
*DIM_0015
  8
寸法
  6
CONTINUOUS
 10
0.0
 20
0.0
  0
INSERT
  2
*DIM_0016
  8
寸法
  6
CONTINUOUS
 10
0.0
 20
0.0
  0
INSERT
  2
*DIM_0017
  8
寸法
  6
CONTINUOUS
 10
0.0
 20
0.0
  0
INSERT
  2
*DIM_0018
  8
寸法
  6
CONTINUOUS
 10
0.0
 20
0.0
  0
INSERT
  2
*DIM_0019
  8
寸法
  6
CONTINUOUS
 10
0.0
 20
0.0
  0
INSERT
  2
*GRP_0020
  8
寸法
  6
CONTINUOUS
 10
0.0
 20
0.0
  0
INSERT
  2
*GRP_0021
  8
寸法
  6
CONTINUOUS
 10
0.0
 20
0.0
  0
INSERT
  2
*DIM_0035
  8
寸法
  6
CONTINUOUS
 10
0.0
 20
0.0
  0
INSERT
  2
*DIM_0036
  8
寸法
  6
CONTINUOUS
 10
0.0
 20
0.0
  0
INSERT
  2
*DIM_0037
  8
寸法
  6
CONTINUOUS
 10
0.0
 20
0.0
  0
INSERT
  2
*DIM_0038
  8
寸法
  6
CONTINUOUS
 10
0.0
 20
0.0
  0
INSERT
  2
*DIM_0039
  8
寸法
  6
CONTINUOUS
 10
0.0
 20
0.0
  0
INSERT
  2
*DIM_0040
  8
寸法
  6
CONTINUOUS
 10
0.0
 20
0.0
  0
INSERT
  2
*DIM_0041
  8
寸法
  6
CONTINUOUS
 10
0.0
 20
0.0
  0
INSERT
  2
*DIM_0042
  8
寸法
  6
CONTINUOUS
 10
0.0
 20
0.0
  0
INSERT
  2
*DIM_0043
  8
寸法
  6
CONTINUOUS
 10
0.0
 20
0.0
  0
INSERT
  2
*DIM_0044
  8
寸法
  6
CONTINUOUS
 10
0.0
 20
0.0
  0
INSERT
  2
*DIM_0045
  8
寸法
  6
CONTINUOUS
 10
0.0
 20
0.0
  0
INSERT
  2
*DIM_0046
  8
寸法
  6
CONTINUOUS
 10
0.0
 20
0.0
  0
INSERT
  2
*DIM_0048
  8
寸法
  6
CONTINUOUS
 10
0.0
 20
0.0
  0
INSERT
  2
*DIM_0049
  8
寸法
  6
CONTINUOUS
 10
0.0
 20
0.0
  0
INSERT
  2
*DIM_0050
  8
寸法
  6
CONTINUOUS
 10
0.0
 20
0.0
  0
INSERT
  2
*DIM_0051
  8
寸法
  6
CONTINUOUS
 10
0.0
 20
0.0
  0
INSERT
  2
*HAT_0002
  8
ﾊｯﾁﾝｸﾞ
 10
0.0
 20
0.0
  0
INSERT
  2
*HAT_0003
  8
ﾊｯﾁﾝｸﾞ
 10
0.0
 20
0.0
  0
INSERT
  2
*GRP_0022
  8
別途部材
  6
CONTINUOUS
 10
0.0
 20
0.0
  0
INSERT
  2
*GRP_0025
  8
別途部材
  6
CONTINUOUS
 10
0.0
 20
0.0
  0
INSERT
  2
*GRP_0030
  8
別途部材
  6
CONTINUOUS
 10
0.0
 20
0.0
  0
INSERT
  2
*GRP_0026
  8
曲げ物
  6
DASHDOT
 10
0.0
 20
0.0
  0
INSERT
  2
*GRP_0031
  8
曲げ物
  6
DASHDOT
 10
0.0
 20
0.0
  0
LINE
  8
St
  6
CONTINUOUS
 10
-78.920057
 20
-63.920612
 11
-77.320053
 21
-62.320615
  0
LINE
  8
St
  6
CONTINUOUS
 10
-78.21295
 20
-63.920612
 11
-76.612945
 21
-62.320615
  0
LINE
  8
St
  6
CONTINUOUS
 10
-51.89878
 20
-63.920612
 11
-50.298775
 21
-62.320615
  0
LINE
  8
St
  6
CONTINUOUS
 10
-51.191673
 20
-63.920612
 11
-49.591668
 21
-62.320615
  0
LINE
  8
St
  6
CONTINUOUS
 10
-105.887463
 20
-63.920612
 11
-105.887463
 21
-56.77225
  0
LINE
  8
St
  6
CONTINUOUS
 10
-107.48746
 20
-63.920612
 11
-107.48746
 21
-56.77225
  0
ARC
  8
St
  6
CONTINUOUS
 10
-105.88746
 20
-56.772247
 40
1.6
 50
99.619743
 51
180.0
  0
ARC
  8
St
  6
CONTINUOUS
 10
-15.361961
 20
-62.320612
 40
1.6
 50
-90.0
 51
0.0
  0
LINE
  8
St
  6
CONTINUOUS
 10
-105.887463
 20
-62.320615
 11
-15.37039
 21
-62.320615
  0
LINE
  8
St
  6
DOT
 10
-15.37039
 20
-62.320615
 11
5.512745
 21
-62.320615
  0
LINE
  8
St
  6
CONTINUOUS
 10
-107.48746
 20
-63.920612
 11
5.512745
 21
-63.920612
  0
LINE
  8
St
  6
CONTINUOUS
 10
-15.37039
 20
-62.320615
 11
-15.37039
 21
-41.430347
  0
LINE
  8
St
  6
CONTINUOUS
 10
-13.761963
 20
-63.920612
 11
-13.761963
 21
-41.15773
  0
LINE
  8
St
  6
CONTINUOUS
 10
-106.15483
 20
-55.194745
 11
5.512745
 21
-36.268008
  0
LINE
  8
St
  6
CONTINUOUS
 10
-105.887463
 20
-56.77225
 11
5.512745
 21
-37.890827
  0
LINE
  8
St
  6
CONTINUOUS
 10
-74.126875
 20
-49.766267
 11
-76.080895
 21
-51.72028
  0
LINE
  8
St
  6
CONTINUOUS
 10
-73.27546
 20
-49.62196
 11
-75.22948
 21
-51.575972
  0
LINE
  8
St
  6
CONTINUOUS
 10
-33.298772
 20
-42.846235
 11
-35.252793
 21
-44.800248
  0
LINE
  8
St
  6
CONTINUOUS
 10
-32.447357
 20
-42.701927
 11
-34.401378
 21
-44.65594
  0
LINE
  8
St
  6
CONTINUOUS
 10
-22.487327
 20
13.579543
 11
-19.487327
 21
13.579543
  0
LINE
  8
St
  6
CONTINUOUS
 10
-19.487327
 20
13.579543
 11
-19.487327
 21
-4.920693
  0
LINE
  8
St
  6
CONTINUOUS
 10
-19.487327
 20
-6.920575
 11
-19.487327
 21
-25.920543
  0
INSERT
  2
*HAT_0004
  8
その他部品等
 10
0.0
 20
0.0
  0
INSERT
  2
*HAT_0005
  8
その他部品等
 10
0.0
 20
0.0
  0
LINE
  8
その他部品等
  6
CONTINUOUS
 10
-6.881192
 20
23.679605
 11
-3.544877
 21
30.379572
  0
LINE
  8
その他部品等
  6
CONTINUOUS
 10
-3.544877
 20
30.379572
 11
-3.544877
 21
21.879522
  0
LINE
  8
その他部品等
  6
CONTINUOUS
 10
3.118798
 20
30.379572
 11
3.118798
 21
21.879522
  0
LINE
  8
その他部品等
  6
CONTINUOUS
 10
-6.881192
 20
21.879522
 11
-6.881192
 21
31.579572
  0
LINE
  8
その他部品等
  6
CONTINUOUS
 10
146.45219
 20
23.679605
 11
149.788505
 21
30.379572
  0
LINE
  8
その他部品等
  6
CONTINUOUS
 10
149.788505
 20
30.379572
 11
149.788505
 21
22.079157
  0
LINE
  8
その他部品等
  6
CONTINUOUS
 10
156.45218
 20
30.379572
 11
156.45218
 21
22.079157
  0
LINE
  8
その他部品等
  6
CONTINUOUS
 10
146.45219
 20
31.579572
 11
146.45219
 21
22.079157
  0
CIRCLE
  8
LAYER010
  6
CONTINUOUS
 62
     7
 10
-112.487095
 20
-50.920555
 40
0.33333
  0
ENDSEC
  0
EOF
