  0
SECTION
  2
HEADER
  9
$EXTMIN
 10
-210.0
 20
-148.5
  9
$EXTMAX
 10
210.0
 20
148.5
  9
$PDMODE
 70
    32
  9
$PDSIZE
 40
1.5
  9
$LTSCALE
 40
10.0
  0
ENDSEC
  0
SECTION
  2
TABLES
  0
TABLE
  2
LTYPE
 70
    15
  0
LTYPE
  2
CONTINUOUS
 70
    64
  3
実線
 72
    65
 73
     0
 40
0.0
  0
LTYPE
  2
DASHED
 70
    64
  3
破線A
 72
    65
 73
     2
 40
0.6
 49
0.4
 49
-0.2
  0
LTYPE
  2
DASHEDX2
 70
    64
  3
破線B
 72
    65
 73
     2
 40
1.3
 49
0.9
 49
-0.4
  0
LTYPE
  2
DASHDOT
 70
    64
  3
１点鎖線A
 72
    65
 73
     4
 40
0.5375
 49
0.375
 49
-0.05
 49
0.0625
 49
-0.05
  0
LTYPE
  2
DASHDOTX2
 70
    64
  3
１点鎖線B
 72
    65
 73
     4
 40
1.075
 49
0.75
 49
-0.1
 49
0.125
 49
-0.1
  0
LTYPE
  2
DIVIDE2
 70
    64
  3
２点鎖線A
 72
    65
 73
     6
 40
0.5125
 49
0.3
 49
-0.0375
 49
0.05
 49
-0.0375
 49
0.05
 49
-0.0375
  0
LTYPE
  2
DIVIDE
 70
    64
  3
２点鎖線B
 72
    65
 73
     6
 40
1.05
 49
0.55
 49
-0.1
 49
0.1
 49
-0.1
 49
0.1
 49
-0.1
  0
LTYPE
  2
DOT
 70
    64
  3
点線A
 72
    65
 73
     2
 40
0.1125
 49
0.0625
 49
-0.05
  0
LTYPE
  2
DOTX2
 70
    64
  3
点線B
 72
    65
 73
     2
 40
0.275
 49
0.15
 49
-0.125
  0
LTYPE
  2
CONTINUOUS
 70
    64
  3
実線
 72
    65
 73
     0
 40
0.0
  0
LTYPE
  2
CONTINUOUS
 70
    64
  3
実線
 72
    65
 73
     0
 40
0.0
  0
LTYPE
  2
CONTINUOUS
 70
    64
  3
実線
 72
    65
 73
     0
 40
0.0
  0
LTYPE
  2
CONTINUOUS
 70
    64
  3
実線
 72
    65
 73
     0
 40
0.0
  0
LTYPE
  2
CONTINUOUS
 70
    64
  3
実線
 72
    65
 73
     0
 40
0.0
  0
LTYPE
  2
CONTINUOUS
 70
    64
  3
実線
 72
    65
 73
     0
 40
0.0
  0
ENDTAB
  0
TABLE
  2
LAYER
 70
    35
  0
LAYER
  2
通り芯
 70
     0
 62
    15
  6
CONTINUOUS
  0
LAYER
  2
補助線
 70
     0
 62
    16
  6
DOT
  0
LAYER
  2
躯体
 70
     0
 62
    31
  6
CONTINUOUS
  0
LAYER
  2
型材
 70
     0
 62
    32
  6
CONTINUOUS
  0
LAYER
  2
型材断面
 70
     0
 62
    47
  6
CONTINUOUS
  0
LAYER
  2
ガラス
 70
     0
 62
    48
  6
CONTINUOUS
  0
LAYER
  2
ゴム等
 70
     0
 62
    63
  6
CONTINUOUS
  0
LAYER
  2
ボルト／ビス
 70
     0
 62
    64
  6
CONTINUOUS
  0
LAYER
  2
文字
 70
     0
 62
    79
  6
CONTINUOUS
  0
LAYER
  2
寸法
 70
     0
 62
    80
  6
CONTINUOUS
  0
LAYER
  2
ﾊｯﾁﾝｸﾞ
 70
     0
 62
    95
  6
CONTINUOUS
  0
LAYER
  2
別途部材
 70
     0
 62
    96
  6
CONTINUOUS
  0
LAYER
  2
曲げ物
 70
     0
 62
   111
  6
CONTINUOUS
  0
LAYER
  2
鉄骨等
 70
     0
 62
   112
  6
CONTINUOUS
  0
LAYER
  2
St
 70
     0
 62
   127
  6
CONTINUOUS
  0
LAYER
  2
その他部品等
 70
     0
 62
   128
  6
CONTINUOUS
  0
LAYER
  2
ｶﾞｽｹｯﾄ
 70
     0
 62
   143
  6
CONTINUOUS
  0
LAYER
  2
ｽｹｯﾁ
 70
     0
 62
    14
  6
CONTINUOUS
  0
LAYER
  2
0
 70
     0
 62
    17
  6
CONTINUOUS
  0
LAYER
  2
1
 70
     0
 62
    30
  6
CONTINUOUS
  0
LAYER
  2
4
 70
     0
 62
    33
  6
CONTINUOUS
  0
LAYER
  2
ﾚｲﾔ3
 70
     0
 62
    46
  6
CONTINUOUS
  0
LAYER
  2
外形線
 70
     0
 62
    49
  6
CONTINUOUS
  0
LAYER
  2
部品
 70
     0
 62
    14
  6
CONTINUOUS
  0
LAYER
  2
サッシ芯
 70
     0
 62
    17
  6
DASHDOTX2
  0
LAYER
  2
寸法線
 70
     0
 62
    62
  6
CONTINUOUS
  0
LAYER
  2
姿図外形線
 70
     0
 62
    65
  6
CONTINUOUS
  0
LAYER
  2
姿補助線
 70
     0
 62
    30
  6
CONTINUOUS
  0
LAYER
  2
透視線
 70
     0
 62
    78
  6
DOT
  0
LAYER
  2
用紙
 70
     0
 62
    81
  6
CONTINUOUS
  0
LAYER
  2
実線図枠
 70
     0
 62
    94
  6
CONTINUOUS
  0
LAYER
  2
補助図枠
 70
     0
 62
    97
  6
CONTINUOUS
  0
LAYER
  2
建具記号
 70
     0
 62
   110
  6
CONTINUOUS
  0
LAYER
  2
補助文字
 70
     0
 62
   113
  6
CONTINUOUS
  0
LAYER
  2
LAYER010
 70
     0
 62
    11
  6
CONTINUOUS
  0
ENDTAB
  0
TABLE
  2
STYLE
 70
    10
  0
STYLE
  2
STANDARD
 70
     0
 40
1.0
 41
1.0
 42
1.0
 50
0.0
 71
     0
  3
TXT
  4
BIGFONT
  0
STYLE
  2
TATE
 70
     4
 40
1.0
 41
1.0
 42
1.0
 50
0.0
 71
     0
  3
TXT
  4
BIGFONT
  0
STYLE
  2
TextStyle03
 70
     0
 40
1.0
 41
1.0
 42
1.0
 50
0.0
 71
     0
  3
MONOTXT
  4
BIGFONT
  0
STYLE
  2
TextStyle04
 70
     0
 40
1.0
 41
1.0
 42
1.0
 50
0.0
 71
     0
  3
MONOTXT
  4
BIGFONT
  0
STYLE
  2
TextStyle05
 70
     0
 40
1.0
 41
1.0
 42
1.0
 50
0.0
 71
     0
  3
MONOTXT
  4
BIGFONT
  0
STYLE
  2
TextStyle06
 70
     0
 40
1.0
 41
1.0
 42
1.0
 50
0.0
 71
     0
  3
MONOTXT
  4
BIGFONT
  0
STYLE
  2
TextStyle07
 70
     0
 40
1.0
 41
1.0
 42
1.0
 50
0.0
 71
     0
  3
MONOTXT
  4
BIGFONT
  0
STYLE
  2
TextStyle08
 70
     0
 40
1.0
 41
1.0
 42
1.0
 50
0.0
 71
     0
  3
MONOTXT
  4
BIGFONT
  0
STYLE
  2
TextStyle09
 70
     0
 40
1.0
 41
1.0
 42
1.0
 50
0.0
 71
     0
  3
MONOTXT
  4
BIGFONT
  0
STYLE
  2
TextStyle10
 70
     0
 40
1.0
 41
1.0
 42
1.0
 50
0.0
 71
     0
  3
MONOTXT
  4
BIGFONT
  0
ENDTAB
  0
ENDSEC
  0
SECTION
  2
BLOCKS
  0
BLOCK
  2
*GRP_0001
 70
    65
 10
0.0
 20
0.0
  0
LINE
  8
型材断面
  6
CONTINUOUS
 10
195.0
 20
133.5
 11
195.0
 21
-133.5
  0
LINE
  8
型材断面
  6
CONTINUOUS
 10
195.0
 20
-133.5
 11
-185.0
 21
-133.5
  0
LINE
  8
型材断面
  6
CONTINUOUS
 10
-185.0
 20
-133.5
 11
-185.0
 21
133.5
  0
LINE
  8
型材断面
  6
CONTINUOUS
 10
195.0
 20
133.5
 11
-185.0
 21
133.5
  0
LINE
  8
型材断面
  6
CONTINUOUS
 10
145.0
 20
-133.5
 11
145.0
 21
-118.5
  0
LINE
  8
型材断面
  6
CONTINUOUS
 10
195.0
 20
-118.5
 11
145.0
 21
-118.5
  0
ENDBLK
  0
BLOCK
  2
*DIM_0002
 70
    65
 10
0.0
 20
0.0
  0
LINE
  8
寸法
  6
BYBLOCK
 62
     0
 10
-92.435405
 20
-16.126177
 11
-47.435405
 21
-16.126177
  0
POINT
  8
寸法
 62
     0
 10
-92.435405
 20
-16.126177
  0
POINT
  8
寸法
 62
     0
 10
-47.435405
 20
-16.126177
  0
TEXT
  7
TextStyle03
  8
寸法
  6
CONTINUOUS
 62
     0
 10
-80.85
 20
-15.775
  1
呼称寸法　900
 40
3.0
 72
     5
 11
-59.1
 21
-15.775
  0
ENDBLK
  0
BLOCK
  2
*DIM_0003
 70
    65
 10
0.0
 20
0.0
  0
LINE
  8
寸法
  6
BYBLOCK
 62
     0
 10
-84.935405
 20
57.66027
 11
-84.935405
 21
75.599285
  0
LINE
  8
寸法
  6
BYBLOCK
 62
     0
 10
-54.935405
 20
57.66027
 11
-54.935405
 21
75.599285
  0
LINE
  8
寸法
  6
BYBLOCK
 62
     0
 10
-84.935405
 20
75.599285
 11
-54.935405
 21
75.599285
  0
POINT
  8
寸法
 62
     0
 10
-84.935405
 20
75.599285
  0
POINT
  8
寸法
 62
     0
 10
-54.935405
 20
75.599285
  0
TEXT
  7
TextStyle03
  8
寸法
  6
CONTINUOUS
 62
     0
 10
-72.3875
 20
75.95
  1
600
 40
3.0
 72
     5
 11
-67.5125
 21
75.95
  0
ENDBLK
  0
BLOCK
  2
*DIM_0004
 70
    65
 10
0.0
 20
0.0
  0
LINE
  8
寸法
  6
BYBLOCK
 62
     0
 10
-93.435405
 20
56.66027
 11
-116.343648
 21
56.66027
  0
LINE
  8
寸法
  6
BYBLOCK
 62
     0
 10
-93.435405
 20
34.16027
 11
-116.343648
 21
34.16027
  0
LINE
  8
寸法
  6
BYBLOCK
 62
     0
 10
-116.343648
 20
56.66027
 11
-116.343648
 21
34.16027
  0
POINT
  8
寸法
 62
     0
 10
-116.343648
 20
56.66027
  0
POINT
  8
寸法
 62
     0
 10
-116.343648
 20
34.16027
  0
TEXT
  7
TextStyle03
  8
寸法
  6
CONTINUOUS
 62
     0
 10
-116.725
 20
42.9375
  1
450
 40
3.0
 50
90.0
 72
     5
 11
-116.725
 21
47.8125
  0
ENDBLK
  0
BLOCK
  2
*DIM_0005
 70
    65
 10
0.0
 20
0.0
  0
LINE
  8
寸法
  6
BYBLOCK
 62
     0
 10
-93.435405
 20
11.66027
 11
-116.343648
 21
11.66027
  0
LINE
  8
寸法
  6
BYBLOCK
 62
     0
 10
-116.343648
 20
34.16027
 11
-116.343648
 21
11.66027
  0
POINT
  8
寸法
 62
     0
 10
-116.343648
 20
11.66027
  0
TEXT
  7
TextStyle03
  8
寸法
  6
CONTINUOUS
 62
     0
 10
-116.725
 20
20.4375
  1
450
 40
3.0
 50
90.0
 72
     5
 11
-116.725
 21
25.3125
  0
ENDBLK
  0
BLOCK
  2
*DIM_0006
 70
    65
 10
0.0
 20
0.0
  0
LINE
  8
寸法
  6
BYBLOCK
 62
     0
 10
-42.935337
 20
-54.82999
 11
-42.935337
 21
-16.126177
  0
LINE
  8
寸法
  6
BYBLOCK
 62
     0
 10
-47.435405
 20
-16.126177
 11
-42.935337
 21
-16.126177
  0
POINT
  8
寸法
 62
     0
 10
-47.435405
 20
-16.126177
  0
POINT
  8
寸法
 62
     0
 10
-42.935337
 20
-16.126177
  0
TEXT
  7
TextStyle03
  8
寸法
  6
CONTINUOUS
 62
     0
 10
-46.79375
 20
-15.775
  1
90
 40
3.0
 72
     5
 11
-43.60625
 21
-15.775
  0
ENDBLK
  0
BLOCK
  2
*DIM_0007
 70
    65
 10
0.0
 20
0.0
  0
LINE
  8
寸法
  6
BYBLOCK
 62
     0
 10
-96.935473
 20
-54.82999
 11
-96.935473
 21
-16.126177
  0
LINE
  8
寸法
  6
BYBLOCK
 62
     0
 10
-92.435405
 20
-16.126177
 11
-96.935473
 21
-16.126177
  0
POINT
  8
寸法
 62
     0
 10
-92.435405
 20
-16.126177
  0
POINT
  8
寸法
 62
     0
 10
-96.935473
 20
-16.126177
  0
TEXT
  7
TextStyle03
  8
寸法
  6
CONTINUOUS
 62
     0
 10
-96.29375
 20
-15.775
  1
90
 40
3.0
 72
     5
 11
-93.10625
 21
-15.775
  0
ENDBLK
  0
BLOCK
  2
*DIM_0008
 70
    65
 10
0.0
 20
0.0
  0
LINE
  8
寸法
  6
BYBLOCK
 62
     0
 10
170.304785
 20
58.008235
 11
179.967098
 21
58.008235
  0
LINE
  8
寸法
  6
BYBLOCK
 62
     0
 10
170.304785
 20
14.008235
 11
179.967098
 21
14.008235
  0
LINE
  8
寸法
  6
BYBLOCK
 62
     0
 10
179.967098
 20
58.008235
 11
179.967098
 21
14.008235
  0
POINT
  8
寸法
 62
     0
 10
179.967098
 20
58.008235
  0
POINT
  8
寸法
 62
     0
 10
179.967098
 20
14.008235
  0
TEXT
  7
TextStyle03
  8
寸法
  6
CONTINUOUS
 62
     0
 10
179.575
 20
33.5875
  1
880
 40
3.0
 50
90.0
 72
     5
 11
179.575
 21
38.4625
  0
ENDBLK
  0
BLOCK
  2
*DIM_0009
 70
    65
 10
0.0
 20
0.0
  0
LINE
  8
寸法
  6
BYBLOCK
 62
     0
 10
123.304785
 20
61.008235
 11
123.304785
 21
68.755588
  0
LINE
  8
寸法
  6
BYBLOCK
 62
     0
 10
167.304785
 20
61.008235
 11
167.304785
 21
68.755588
  0
LINE
  8
寸法
  6
BYBLOCK
 62
     0
 10
123.304785
 20
68.755588
 11
167.304785
 21
68.755588
  0
POINT
  8
寸法
 62
     0
 10
123.304785
 20
68.755588
  0
POINT
  8
寸法
 62
     0
 10
167.304785
 20
68.755588
  0
TEXT
  7
TextStyle03
  8
寸法
  6
CONTINUOUS
 62
     0
 10
142.8625
 20
69.15
  1
880
 40
3.0
 72
     5
 11
147.7375
 21
69.15
  0
ENDBLK
  0
BLOCK
  2
*DIM_0010
 70
    65
 10
0.0
 20
0.0
  0
LINE
  8
寸法
  6
CONTINUOUS
 10
-27.595505
 20
-51.604983
 11
-27.595505
 21
-56.579985
  0
POINT
  8
寸法
 10
-27.595505
 20
-51.604983
  0
POINT
  8
寸法
 10
-27.595505
 20
-56.579985
  0
TEXT
  7
TextStyle03
  8
寸法
  6
CONTINUOUS
 10
-23.1
 20
-57.30625
  1
99.5
 40
3.0
 50
90.0
 72
     5
 11
-23.1
 21
-50.74375
  0
ENDBLK
  0
ENDSEC
  0
SECTION
  2
ENTITIES
  0
POLYLINE
  8
通り芯
  6
CONTINUOUS
 66
     1
 70
     1
  0
VERTEX
  8
通り芯
 10
-210.0
 20
-148.5
  0
VERTEX
  8
通り芯
 10
210.0
 20
-148.5
  0
VERTEX
  8
通り芯
 10
210.0
 20
148.5
  0
VERTEX
  8
通り芯
 10
-210.0
 20
148.5
  0
SEQEND
  0
INSERT
  2
*GRP_0001
  8
型材断面
  6
CONTINUOUS
 10
0.0
 20
0.0
  0
LINE
  8
型材断面
  6
DASHDOT
 10
-69.935405
 20
-67.794
 11
-69.935405
 21
56.66027
  0
LINE
  8
型材断面
  6
DASHDOT
 10
-92.435405
 20
-67.794
 11
-92.435405
 21
56.66027
  0
LINE
  8
型材断面
  6
DASHDOT
 10
-47.435405
 20
-67.794
 11
-47.435405
 21
56.66027
  0
LINE
  8
型材断面
  6
CONTINUOUS
 10
-69.935405
 20
64.684145
 11
-72.17885
 21
68.569905
  0
LINE
  8
型材断面
  6
CONTINUOUS
 10
-69.935405
 20
64.684145
 11
-67.69196
 21
68.569905
  0
LINE
  8
型材断面
  6
CONTINUOUS
 10
-67.69196
 20
68.569905
 11
-72.17885
 21
68.569905
  0
LINE
  8
型材断面
  6
CONTINUOUS
 10
-69.935405
 20
3.636395
 11
-72.17885
 21
-0.249365
  0
LINE
  8
型材断面
  6
CONTINUOUS
 10
-69.935405
 20
3.636395
 11
-67.69196
 21
-0.249365
  0
LINE
  8
型材断面
  6
CONTINUOUS
 10
-67.69196
 20
-0.249365
 11
-72.17885
 21
-0.249365
  0
LINE
  8
型材断面
  6
CONTINUOUS
 10
-39.41153
 20
34.16027
 11
-35.52577
 21
36.403715
  0
LINE
  8
型材断面
  6
CONTINUOUS
 10
-39.41153
 20
34.16027
 11
-35.52577
 21
31.916825
  0
LINE
  8
型材断面
  6
CONTINUOUS
 10
-35.52577
 20
31.916825
 11
-35.52577
 21
36.403715
  0
LINE
  8
型材断面
  6
CONTINUOUS
 10
-100.45928
 20
34.16027
 11
-104.34504
 21
36.403715
  0
LINE
  8
型材断面
  6
CONTINUOUS
 10
-100.45928
 20
34.16027
 11
-104.34504
 21
31.916825
  0
LINE
  8
型材断面
  6
CONTINUOUS
 10
-104.34504
 20
31.916825
 11
-104.34504
 21
36.403715
  0
LINE
  8
型材断面
  6
CONTINUOUS
 10
-7.342083
 20
5.196457
 11
-9.585527
 21
1.310698
  0
LINE
  8
型材断面
  6
CONTINUOUS
 10
-7.342083
 20
5.196457
 11
-5.098638
 21
1.310698
  0
LINE
  8
型材断面
  6
CONTINUOUS
 10
-5.098638
 20
1.310698
 11
-9.585527
 21
1.310698
  0
LINE
  8
型材断面
  6
CONTINUOUS
 10
-16.375962
 20
-0.097195
 11
36.280717
 21
-0.097195
  0
LINE
  8
型材断面
  6
CONTINUOUS
 10
-16.375962
 20
-6.268485
 11
36.280717
 21
-6.268485
  0
LINE
  8
型材断面
  6
CONTINUOUS
 10
-42.935337
 20
7.160203
 11
-42.935337
 21
34.16027
  0
LINE
  8
型材断面
  6
CONTINUOUS
 10
-42.935337
 20
7.160203
 11
-69.935405
 21
7.160203
  0
LINE
  8
型材断面
  6
CONTINUOUS
 10
-42.935337
 20
61.160338
 11
-42.935337
 21
34.16027
  0
LINE
  8
型材断面
  6
CONTINUOUS
 10
-42.935337
 20
61.160338
 11
-69.935405
 21
61.160338
  0
LINE
  8
型材断面
  6
CONTINUOUS
 10
-96.935473
 20
7.160203
 11
-96.935473
 21
34.16027
  0
LINE
  8
型材断面
  6
CONTINUOUS
 10
-96.935473
 20
7.160203
 11
-69.935405
 21
7.160203
  0
LINE
  8
型材断面
  6
CONTINUOUS
 10
-96.935473
 20
61.160338
 11
-96.935473
 21
34.16027
  0
LINE
  8
型材断面
  6
CONTINUOUS
 10
-96.935473
 20
61.160338
 11
-69.935405
 21
61.160338
  0
CIRCLE
  8
型材断面
  6
CONTINUOUS
 62
    47
 10
-96.935393
 20
-55.829987
 40
0.016668
  0
LINE
  8
型材断面
  6
CONTINUOUS
 62
    47
 10
-96.185405
 20
-56.579985
 11
-96.935393
 21
-56.579985
  0
LINE
  8
型材断面
  6
CONTINUOUS
 62
    47
 10
-96.935393
 20
-56.579985
 11
-96.935393
 21
-55.829987
  0
LINE
  8
型材断面
  6
CONTINUOUS
 62
    47
 10
-96.935393
 20
-55.829987
 11
-92.535395
 21
-55.084217
  0
LINE
  8
型材断面
  6
CONTINUOUS
 62
    47
 10
-96.185405
 20
-56.579985
 11
-96.185405
 21
-57.329985
  0
LINE
  8
型材断面
  6
CONTINUOUS
 62
    47
 10
-92.535395
 20
-55.084217
 11
-92.535395
 21
-54.104983
  0
LINE
  8
型材断面
  6
CONTINUOUS
 10
-96.185487
 20
-57.329985
 11
-69.935405
 21
-57.329985
  0
LINE
  8
型材断面
  6
CONTINUOUS
 62
    47
 10
-96.935473
 20
-56.579985
 11
-69.935405
 21
-56.579985
  0
LINE
  8
型材断面
  6
CONTINUOUS
 10
-96.935473
 20
-55.82999
 11
-69.935405
 21
-55.82999
  0
LINE
  8
型材断面
  6
CONTINUOUS
 10
-92.535475
 20
-55.084217
 11
-69.935405
 21
-55.084217
  0
LINE
  8
型材断面
  6
CONTINUOUS
 62
    47
 10
-94.670315
 20
-54.104983
 11
-69.935405
 21
-54.104983
  0
LINE
  8
型材断面
  6
CONTINUOUS
 62
    47
 10
-94.905098
 20
-51.854983
 11
-69.935405
 21
-51.854983
  0
LINE
  8
型材断面
  6
CONTINUOUS
 62
    47
 10
-94.670315
 20
-51.604983
 11
-69.935405
 21
-51.604983
  0
CIRCLE
  8
型材断面
  6
CONTINUOUS
 62
    47
 10
-42.935418
 20
-55.829987
 40
0.016668
  0
LINE
  8
型材断面
  6
CONTINUOUS
 62
    47
 10
-43.685405
 20
-56.579985
 11
-42.935418
 21
-56.579985
  0
LINE
  8
型材断面
  6
CONTINUOUS
 62
    47
 10
-42.935418
 20
-56.579985
 11
-42.935418
 21
-55.829987
  0
LINE
  8
型材断面
  6
CONTINUOUS
 62
    47
 10
-42.935418
 20
-55.829987
 11
-47.335415
 21
-55.084217
  0
LINE
  8
型材断面
  6
CONTINUOUS
 62
    47
 10
-43.685405
 20
-56.579985
 11
-43.685405
 21
-57.329985
  0
LINE
  8
型材断面
  6
CONTINUOUS
 62
    47
 10
-47.335415
 20
-55.084217
 11
-47.335415
 21
-54.104983
  0
LINE
  8
型材断面
  6
CONTINUOUS
 10
-43.685322
 20
-57.329985
 11
-69.935405
 21
-57.329985
  0
LINE
  8
型材断面
  6
CONTINUOUS
 62
    47
 10
-42.935337
 20
-56.579985
 11
-69.935405
 21
-56.579985
  0
LINE
  8
型材断面
  6
CONTINUOUS
 10
-42.935337
 20
-55.82999
 11
-69.935405
 21
-55.82999
  0
LINE
  8
型材断面
  6
CONTINUOUS
 10
-47.335335
 20
-55.084217
 11
-69.935405
 21
-55.084217
  0
LINE
  8
型材断面
  6
CONTINUOUS
 62
    47
 10
-45.200495
 20
-54.104983
 11
-69.935405
 21
-54.104983
  0
LINE
  8
型材断面
  6
CONTINUOUS
 62
    47
 10
-44.965712
 20
-51.854983
 11
-69.935405
 21
-51.854983
  0
LINE
  8
型材断面
  6
CONTINUOUS
 62
    47
 10
-45.200495
 20
-51.604983
 11
-69.935405
 21
-51.604983
  0
LINE
  8
型材断面
  6
DASHDOT
 10
-92.435405
 20
11.66027
 11
-47.435405
 21
11.66027
  0
LINE
  8
型材断面
  6
DASHDOT
 10
-92.435405
 20
56.66027
 11
-47.435405
 21
56.66027
  0
LINE
  8
型材断面
  6
DASHDOT
 10
-92.435405
 20
34.16027
 11
-47.435405
 21
34.16027
  0
LINE
  8
型材断面
  6
CONTINUOUS
 10
-69.310405
 20
12.940577
 11
-69.310405
 21
9.190577
  0
LINE
  8
型材断面
  6
CONTINUOUS
 10
-70.560405
 20
12.940577
 11
-70.560405
 21
9.190577
  0
LINE
  8
型材断面
  6
CONTINUOUS
 10
-48.715712
 20
33.53527
 11
-44.965712
 21
33.53527
  0
LINE
  8
型材断面
  6
CONTINUOUS
 10
-48.715712
 20
34.78527
 11
-44.965712
 21
34.78527
  0
LINE
  8
型材断面
  6
CONTINUOUS
 10
-70.560405
 20
55.379962
 11
-70.560405
 21
59.129962
  0
LINE
  8
型材断面
  6
CONTINUOUS
 10
-69.310405
 20
55.379962
 11
-69.310405
 21
59.129962
  0
LINE
  8
型材断面
  6
CONTINUOUS
 10
-91.155098
 20
34.78527
 11
-94.905098
 21
34.78527
  0
LINE
  8
型材断面
  6
CONTINUOUS
 10
-91.155098
 20
33.53527
 11
-94.905098
 21
33.53527
  0
LINE
  8
型材断面
  6
CONTINUOUS
 10
-45.319265
 20
9.190497
 11
-44.965715
 21
9.544047
  0
LINE
  8
型材断面
  6
CONTINUOUS
 10
-42.935337
 20
7.160203
 11
-45.14245
 21
9.367315
  0
LINE
  8
型材断面
  6
CONTINUOUS
 10
-49.069265
 20
12.940497
 11
-48.715715
 21
13.294047
  0
LINE
  8
型材断面
  6
CONTINUOUS
 10
-49.069265
 20
12.940497
 11
-45.31934
 21
9.190573
  0
LINE
  8
型材断面
  6
CONTINUOUS
 10
-48.715715
 20
13.294047
 11
-44.96572
 21
9.544052
  0
LINE
  8
型材断面
  6
CONTINUOUS
 10
-48.715712
 20
33.53527
 11
-48.715712
 21
13.29405
  0
LINE
  8
型材断面
  6
CONTINUOUS
 10
-69.310405
 20
12.940577
 11
-49.069185
 21
12.940577
  0
LINE
  8
型材断面
  6
CONTINUOUS
 10
-45.319265
 20
59.130042
 11
-44.965715
 21
58.776492
  0
LINE
  8
型材断面
  6
CONTINUOUS
 10
-42.935337
 20
61.160338
 11
-45.14245
 21
58.953225
  0
LINE
  8
型材断面
  6
CONTINUOUS
 10
-49.069265
 20
55.380042
 11
-48.715715
 21
55.026492
  0
LINE
  8
型材断面
  6
CONTINUOUS
 10
-49.069265
 20
55.380042
 11
-45.31934
 21
59.129968
  0
LINE
  8
型材断面
  6
CONTINUOUS
 10
-48.715715
 20
55.026492
 11
-44.96572
 21
58.776488
  0
LINE
  8
型材断面
  6
CONTINUOUS
 10
-94.551545
 20
59.130042
 11
-94.905095
 21
58.776492
  0
LINE
  8
型材断面
  6
CONTINUOUS
 10
-96.935473
 20
61.160338
 11
-94.72836
 21
58.953225
  0
LINE
  8
型材断面
  6
CONTINUOUS
 10
-90.801545
 20
55.380042
 11
-91.155095
 21
55.026492
  0
LINE
  8
型材断面
  6
CONTINUOUS
 10
-90.801545
 20
55.380042
 11
-94.55147
 21
59.129968
  0
LINE
  8
型材断面
  6
CONTINUOUS
 10
-91.155095
 20
55.026492
 11
-94.90509
 21
58.776488
  0
LINE
  8
型材断面
  6
CONTINUOUS
 10
-94.551545
 20
9.190497
 11
-94.905095
 21
9.544047
  0
LINE
  8
型材断面
  6
CONTINUOUS
 10
-96.935473
 20
7.160203
 11
-94.72836
 21
9.367315
  0
LINE
  8
型材断面
  6
CONTINUOUS
 10
-90.801545
 20
12.940497
 11
-91.155095
 21
13.294047
  0
LINE
  8
型材断面
  6
CONTINUOUS
 10
-90.801545
 20
12.940497
 11
-94.55147
 21
9.190573
  0
LINE
  8
型材断面
  6
CONTINUOUS
 10
-91.155095
 20
13.294047
 11
-94.90509
 21
9.544052
  0
LINE
  8
型材断面
  6
CONTINUOUS
 10
-48.715712
 20
34.78527
 11
-48.715712
 21
55.02649
  0
LINE
  8
型材断面
  6
CONTINUOUS
 10
-69.310405
 20
55.379962
 11
-49.069185
 21
55.379962
  0
LINE
  8
型材断面
  6
CONTINUOUS
 10
-44.965712
 20
9.544045
 11
-44.965712
 21
58.776495
  0
LINE
  8
型材断面
  6
CONTINUOUS
 10
-91.155098
 20
34.78527
 11
-91.155098
 21
55.02649
  0
LINE
  8
型材断面
  6
CONTINUOUS
 10
-70.560405
 20
55.379962
 11
-90.801625
 21
55.379962
  0
LINE
  8
型材断面
  6
CONTINUOUS
 10
-45.319345
 20
59.129962
 11
-94.551465
 21
59.129962
  0
LINE
  8
型材断面
  6
CONTINUOUS
 10
-91.155098
 20
33.53527
 11
-91.155098
 21
13.29405
  0
LINE
  8
型材断面
  6
CONTINUOUS
 10
-70.560405
 20
12.940577
 11
-90.801625
 21
12.940577
  0
LINE
  8
型材断面
  6
CONTINUOUS
 10
-45.319185
 20
9.190577
 11
-94.551465
 21
9.190577
  0
LINE
  8
型材断面
  6
CONTINUOUS
 10
-94.905098
 20
58.776495
 11
-94.905098
 21
9.544045
  0
LINE
  8
ガラス
  6
CONTINUOUS
 10
-67.98018
 20
36.08571
 11
-71.926627
 21
32.139265
  0
LINE
  8
ガラス
  6
CONTINUOUS
 10
-68.96444
 20
33.123523
 11
-70.942365
 21
35.101457
  0
LINE
  8
ガラス
  6
CONTINUOUS
 10
-70.244008
 20
33.1692
 11
-68.719233
 21
34.693975
  0
LINE
  8
ガラス
  6
CONTINUOUS
 10
-69.6628
 20
35.05578
 11
-71.18757
 21
33.531007
  0
LINE
  8
ガラス
  6
CONTINUOUS
 10
123.304785
 20
14.008235
 11
123.304785
 21
58.008235
  0
LINE
  8
ガラス
  6
CONTINUOUS
 10
167.304785
 20
58.008235
 11
123.304785
 21
58.008235
  0
LINE
  8
ガラス
  6
CONTINUOUS
 10
123.304785
 20
14.008235
 11
167.304785
 21
14.008235
  0
LINE
  8
ガラス
  6
CONTINUOUS
 10
167.304785
 20
58.008235
 11
167.304785
 21
14.008235
  0
TEXT
  7
TextStyle03
  8
文字
  6
CONTINUOUS
 10
-3.075
 20
1.625
  1
は排水穴位置を示す
 40
3.0
 72
     5
 11
26.925
 21
1.625
  0
TEXT
  7
TextStyle03
  8
文字
  6
CONTINUOUS
 10
-98.825
 20
79.85
  1
アンカーピッチ
 40
3.0
 72
     5
 11
-75.575
 21
79.85
  0
TEXT
  7
TextStyle03
  8
文字
  6
CONTINUOUS
 10
-122.475
 20
1.75
  1
アンカーピッチ
 40
3.0
 50
90.0
 72
     5
 11
-122.475
 21
25.0
  0
TEXT
  7
TextStyle03
  8
文字
  6
CONTINUOUS
 10
-8.675
 20
-4.9
  1
アンカー数量　６ヶ所
 40
3.0
 72
     5
 11
24.7
 21
-4.9
  0
TEXT
  7
TextStyle03
  8
文字
  6
CONTINUOUS
 10
63.8
 20
91.8
  1
ＮＳコード：ＮＳＦＫＺ
 40
5.0
 72
     5
 11
125.05
 21
91.8
  0
TEXT
  7
TextStyle03
  8
文字
  6
CONTINUOUS
 10
146.1
 20
22.275
  1
網入り6.8t
 40
3.0
 72
     5
 11
162.7875
 21
22.275
  0
TEXT
  7
TextStyle03
  8
文字
  6
CONTINUOUS
 10
152.725
 20
17.025
  1
×１枚
 40
3.0
 72
     5
 11
162.475
 21
17.025
  0
LINE
  8
文字
  6
CONTINUOUS
 10
-27.595505
 20
-51.604983
 11
-40.72304
 21
-51.604983
  0
LINE
  8
文字
  6
CONTINUOUS
 10
-27.595505
 20
-56.579985
 11
-41.147837
 21
-56.579985
  0
TEXT
  7
TextStyle03
  8
文字
  6
CONTINUOUS
 10
63.525
 20
119.425
  1
シリーズ：ＴＦ２ＦＫ
 40
5.0
 72
     5
 11
119.15
 21
119.425
  0
TEXT
  7
TextStyle03
  8
文字
  6
CONTINUOUS
 10
63.525
 20
113.8
  1
　　　　　（固定）900×900タイプ
 40
5.0
 72
     5
 11
152.9
 21
113.8
  0
TEXT
  7
TextStyle03
  8
文字
  6
CONTINUOUS
 10
63.525
 20
108.175
  1

 40
5.0
 41
1.125
  0
TEXT
  7
TextStyle03
  8
文字
  6
CONTINUOUS
 10
63.525
 20
102.55
  1
図面名　：外観姿図
 40
5.0
 72
     5
 11
113.525
 21
102.55
  0
INSERT
  2
*DIM_0002
  8
寸法
  6
CONTINUOUS
 10
0.0
 20
0.0
  0
INSERT
  2
*DIM_0003
  8
寸法
  6
CONTINUOUS
 10
0.0
 20
0.0
  0
INSERT
  2
*DIM_0004
  8
寸法
  6
CONTINUOUS
 10
0.0
 20
0.0
  0
INSERT
  2
*DIM_0005
  8
寸法
  6
CONTINUOUS
 10
0.0
 20
0.0
  0
INSERT
  2
*DIM_0006
  8
寸法
  6
CONTINUOUS
 10
0.0
 20
0.0
  0
INSERT
  2
*DIM_0007
  8
寸法
  6
CONTINUOUS
 10
0.0
 20
0.0
  0
CIRCLE
  8
寸法
  6
CONTINUOUS
 10
-111.453763
 20
34.16027
 40
1.73792
  0
INSERT
  2
*DIM_0008
  8
寸法
  6
CONTINUOUS
 10
0.0
 20
0.0
  0
INSERT
  2
*DIM_0009
  8
寸法
  6
CONTINUOUS
 10
0.0
 20
0.0
  0
INSERT
  2
*DIM_0010
  8
寸法
  6
CONTINUOUS
 10
0.0
 20
0.0
  0
LINE
  8
別途部材
  6
CONTINUOUS
 62
    47
 10
-94.905098
 20
-51.754983
 11
-94.905098
 21
-51.854983
  0
ARC
  8
別途部材
  6
CONTINUOUS
 62
    47
 10
-94.755097
 20
-51.754984
 40
0.15
 50
90.0
 51
180.0
  0
LINE
  8
別途部材
  6
CONTINUOUS
 62
    47
 10
-94.755098
 20
-51.604983
 11
-94.670315
 21
-51.604983
  0
LINE
  8
別途部材
  6
CONTINUOUS
 62
    47
 10
-94.670315
 20
-54.104983
 11
-94.670315
 21
-51.854983
  0
LINE
  8
別途部材
  6
CONTINUOUS
 62
    47
 10
-44.965712
 20
-51.754983
 11
-44.965712
 21
-51.854983
  0
ARC
  8
別途部材
  6
CONTINUOUS
 62
    47
 10
-45.115713
 20
-51.754984
 40
0.15
 50
0.0
 51
90.0
  0
LINE
  8
別途部材
  6
CONTINUOUS
 62
    47
 10
-45.115712
 20
-51.604983
 11
-45.200495
 21
-51.604983
  0
LINE
  8
別途部材
  6
CONTINUOUS
 62
    47
 10
-45.200495
 20
-54.104983
 11
-45.200495
 21
-51.854983
  0
CIRCLE
  8
LAYER010
  6
CONTINUOUS
 62
    47
 10
-96.935393
 20
-55.829987
 40
0.016668
  0
CIRCLE
  8
LAYER010
  6
CONTINUOUS
 62
    47
 10
-42.935418
 20
-55.829987
 40
0.016668
  0
ENDSEC
  0
EOF
