  0
SECTION
  2
HEADER
  9
$EXTMIN
 10
-210.0
 20
-148.5
  9
$EXTMAX
 10
210.0
 20
148.5
  9
$PDMODE
 70
    32
  9
$PDSIZE
 40
1.5
  9
$LTSCALE
 40
10.0
  0
ENDSEC
  0
SECTION
  2
TABLES
  0
TABLE
  2
LTYPE
 70
    15
  0
LTYPE
  2
CONTINUOUS
 70
    64
  3
実線
 72
    65
 73
     0
 40
0.0
  0
LTYPE
  2
DASHED
 70
    64
  3
破線A
 72
    65
 73
     2
 40
0.6
 49
0.4
 49
-0.2
  0
LTYPE
  2
DASHEDX2
 70
    64
  3
破線B
 72
    65
 73
     2
 40
1.3
 49
0.9
 49
-0.4
  0
LTYPE
  2
DASHDOT
 70
    64
  3
１点鎖線A
 72
    65
 73
     4
 40
0.5375
 49
0.375
 49
-0.05
 49
0.0625
 49
-0.05
  0
LTYPE
  2
DASHDOTX2
 70
    64
  3
１点鎖線B
 72
    65
 73
     4
 40
1.075
 49
0.75
 49
-0.1
 49
0.125
 49
-0.1
  0
LTYPE
  2
DIVIDE2
 70
    64
  3
２点鎖線A
 72
    65
 73
     6
 40
0.5125
 49
0.3
 49
-0.0375
 49
0.05
 49
-0.0375
 49
0.05
 49
-0.0375
  0
LTYPE
  2
DIVIDE
 70
    64
  3
２点鎖線B
 72
    65
 73
     6
 40
1.05
 49
0.55
 49
-0.1
 49
0.1
 49
-0.1
 49
0.1
 49
-0.1
  0
LTYPE
  2
DOT
 70
    64
  3
点線A
 72
    65
 73
     2
 40
0.1125
 49
0.0625
 49
-0.05
  0
LTYPE
  2
DOTX2
 70
    64
  3
点線B
 72
    65
 73
     2
 40
0.275
 49
0.15
 49
-0.125
  0
LTYPE
  2
CONTINUOUS
 70
    64
  3
実線
 72
    65
 73
     0
 40
0.0
  0
LTYPE
  2
CONTINUOUS
 70
    64
  3
実線
 72
    65
 73
     0
 40
0.0
  0
LTYPE
  2
CONTINUOUS
 70
    64
  3
実線
 72
    65
 73
     0
 40
0.0
  0
LTYPE
  2
CONTINUOUS
 70
    64
  3
実線
 72
    65
 73
     0
 40
0.0
  0
LTYPE
  2
CONTINUOUS
 70
    64
  3
実線
 72
    65
 73
     0
 40
0.0
  0
LTYPE
  2
CONTINUOUS
 70
    64
  3
実線
 72
    65
 73
     0
 40
0.0
  0
ENDTAB
  0
TABLE
  2
LAYER
 70
    35
  0
LAYER
  2
通り芯
 70
     0
 62
    15
  6
CONTINUOUS
  0
LAYER
  2
補助線
 70
     0
 62
    16
  6
DOT
  0
LAYER
  2
躯体
 70
     0
 62
    31
  6
CONTINUOUS
  0
LAYER
  2
型材
 70
     0
 62
    32
  6
CONTINUOUS
  0
LAYER
  2
型材断面
 70
     0
 62
    47
  6
CONTINUOUS
  0
LAYER
  2
ガラス
 70
     0
 62
    48
  6
CONTINUOUS
  0
LAYER
  2
ゴム等
 70
     0
 62
    63
  6
CONTINUOUS
  0
LAYER
  2
ボルト／ビス
 70
     0
 62
    64
  6
CONTINUOUS
  0
LAYER
  2
文字
 70
     0
 62
    79
  6
CONTINUOUS
  0
LAYER
  2
寸法
 70
     0
 62
    80
  6
CONTINUOUS
  0
LAYER
  2
ﾊｯﾁﾝｸﾞ
 70
     0
 62
    95
  6
CONTINUOUS
  0
LAYER
  2
別途部材
 70
     0
 62
    96
  6
CONTINUOUS
  0
LAYER
  2
曲げ物
 70
     0
 62
   111
  6
CONTINUOUS
  0
LAYER
  2
鉄骨等
 70
     0
 62
   112
  6
CONTINUOUS
  0
LAYER
  2
St
 70
     0
 62
   127
  6
CONTINUOUS
  0
LAYER
  2
その他部品等
 70
     0
 62
   128
  6
CONTINUOUS
  0
LAYER
  2
ｶﾞｽｹｯﾄ
 70
     0
 62
   143
  6
CONTINUOUS
  0
LAYER
  2
ｽｹｯﾁ
 70
     0
 62
    14
  6
CONTINUOUS
  0
LAYER
  2
0
 70
     0
 62
    17
  6
CONTINUOUS
  0
LAYER
  2
1
 70
     0
 62
    30
  6
CONTINUOUS
  0
LAYER
  2
4
 70
     0
 62
    33
  6
CONTINUOUS
  0
LAYER
  2
ﾚｲﾔ3
 70
     0
 62
    46
  6
CONTINUOUS
  0
LAYER
  2
外形線
 70
     0
 62
    49
  6
CONTINUOUS
  0
LAYER
  2
部品
 70
     0
 62
    14
  6
CONTINUOUS
  0
LAYER
  2
サッシ芯
 70
     0
 62
    17
  6
DASHDOTX2
  0
LAYER
  2
寸法線
 70
     0
 62
    62
  6
CONTINUOUS
  0
LAYER
  2
姿図外形線
 70
     0
 62
    65
  6
CONTINUOUS
  0
LAYER
  2
姿補助線
 70
     0
 62
    30
  6
CONTINUOUS
  0
LAYER
  2
透視線
 70
     0
 62
    78
  6
DOT
  0
LAYER
  2
用紙
 70
     0
 62
    81
  6
CONTINUOUS
  0
LAYER
  2
実線図枠
 70
     0
 62
    94
  6
CONTINUOUS
  0
LAYER
  2
補助図枠
 70
     0
 62
    97
  6
CONTINUOUS
  0
LAYER
  2
建具記号
 70
     0
 62
   110
  6
CONTINUOUS
  0
LAYER
  2
補助文字
 70
     0
 62
   113
  6
CONTINUOUS
  0
LAYER
  2
LAYER010
 70
     0
 62
    11
  6
CONTINUOUS
  0
ENDTAB
  0
TABLE
  2
STYLE
 70
    10
  0
STYLE
  2
STANDARD
 70
     0
 40
1.0
 41
1.0
 42
1.0
 50
0.0
 71
     0
  3
TXT
  4
BIGFONT
  0
STYLE
  2
TATE
 70
     4
 40
1.0
 41
1.0
 42
1.0
 50
0.0
 71
     0
  3
TXT
  4
BIGFONT
  0
STYLE
  2
TextStyle03
 70
     0
 40
1.0
 41
1.0
 42
1.0
 50
0.0
 71
     0
  3
MONOTXT
  4
BIGFONT
  0
STYLE
  2
TextStyle04
 70
     0
 40
1.0
 41
1.0
 42
1.0
 50
0.0
 71
     0
  3
MONOTXT
  4
BIGFONT
  0
STYLE
  2
TextStyle05
 70
     0
 40
1.0
 41
1.0
 42
1.0
 50
0.0
 71
     0
  3
MONOTXT
  4
BIGFONT
  0
STYLE
  2
TextStyle06
 70
     0
 40
1.0
 41
1.0
 42
1.0
 50
0.0
 71
     0
  3
MONOTXT
  4
BIGFONT
  0
STYLE
  2
TextStyle07
 70
     0
 40
1.0
 41
1.0
 42
1.0
 50
0.0
 71
     0
  3
MONOTXT
  4
BIGFONT
  0
STYLE
  2
TextStyle08
 70
     0
 40
1.0
 41
1.0
 42
1.0
 50
0.0
 71
     0
  3
MONOTXT
  4
BIGFONT
  0
STYLE
  2
TextStyle09
 70
     0
 40
1.0
 41
1.0
 42
1.0
 50
0.0
 71
     0
  3
MONOTXT
  4
BIGFONT
  0
STYLE
  2
TextStyle10
 70
     0
 40
1.0
 41
1.0
 42
1.0
 50
0.0
 71
     0
  3
MONOTXT
  4
BIGFONT
  0
ENDTAB
  0
ENDSEC
  0
SECTION
  2
BLOCKS
  0
BLOCK
  2
*GRP_0001
 70
    65
 10
0.0
 20
0.0
  0
LINE
  8
型材断面
  6
CONTINUOUS
 10
195.0
 20
133.5
 11
195.0
 21
-133.5
  0
LINE
  8
型材断面
  6
CONTINUOUS
 10
195.0
 20
-133.5
 11
-185.0
 21
-133.5
  0
LINE
  8
型材断面
  6
CONTINUOUS
 10
-185.0
 20
-133.5
 11
-185.0
 21
133.5
  0
LINE
  8
型材断面
  6
CONTINUOUS
 10
195.0
 20
133.5
 11
-185.0
 21
133.5
  0
LINE
  8
型材断面
  6
CONTINUOUS
 10
145.0
 20
-133.5
 11
145.0
 21
-118.5
  0
LINE
  8
型材断面
  6
CONTINUOUS
 10
195.0
 20
-118.5
 11
145.0
 21
-118.5
  0
ENDBLK
  0
BLOCK
  2
*DIM_0002
 70
    65
 10
0.0
 20
0.0
  0
LINE
  8
寸法
  6
BYBLOCK
 62
     0
 10
-92.435405
 20
-26.094458
 11
-62.435405
 21
-26.094458
  0
POINT
  8
寸法
 62
     0
 10
-92.435405
 20
-26.094458
  0
POINT
  8
寸法
 62
     0
 10
-62.435405
 20
-26.094458
  0
TEXT
  7
TextStyle03
  8
寸法
  6
CONTINUOUS
 62
     0
 10
-88.325
 20
-25.725
  1
呼称寸法　600
 40
3.0
 72
     5
 11
-66.575
 21
-25.725
  0
ENDBLK
  0
BLOCK
  2
*DIM_0003
 70
    65
 10
0.0
 20
0.0
  0
LINE
  8
寸法
  6
BYBLOCK
 62
     0
 10
-87.435402
 20
32.691993
 11
-87.435402
 21
52.281172
  0
LINE
  8
寸法
  6
BYBLOCK
 62
     0
 10
-67.435402
 20
32.691993
 11
-67.435402
 21
52.281172
  0
LINE
  8
寸法
  6
BYBLOCK
 62
     0
 10
-87.435402
 20
52.281172
 11
-67.435402
 21
52.281172
  0
POINT
  8
寸法
 62
     0
 10
-87.435402
 20
52.281172
  0
POINT
  8
寸法
 62
     0
 10
-67.435402
 20
52.281172
  0
TEXT
  7
TextStyle03
  8
寸法
  6
CONTINUOUS
 62
     0
 10
-79.8875
 20
52.675
  1
400
 40
3.0
 72
     5
 11
-75.0125
 21
52.675
  0
ENDBLK
  0
BLOCK
  2
*DIM_0004
 70
    65
 10
0.0
 20
0.0
  0
LINE
  8
寸法
  6
BYBLOCK
 62
     0
 10
-57.935337
 20
-64.79827
 11
-57.935337
 21
-26.094458
  0
LINE
  8
寸法
  6
BYBLOCK
 62
     0
 10
-62.435405
 20
-26.094458
 11
-57.935337
 21
-26.094458
  0
POINT
  8
寸法
 62
     0
 10
-62.435405
 20
-26.094458
  0
POINT
  8
寸法
 62
     0
 10
-57.935337
 20
-26.094458
  0
TEXT
  7
TextStyle03
  8
寸法
  6
CONTINUOUS
 62
     0
 10
-61.79375
 20
-25.725
  1
90
 40
3.0
 72
     5
 11
-58.60625
 21
-25.725
  0
ENDBLK
  0
BLOCK
  2
*DIM_0005
 70
    65
 10
0.0
 20
0.0
  0
LINE
  8
寸法
  6
BYBLOCK
 62
     0
 10
-96.935473
 20
-64.79827
 11
-96.935473
 21
-26.094458
  0
LINE
  8
寸法
  6
BYBLOCK
 62
     0
 10
-92.435405
 20
-26.094458
 11
-96.935473
 21
-26.094458
  0
POINT
  8
寸法
 62
     0
 10
-92.435405
 20
-26.094458
  0
POINT
  8
寸法
 62
     0
 10
-96.935473
 20
-26.094458
  0
TEXT
  7
TextStyle03
  8
寸法
  6
CONTINUOUS
 62
     0
 10
-96.29375
 20
-25.725
  1
90
 40
3.0
 72
     5
 11
-93.10625
 21
-25.725
  0
ENDBLK
  0
BLOCK
  2
*DIM_0006
 70
    65
 10
0.0
 20
0.0
  0
LINE
  8
寸法
  6
BYBLOCK
 62
     0
 10
170.304785
 20
63.557477
 11
179.967098
 21
63.557477
  0
LINE
  8
寸法
  6
BYBLOCK
 62
     0
 10
170.304785
 20
34.557477
 11
179.967098
 21
34.557477
  0
LINE
  8
寸法
  6
BYBLOCK
 62
     0
 10
179.967098
 20
63.557477
 11
179.967098
 21
34.557477
  0
POINT
  8
寸法
 62
     0
 10
179.967098
 20
63.557477
  0
POINT
  8
寸法
 62
     0
 10
179.967098
 20
34.557477
  0
TEXT
  7
TextStyle03
  8
寸法
  6
CONTINUOUS
 62
     0
 10
179.575
 20
46.6125
  1
580
 40
3.0
 50
90.0
 72
     5
 11
179.575
 21
51.4875
  0
ENDBLK
  0
BLOCK
  2
*DIM_0007
 70
    65
 10
0.0
 20
0.0
  0
LINE
  8
寸法
  6
BYBLOCK
 62
     0
 10
138.304785
 20
66.557477
 11
138.304785
 21
74.30483
  0
LINE
  8
寸法
  6
BYBLOCK
 62
     0
 10
167.304785
 20
66.557477
 11
167.304785
 21
74.30483
  0
LINE
  8
寸法
  6
BYBLOCK
 62
     0
 10
138.304785
 20
74.30483
 11
167.304785
 21
74.30483
  0
POINT
  8
寸法
 62
     0
 10
138.304785
 20
74.30483
  0
POINT
  8
寸法
 62
     0
 10
167.304785
 20
74.30483
  0
TEXT
  7
TextStyle03
  8
寸法
  6
CONTINUOUS
 62
     0
 10
150.3625
 20
74.675
  1
580
 40
3.0
 72
     5
 11
155.2375
 21
74.675
  0
ENDBLK
  0
BLOCK
  2
*DIM_0008
 70
    65
 10
0.0
 20
0.0
  0
LINE
  8
寸法
  6
CONTINUOUS
 10
-41.976592
 20
-61.573262
 11
-41.976592
 21
-66.548265
  0
POINT
  8
寸法
 10
-41.976592
 20
-61.573262
  0
POINT
  8
寸法
 10
-41.976592
 20
-66.548265
  0
TEXT
  7
TextStyle03
  8
寸法
  6
CONTINUOUS
 10
-37.9
 20
-67.08125
  1
99.5
 40
3.0
 50
90.0
 72
     5
 11
-37.9
 21
-60.51875
  0
ENDBLK
  0
ENDSEC
  0
SECTION
  2
ENTITIES
  0
POLYLINE
  8
通り芯
  6
CONTINUOUS
 66
     1
 70
     1
  0
VERTEX
  8
通り芯
 10
-210.0
 20
-148.5
  0
VERTEX
  8
通り芯
 10
210.0
 20
-148.5
  0
VERTEX
  8
通り芯
 10
210.0
 20
148.5
  0
VERTEX
  8
通り芯
 10
-210.0
 20
148.5
  0
SEQEND
  0
INSERT
  2
*GRP_0001
  8
型材断面
  6
CONTINUOUS
 10
0.0
 20
0.0
  0
LINE
  8
型材断面
  6
DASHDOT
 10
-92.435405
 20
-77.76228
 11
-92.435405
 21
31.69199
  0
LINE
  8
型材断面
  6
DASHDOT
 10
-77.435405
 20
-77.76228
 11
-77.435405
 21
31.69199
  0
LINE
  8
型材断面
  6
DASHDOT
 10
-62.435405
 20
-77.76228
 11
-62.435405
 21
31.69199
  0
LINE
  8
型材断面
  6
DASHDOT
 10
-92.435405
 20
16.69199
 11
-62.435405
 21
16.69199
  0
LINE
  8
型材断面
  6
CONTINUOUS
 10
-100.459278
 20
16.69199
 11
-104.345038
 21
14.448545
  0
LINE
  8
型材断面
  6
CONTINUOUS
 10
-100.459278
 20
16.69199
 11
-104.345038
 21
18.935435
  0
LINE
  8
型材断面
  6
CONTINUOUS
 10
-104.345038
 20
18.935435
 11
-104.345038
 21
14.448545
  0
LINE
  8
型材断面
  6
CONTINUOUS
 10
-54.411528
 20
16.69199
 11
-50.525767
 21
14.448545
  0
LINE
  8
型材断面
  6
CONTINUOUS
 10
-54.411528
 20
16.69199
 11
-50.525767
 21
18.935435
  0
LINE
  8
型材断面
  6
CONTINUOUS
 10
-50.525767
 20
18.935435
 11
-50.525767
 21
14.448545
  0
LINE
  8
型材断面
  6
CONTINUOUS
 10
-77.435405
 20
39.715863
 11
-79.67885
 21
43.601622
  0
LINE
  8
型材断面
  6
CONTINUOUS
 10
-77.435405
 20
39.715863
 11
-75.19196
 21
43.601622
  0
LINE
  8
型材断面
  6
CONTINUOUS
 10
-75.19196
 20
43.601622
 11
-79.67885
 21
43.601622
  0
LINE
  8
型材断面
  6
CONTINUOUS
 10
-77.435405
 20
-6.331887
 11
-79.67885
 21
-10.217648
  0
LINE
  8
型材断面
  6
CONTINUOUS
 10
-77.435405
 20
-6.331887
 11
-75.19196
 21
-10.217648
  0
LINE
  8
型材断面
  6
CONTINUOUS
 10
-75.19196
 20
-10.217648
 11
-79.67885
 21
-10.217648
  0
LINE
  8
型材断面
  6
CONTINUOUS
 10
-35.48472
 20
-6.182028
 11
-37.728165
 21
-10.067788
  0
LINE
  8
型材断面
  6
CONTINUOUS
 10
-35.48472
 20
-6.182028
 11
-33.241275
 21
-10.067788
  0
LINE
  8
型材断面
  6
CONTINUOUS
 10
-33.241275
 20
-10.067788
 11
-37.728165
 21
-10.067788
  0
LINE
  8
型材断面
  6
CONTINUOUS
 10
-44.5186
 20
-11.47568
 11
8.13808
 21
-11.47568
  0
LINE
  8
型材断面
  6
CONTINUOUS
 10
-96.185487
 20
-67.298265
 11
-77.435405
 21
-67.298265
  0
LINE
  8
型材断面
  6
CONTINUOUS
 10
-57.935337
 20
-2.808078
 11
-57.935337
 21
16.69199
  0
LINE
  8
型材断面
  6
CONTINUOUS
 10
-57.935337
 20
-2.808078
 11
-77.435405
 21
-2.808078
  0
LINE
  8
型材断面
  6
CONTINUOUS
 10
-57.935337
 20
36.192058
 11
-57.935337
 21
16.69199
  0
LINE
  8
型材断面
  6
CONTINUOUS
 10
-57.935337
 20
36.192058
 11
-77.435405
 21
36.192058
  0
LINE
  8
型材断面
  6
CONTINUOUS
 10
-96.935473
 20
36.192058
 11
-96.935473
 21
16.69199
  0
LINE
  8
型材断面
  6
CONTINUOUS
 10
-96.935473
 20
36.192058
 11
-77.435405
 21
36.192058
  0
LINE
  8
型材断面
  6
CONTINUOUS
 10
-96.935473
 20
-2.808078
 11
-96.935473
 21
16.69199
  0
LINE
  8
型材断面
  6
CONTINUOUS
 10
-96.935473
 20
-2.808078
 11
-77.435405
 21
-2.808078
  0
LINE
  8
型材断面
  6
CONTINUOUS
 10
-44.5186
 20
-18.817118
 11
8.13808
 21
-18.817118
  0
CIRCLE
  8
型材断面
  6
CONTINUOUS
 62
    47
 10
-96.935393
 20
-65.798268
 40
0.016668
  0
LINE
  8
型材断面
  6
CONTINUOUS
 62
    47
 10
-96.185405
 20
-66.548265
 11
-96.935393
 21
-66.548265
  0
LINE
  8
型材断面
  6
CONTINUOUS
 62
    47
 10
-96.935393
 20
-66.548265
 11
-96.935393
 21
-65.798268
  0
LINE
  8
型材断面
  6
CONTINUOUS
 62
    47
 10
-96.935393
 20
-65.798268
 11
-92.535395
 21
-65.052498
  0
LINE
  8
型材断面
  6
CONTINUOUS
 62
    47
 10
-96.185405
 20
-66.548265
 11
-96.185405
 21
-67.298265
  0
LINE
  8
型材断面
  6
CONTINUOUS
 10
-92.535475
 20
-65.052498
 11
-77.435405
 21
-65.052498
  0
LINE
  8
型材断面
  6
CONTINUOUS
 62
    47
 10
-94.670315
 20
-64.073262
 11
-77.435405
 21
-64.073262
  0
LINE
  8
型材断面
  6
CONTINUOUS
 62
    47
 10
-94.905098
 20
-61.823262
 11
-77.435405
 21
-61.823262
  0
LINE
  8
型材断面
  6
CONTINUOUS
 62
    47
 10
-94.670315
 20
-61.573262
 11
-77.435405
 21
-61.573262
  0
LINE
  8
型材断面
  6
CONTINUOUS
 10
-96.935473
 20
-65.79827
 11
-77.435405
 21
-65.79827
  0
LINE
  8
型材断面
  6
CONTINUOUS
 62
    47
 10
-96.935473
 20
-66.548265
 11
-77.435405
 21
-66.548265
  0
LINE
  8
型材断面
  6
CONTINUOUS
 62
    47
 10
-92.535395
 20
-65.052498
 11
-92.535395
 21
-64.073262
  0
LINE
  8
型材断面
  6
CONTINUOUS
 10
-58.685322
 20
-67.298265
 11
-77.435405
 21
-67.298265
  0
CIRCLE
  8
型材断面
  6
CONTINUOUS
 62
    47
 10
-57.935418
 20
-65.798268
 40
0.016668
  0
LINE
  8
型材断面
  6
CONTINUOUS
 62
    47
 10
-58.685405
 20
-66.548265
 11
-57.935418
 21
-66.548265
  0
LINE
  8
型材断面
  6
CONTINUOUS
 62
    47
 10
-57.935418
 20
-66.548265
 11
-57.935418
 21
-65.798268
  0
LINE
  8
型材断面
  6
CONTINUOUS
 62
    47
 10
-57.935418
 20
-65.798268
 11
-62.335415
 21
-65.052498
  0
LINE
  8
型材断面
  6
CONTINUOUS
 62
    47
 10
-58.685405
 20
-66.548265
 11
-58.685405
 21
-67.298265
  0
LINE
  8
型材断面
  6
CONTINUOUS
 10
-62.335335
 20
-65.052498
 11
-77.435405
 21
-65.052498
  0
LINE
  8
型材断面
  6
CONTINUOUS
 62
    47
 10
-60.200495
 20
-64.073262
 11
-77.435405
 21
-64.073262
  0
LINE
  8
型材断面
  6
CONTINUOUS
 62
    47
 10
-59.965712
 20
-61.823262
 11
-77.435405
 21
-61.823262
  0
LINE
  8
型材断面
  6
CONTINUOUS
 62
    47
 10
-60.200495
 20
-61.573262
 11
-77.435405
 21
-61.573262
  0
LINE
  8
型材断面
  6
CONTINUOUS
 10
-57.935337
 20
-65.79827
 11
-77.435405
 21
-65.79827
  0
LINE
  8
型材断面
  6
CONTINUOUS
 62
    47
 10
-57.935337
 20
-66.548265
 11
-77.435405
 21
-66.548265
  0
LINE
  8
型材断面
  6
CONTINUOUS
 62
    47
 10
-62.335415
 20
-65.052498
 11
-62.335415
 21
-64.073262
  0
LINE
  8
型材断面
  6
DASHDOT
 10
-92.435405
 20
1.69199
 11
-62.435405
 21
1.69199
  0
LINE
  8
型材断面
  6
DASHDOT
 10
-92.435405
 20
31.69199
 11
-62.435405
 21
31.69199
  0
LINE
  8
型材断面
  6
CONTINUOUS
 10
-76.810405
 20
2.972298
 11
-76.810405
 21
-0.777703
  0
LINE
  8
型材断面
  6
CONTINUOUS
 10
-78.060405
 20
2.972298
 11
-78.060405
 21
-0.777703
  0
LINE
  8
型材断面
  6
CONTINUOUS
 10
-63.715712
 20
16.06699
 11
-59.965712
 21
16.06699
  0
LINE
  8
型材断面
  6
CONTINUOUS
 10
-63.715712
 20
17.31699
 11
-59.965712
 21
17.31699
  0
LINE
  8
型材断面
  6
CONTINUOUS
 10
-78.060405
 20
30.411682
 11
-78.060405
 21
34.161682
  0
LINE
  8
型材断面
  6
CONTINUOUS
 10
-76.810405
 20
30.411682
 11
-76.810405
 21
34.161682
  0
LINE
  8
型材断面
  6
CONTINUOUS
 10
-91.155098
 20
17.31699
 11
-94.905098
 21
17.31699
  0
LINE
  8
型材断面
  6
CONTINUOUS
 10
-91.155098
 20
16.06699
 11
-94.905098
 21
16.06699
  0
LINE
  8
型材断面
  6
CONTINUOUS
 10
-60.319265
 20
-0.777783
 11
-59.965715
 21
-0.424233
  0
LINE
  8
型材断面
  6
CONTINUOUS
 10
-57.935337
 20
-2.808078
 11
-60.14245
 21
-0.600965
  0
LINE
  8
型材断面
  6
CONTINUOUS
 10
-64.069265
 20
2.972218
 11
-63.715715
 21
3.325768
  0
LINE
  8
型材断面
  6
CONTINUOUS
 10
-64.069265
 20
2.972218
 11
-60.31934
 21
-0.777707
  0
LINE
  8
型材断面
  6
CONTINUOUS
 10
-63.715715
 20
3.325768
 11
-59.96572
 21
-0.424227
  0
LINE
  8
型材断面
  6
CONTINUOUS
 10
-63.715712
 20
16.06699
 11
-63.715712
 21
3.32577
  0
LINE
  8
型材断面
  6
CONTINUOUS
 10
-76.810405
 20
2.972298
 11
-64.069185
 21
2.972298
  0
LINE
  8
型材断面
  6
CONTINUOUS
 10
-94.551545
 20
34.161763
 11
-94.905095
 21
33.808213
  0
LINE
  8
型材断面
  6
CONTINUOUS
 10
-96.935473
 20
36.192058
 11
-94.72836
 21
33.984945
  0
LINE
  8
型材断面
  6
CONTINUOUS
 10
-90.801545
 20
30.411763
 11
-91.155095
 21
30.058213
  0
LINE
  8
型材断面
  6
CONTINUOUS
 10
-90.801545
 20
30.411763
 11
-94.55147
 21
34.161687
  0
LINE
  8
型材断面
  6
CONTINUOUS
 10
-91.155095
 20
30.058213
 11
-94.90509
 21
33.808208
  0
LINE
  8
型材断面
  6
CONTINUOUS
 10
-94.551545
 20
-0.777783
 11
-94.905095
 21
-0.424233
  0
LINE
  8
型材断面
  6
CONTINUOUS
 10
-96.935473
 20
-2.808078
 11
-94.72836
 21
-0.600965
  0
LINE
  8
型材断面
  6
CONTINUOUS
 10
-90.801545
 20
2.972218
 11
-91.155095
 21
3.325768
  0
LINE
  8
型材断面
  6
CONTINUOUS
 10
-90.801545
 20
2.972218
 11
-94.55147
 21
-0.777707
  0
LINE
  8
型材断面
  6
CONTINUOUS
 10
-91.155095
 20
3.325768
 11
-94.90509
 21
-0.424227
  0
LINE
  8
型材断面
  6
CONTINUOUS
 10
-60.319265
 20
34.161763
 11
-59.965715
 21
33.808213
  0
LINE
  8
型材断面
  6
CONTINUOUS
 10
-57.935337
 20
36.192058
 11
-60.14245
 21
33.984945
  0
LINE
  8
型材断面
  6
CONTINUOUS
 10
-64.069265
 20
30.411763
 11
-63.715715
 21
30.058213
  0
LINE
  8
型材断面
  6
CONTINUOUS
 10
-64.069265
 20
30.411763
 11
-60.31934
 21
34.161687
  0
LINE
  8
型材断面
  6
CONTINUOUS
 10
-63.715715
 20
30.058213
 11
-59.96572
 21
33.808208
  0
LINE
  8
型材断面
  6
CONTINUOUS
 10
-76.810405
 20
30.411682
 11
-64.069185
 21
30.411682
  0
LINE
  8
型材断面
  6
CONTINUOUS
 10
-63.715712
 20
17.31699
 11
-63.715712
 21
30.05821
  0
LINE
  8
型材断面
  6
CONTINUOUS
 10
-59.965712
 20
-0.424235
 11
-59.965712
 21
33.808215
  0
LINE
  8
型材断面
  6
CONTINUOUS
 10
-91.155098
 20
17.31699
 11
-91.155098
 21
30.05821
  0
LINE
  8
型材断面
  6
CONTINUOUS
 10
-78.060405
 20
30.411682
 11
-90.801625
 21
30.411682
  0
LINE
  8
型材断面
  6
CONTINUOUS
 10
-60.319345
 20
34.161682
 11
-94.551465
 21
34.161682
  0
LINE
  8
型材断面
  6
CONTINUOUS
 10
-91.155098
 20
16.06699
 11
-91.155098
 21
3.32577
  0
LINE
  8
型材断面
  6
CONTINUOUS
 10
-78.060405
 20
2.972298
 11
-90.801625
 21
2.972298
  0
LINE
  8
型材断面
  6
CONTINUOUS
 10
-60.319345
 20
-0.777703
 11
-94.551465
 21
-0.777703
  0
LINE
  8
型材断面
  6
CONTINUOUS
 10
-94.905098
 20
33.808215
 11
-94.905098
 21
-0.424235
  0
LINE
  8
ガラス
  6
CONTINUOUS
 10
-75.41871
 20
18.65692
 11
-79.365157
 21
14.710475
  0
LINE
  8
ガラス
  6
CONTINUOUS
 10
-76.40297
 20
15.694732
 11
-78.380895
 21
17.672667
  0
LINE
  8
ガラス
  6
CONTINUOUS
 10
-77.682538
 20
15.74041
 11
-76.157762
 21
17.265185
  0
LINE
  8
ガラス
  6
CONTINUOUS
 10
-77.10133
 20
17.62699
 11
-78.6261
 21
16.102218
  0
LINE
  8
ガラス
  6
CONTINUOUS
 10
138.304785
 20
34.557477
 11
167.304785
 21
34.557477
  0
LINE
  8
ガラス
  6
CONTINUOUS
 10
167.304785
 20
63.557477
 11
167.304785
 21
34.557477
  0
LINE
  8
ガラス
  6
CONTINUOUS
 10
167.304785
 20
63.557477
 11
138.304785
 21
63.557477
  0
LINE
  8
ガラス
  6
CONTINUOUS
 10
138.304785
 20
34.557477
 11
138.304785
 21
63.557477
  0
TEXT
  7
TextStyle03
  8
文字
  6
CONTINUOUS
 10
-31.2
 20
-9.725
  1
は排水穴位置を示す
 40
3.0
 72
     5
 11
-1.2
 21
-9.725
  0
TEXT
  7
TextStyle03
  8
文字
  6
CONTINUOUS
 10
-98.825
 20
58.1
  1
アンカーピッチ
 40
3.0
 72
     5
 11
-75.575
 21
58.1
  0
TEXT
  7
TextStyle03
  8
文字
  6
CONTINUOUS
 10
-36.8
 20
-17.425
  1
アンカー数量　４ヶ所
 40
3.0
 72
     5
 11
-3.425
 21
-17.425
  0
TEXT
  7
TextStyle03
  8
文字
  6
CONTINUOUS
 10
63.8
 20
91.8
  1
ＮＳコード：ＮＳＦＫＺ
 40
5.0
 72
     5
 11
125.05
 21
91.8
  0
TEXT
  7
TextStyle03
  8
文字
  6
CONTINUOUS
 10
146.1
 20
42.8
  1
網入り6.8t
 40
3.0
 72
     5
 11
162.7875
 21
42.8
  0
TEXT
  7
TextStyle03
  8
文字
  6
CONTINUOUS
 10
152.725
 20
37.55
  1
×１枚
 40
3.0
 72
     5
 11
162.475
 21
37.55
  0
LINE
  8
文字
  6
CONTINUOUS
 10
-41.976592
 20
-61.573262
 11
-56.006328
 21
-61.573262
  0
LINE
  8
文字
  6
CONTINUOUS
 10
-41.976592
 20
-66.548265
 11
-55.908298
 21
-66.548265
  0
TEXT
  7
TextStyle03
  8
文字
  6
CONTINUOUS
 10
63.525
 20
119.425
  1
シリーズ：ＴＦ２ＦＫ
 40
5.0
 72
     5
 11
119.15
 21
119.425
  0
TEXT
  7
TextStyle03
  8
文字
  6
CONTINUOUS
 10
63.525
 20
113.8
  1
　　　　　（固定）600×600タイプ
 40
5.0
 72
     5
 11
152.9
 21
113.8
  0
TEXT
  7
TextStyle03
  8
文字
  6
CONTINUOUS
 10
63.525
 20
108.175
  1

 40
5.0
 41
1.125
  0
TEXT
  7
TextStyle03
  8
文字
  6
CONTINUOUS
 10
63.525
 20
102.55
  1
図面名　：外観姿図
 40
5.0
 72
     5
 11
113.525
 21
102.55
  0
INSERT
  2
*DIM_0002
  8
寸法
  6
CONTINUOUS
 10
0.0
 20
0.0
  0
INSERT
  2
*DIM_0003
  8
寸法
  6
CONTINUOUS
 10
0.0
 20
0.0
  0
INSERT
  2
*DIM_0004
  8
寸法
  6
CONTINUOUS
 10
0.0
 20
0.0
  0
INSERT
  2
*DIM_0005
  8
寸法
  6
CONTINUOUS
 10
0.0
 20
0.0
  0
INSERT
  2
*DIM_0006
  8
寸法
  6
CONTINUOUS
 10
0.0
 20
0.0
  0
INSERT
  2
*DIM_0007
  8
寸法
  6
CONTINUOUS
 10
0.0
 20
0.0
  0
INSERT
  2
*DIM_0008
  8
寸法
  6
CONTINUOUS
 10
0.0
 20
0.0
  0
LINE
  8
別途部材
  6
CONTINUOUS
 62
    47
 10
-94.905098
 20
-61.723262
 11
-94.905098
 21
-61.823262
  0
ARC
  8
別途部材
  6
CONTINUOUS
 62
    47
 10
-94.755098
 20
-61.723264
 40
0.15
 50
90.0
 51
180.0
  0
LINE
  8
別途部材
  6
CONTINUOUS
 62
    47
 10
-94.755098
 20
-61.573262
 11
-94.670315
 21
-61.573262
  0
LINE
  8
別途部材
  6
CONTINUOUS
 62
    47
 10
-94.670315
 20
-64.073262
 11
-94.670315
 21
-61.823262
  0
LINE
  8
別途部材
  6
CONTINUOUS
 62
    47
 10
-59.965712
 20
-61.723262
 11
-59.965712
 21
-61.823262
  0
ARC
  8
別途部材
  6
CONTINUOUS
 62
    47
 10
-60.115712
 20
-61.723264
 40
0.15
 50
0.0
 51
90.0
  0
LINE
  8
別途部材
  6
CONTINUOUS
 62
    47
 10
-60.115712
 20
-61.573262
 11
-60.200495
 21
-61.573262
  0
LINE
  8
別途部材
  6
CONTINUOUS
 62
    47
 10
-60.200495
 20
-64.073262
 11
-60.200495
 21
-61.823262
  0
CIRCLE
  8
LAYER010
  6
CONTINUOUS
 62
    47
 10
-96.935393
 20
-65.798268
 40
0.016668
  0
CIRCLE
  8
LAYER010
  6
CONTINUOUS
 62
    47
 10
-57.935418
 20
-65.798268
 40
0.016668
  0
ENDSEC
  0
EOF
