  0
SECTION
  2
HEADER
  9
$EXTMIN
 10
-210.0
 20
-148.5
  9
$EXTMAX
 10
210.0
 20
148.5
  9
$PDMODE
 70
    32
  9
$PDSIZE
 40
1.5
  9
$LTSCALE
 40
10.0
  0
ENDSEC
  0
SECTION
  2
TABLES
  0
TABLE
  2
LTYPE
 70
    15
  0
LTYPE
  2
CONTINUOUS
 70
    64
  3
実線
 72
    65
 73
     0
 40
0.0
  0
LTYPE
  2
DASHED
 70
    64
  3
破線A
 72
    65
 73
     2
 40
0.6
 49
0.4
 49
-0.2
  0
LTYPE
  2
DASHEDX2
 70
    64
  3
破線B
 72
    65
 73
     2
 40
1.3
 49
0.9
 49
-0.4
  0
LTYPE
  2
DASHDOT
 70
    64
  3
１点鎖線A
 72
    65
 73
     4
 40
0.5375
 49
0.375
 49
-0.05
 49
0.0625
 49
-0.05
  0
LTYPE
  2
DASHDOTX2
 70
    64
  3
１点鎖線B
 72
    65
 73
     4
 40
1.075
 49
0.75
 49
-0.1
 49
0.125
 49
-0.1
  0
LTYPE
  2
DIVIDE2
 70
    64
  3
２点鎖線A
 72
    65
 73
     6
 40
0.5125
 49
0.3
 49
-0.0375
 49
0.05
 49
-0.0375
 49
0.05
 49
-0.0375
  0
LTYPE
  2
DIVIDE
 70
    64
  3
２点鎖線B
 72
    65
 73
     6
 40
1.05
 49
0.55
 49
-0.1
 49
0.1
 49
-0.1
 49
0.1
 49
-0.1
  0
LTYPE
  2
DOT
 70
    64
  3
点線A
 72
    65
 73
     2
 40
0.1125
 49
0.0625
 49
-0.05
  0
LTYPE
  2
DOTX2
 70
    64
  3
点線B
 72
    65
 73
     2
 40
0.275
 49
0.15
 49
-0.125
  0
LTYPE
  2
CONTINUOUS
 70
    64
  3
実線
 72
    65
 73
     0
 40
0.0
  0
LTYPE
  2
CONTINUOUS
 70
    64
  3
実線
 72
    65
 73
     0
 40
0.0
  0
LTYPE
  2
CONTINUOUS
 70
    64
  3
実線
 72
    65
 73
     0
 40
0.0
  0
LTYPE
  2
CONTINUOUS
 70
    64
  3
実線
 72
    65
 73
     0
 40
0.0
  0
LTYPE
  2
CONTINUOUS
 70
    64
  3
実線
 72
    65
 73
     0
 40
0.0
  0
LTYPE
  2
CONTINUOUS
 70
    64
  3
実線
 72
    65
 73
     0
 40
0.0
  0
ENDTAB
  0
TABLE
  2
LAYER
 70
    35
  0
LAYER
  2
通り芯
 70
     0
 62
    15
  6
CONTINUOUS
  0
LAYER
  2
補助線
 70
     0
 62
    16
  6
DOT
  0
LAYER
  2
躯体
 70
     0
 62
    31
  6
CONTINUOUS
  0
LAYER
  2
型材
 70
     0
 62
    32
  6
CONTINUOUS
  0
LAYER
  2
型材断面
 70
     0
 62
    47
  6
CONTINUOUS
  0
LAYER
  2
ガラス
 70
     0
 62
    48
  6
CONTINUOUS
  0
LAYER
  2
ゴム等
 70
     0
 62
    63
  6
CONTINUOUS
  0
LAYER
  2
ボルト／ビス
 70
     0
 62
    64
  6
CONTINUOUS
  0
LAYER
  2
文字
 70
     0
 62
    79
  6
CONTINUOUS
  0
LAYER
  2
寸法
 70
     0
 62
    80
  6
CONTINUOUS
  0
LAYER
  2
ﾊｯﾁﾝｸﾞ
 70
     0
 62
    95
  6
CONTINUOUS
  0
LAYER
  2
別途部材
 70
     0
 62
    96
  6
CONTINUOUS
  0
LAYER
  2
曲げ物
 70
     0
 62
   111
  6
CONTINUOUS
  0
LAYER
  2
鉄骨等
 70
     0
 62
   112
  6
CONTINUOUS
  0
LAYER
  2
St
 70
     0
 62
   127
  6
CONTINUOUS
  0
LAYER
  2
その他部品等
 70
     0
 62
   128
  6
CONTINUOUS
  0
LAYER
  2
ｶﾞｽｹｯﾄ
 70
     0
 62
   143
  6
CONTINUOUS
  0
LAYER
  2
ｽｹｯﾁ
 70
     0
 62
    14
  6
CONTINUOUS
  0
LAYER
  2
0
 70
     0
 62
    17
  6
CONTINUOUS
  0
LAYER
  2
1
 70
     0
 62
    30
  6
CONTINUOUS
  0
LAYER
  2
4
 70
     0
 62
    33
  6
CONTINUOUS
  0
LAYER
  2
ﾚｲﾔ3
 70
     0
 62
    46
  6
CONTINUOUS
  0
LAYER
  2
外形線
 70
     0
 62
    49
  6
CONTINUOUS
  0
LAYER
  2
部品
 70
     0
 62
    14
  6
CONTINUOUS
  0
LAYER
  2
サッシ芯
 70
     0
 62
    17
  6
DASHDOTX2
  0
LAYER
  2
寸法線
 70
     0
 62
    62
  6
CONTINUOUS
  0
LAYER
  2
姿図外形線
 70
     0
 62
    65
  6
CONTINUOUS
  0
LAYER
  2
姿補助線
 70
     0
 62
    30
  6
CONTINUOUS
  0
LAYER
  2
透視線
 70
     0
 62
    78
  6
DOT
  0
LAYER
  2
用紙
 70
     0
 62
    81
  6
CONTINUOUS
  0
LAYER
  2
実線図枠
 70
     0
 62
    94
  6
CONTINUOUS
  0
LAYER
  2
補助図枠
 70
     0
 62
    97
  6
CONTINUOUS
  0
LAYER
  2
建具記号
 70
     0
 62
   110
  6
CONTINUOUS
  0
LAYER
  2
補助文字
 70
     0
 62
   113
  6
CONTINUOUS
  0
LAYER
  2
LAYER010
 70
     0
 62
    11
  6
CONTINUOUS
  0
ENDTAB
  0
TABLE
  2
STYLE
 70
    10
  0
STYLE
  2
STANDARD
 70
     0
 40
1.0
 41
1.0
 42
1.0
 50
0.0
 71
     0
  3
TXT
  4
BIGFONT
  0
STYLE
  2
TATE
 70
     4
 40
1.0
 41
1.0
 42
1.0
 50
0.0
 71
     0
  3
TXT
  4
BIGFONT
  0
STYLE
  2
TextStyle03
 70
     0
 40
1.0
 41
1.0
 42
1.0
 50
0.0
 71
     0
  3
MONOTXT
  4
BIGFONT
  0
STYLE
  2
TextStyle04
 70
     0
 40
1.0
 41
1.0
 42
1.0
 50
0.0
 71
     0
  3
MONOTXT
  4
BIGFONT
  0
STYLE
  2
TextStyle05
 70
     0
 40
1.0
 41
1.0
 42
1.0
 50
0.0
 71
     0
  3
MONOTXT
  4
BIGFONT
  0
STYLE
  2
TextStyle06
 70
     0
 40
1.0
 41
1.0
 42
1.0
 50
0.0
 71
     0
  3
MONOTXT
  4
BIGFONT
  0
STYLE
  2
TextStyle07
 70
     0
 40
1.0
 41
1.0
 42
1.0
 50
0.0
 71
     0
  3
MONOTXT
  4
BIGFONT
  0
STYLE
  2
TextStyle08
 70
     0
 40
1.0
 41
1.0
 42
1.0
 50
0.0
 71
     0
  3
MONOTXT
  4
BIGFONT
  0
STYLE
  2
TextStyle09
 70
     0
 40
1.0
 41
1.0
 42
1.0
 50
0.0
 71
     0
  3
MONOTXT
  4
BIGFONT
  0
STYLE
  2
TextStyle10
 70
     0
 40
1.0
 41
1.0
 42
1.0
 50
0.0
 71
     0
  3
MONOTXT
  4
BIGFONT
  0
ENDTAB
  0
ENDSEC
  0
SECTION
  2
BLOCKS
  0
BLOCK
  2
*GRP_0001
 70
    65
 10
0.0
 20
0.0
  0
LINE
  8
型材断面
  6
CONTINUOUS
 10
195.0
 20
133.5
 11
195.0
 21
-133.5
  0
LINE
  8
型材断面
  6
CONTINUOUS
 10
195.0
 20
-133.5
 11
-185.0
 21
-133.5
  0
LINE
  8
型材断面
  6
CONTINUOUS
 10
-185.0
 20
-133.5
 11
-185.0
 21
133.5
  0
LINE
  8
型材断面
  6
CONTINUOUS
 10
195.0
 20
133.5
 11
-185.0
 21
133.5
  0
LINE
  8
型材断面
  6
CONTINUOUS
 10
145.0
 20
-133.5
 11
145.0
 21
-118.5
  0
LINE
  8
型材断面
  6
CONTINUOUS
 10
195.0
 20
-118.5
 11
145.0
 21
-118.5
  0
ENDBLK
  0
BLOCK
  2
*DIM_0002
 70
    65
 10
0.0
 20
0.0
  0
LINE
  8
寸法
  6
BYBLOCK
 62
     0
 10
-95.755937
 20
-35.080245
 11
-95.755937
 21
-33.416065
  0
LINE
  8
寸法
  6
BYBLOCK
 62
     0
 10
-30.755937
 20
-35.080245
 11
-30.755937
 21
-33.416065
  0
LINE
  8
寸法
  6
BYBLOCK
 62
     0
 10
-95.755937
 20
-33.416065
 11
-30.755937
 21
-33.416065
  0
POINT
  8
寸法
 62
     0
 10
-95.755937
 20
-33.416065
  0
POINT
  8
寸法
 62
     0
 10
-30.755937
 20
-33.416065
  0
TEXT
  7
TextStyle03
  8
寸法
  6
CONTINUOUS
 62
     0
 10
-74.99375
 20
-33.05
  1
呼称寸法　1300
 40
3.0
 72
     5
 11
-51.55625
 21
-33.05
  0
ENDBLK
  0
BLOCK
  2
*DIM_0003
 70
    65
 10
0.0
 20
0.0
  0
LINE
  8
寸法
  6
BYBLOCK
 62
     0
 10
-26.25587
 20
-72.119877
 11
-26.25587
 21
-33.416065
  0
LINE
  8
寸法
  6
BYBLOCK
 62
     0
 10
-30.755937
 20
-33.416065
 11
-26.25587
 21
-33.416065
  0
POINT
  8
寸法
 62
     0
 10
-30.755937
 20
-33.416065
  0
POINT
  8
寸法
 62
     0
 10
-26.25587
 20
-33.416065
  0
TEXT
  7
TextStyle03
  8
寸法
  6
CONTINUOUS
 62
     0
 10
-30.11875
 20
-33.05
  1
90
 40
3.0
 72
     5
 11
-26.93125
 21
-33.05
  0
ENDBLK
  0
BLOCK
  2
*DIM_0004
 70
    65
 10
0.0
 20
0.0
  0
LINE
  8
寸法
  6
BYBLOCK
 62
     0
 10
-100.256005
 20
-72.119877
 11
-100.256005
 21
-33.416065
  0
LINE
  8
寸法
  6
BYBLOCK
 62
     0
 10
-95.755937
 20
-33.416065
 11
-100.256005
 21
-33.416065
  0
POINT
  8
寸法
 62
     0
 10
-95.755937
 20
-33.416065
  0
POINT
  8
寸法
 62
     0
 10
-100.256005
 20
-33.416065
  0
TEXT
  7
TextStyle03
  8
寸法
  6
CONTINUOUS
 62
     0
 10
-99.61875
 20
-33.05
  1
90
 40
3.0
 72
     5
 11
-96.43125
 21
-33.05
  0
ENDBLK
  0
BLOCK
  2
*DIM_0005
 70
    65
 10
0.0
 20
0.0
  0
LINE
  8
寸法
  6
BYBLOCK
 62
     0
 10
-80.755937
 20
82.238818
 11
-80.755937
 21
92.594355
  0
LINE
  8
寸法
  6
BYBLOCK
 62
     0
 10
-45.755937
 20
82.238818
 11
-45.755937
 21
92.594355
  0
LINE
  8
寸法
  6
BYBLOCK
 62
     0
 10
-80.755937
 20
92.594355
 11
-45.755937
 21
92.594355
  0
POINT
  8
寸法
 62
     0
 10
-80.755937
 20
92.594355
  0
POINT
  8
寸法
 62
     0
 10
-45.755937
 20
92.594355
  0
TEXT
  7
TextStyle03
  8
寸法
  6
CONTINUOUS
 62
     0
 10
-65.7125
 20
92.975
  1
700
 40
3.0
 72
     5
 11
-60.8375
 21
92.975
  0
ENDBLK
  0
BLOCK
  2
*DIM_0006
 70
    65
 10
0.0
 20
0.0
  0
LINE
  8
寸法
  6
BYBLOCK
 62
     0
 10
-123.904373
 20
44.370385
 11
-134.25991
 21
44.370385
  0
LINE
  8
寸法
  6
BYBLOCK
 62
     0
 10
-123.904375
 20
9.370385
 11
-134.259912
 21
9.370385
  0
LINE
  8
寸法
  6
BYBLOCK
 62
     0
 10
-134.25991
 20
44.370385
 11
-134.259912
 21
9.370385
  0
POINT
  8
寸法
 62
     0
 10
-134.25991
 20
44.370385
  0
POINT
  8
寸法
 62
     0
 10
-134.259912
 20
9.370385
  0
TEXT
  7
TextStyle03
  8
寸法
  6
CONTINUOUS
 62
     0
 10
-134.65
 20
24.4375
  1
700
 40
3.0
 50
90.0
 72
     5
 11
-134.65
 21
29.3125
  0
ENDBLK
  0
BLOCK
  2
*DIM_0007
 70
    65
 10
0.0
 20
0.0
  0
LINE
  8
寸法
  6
BYBLOCK
 62
     0
 10
170.304785
 20
60.41462
 11
179.967098
 21
60.41462
  0
LINE
  8
寸法
  6
BYBLOCK
 62
     0
 10
170.304785
 20
-3.58538
 11
179.967098
 21
-3.58538
  0
LINE
  8
寸法
  6
BYBLOCK
 62
     0
 10
179.967098
 20
60.41462
 11
179.967098
 21
-3.58538
  0
POINT
  8
寸法
 62
     0
 10
179.967098
 20
60.41462
  0
POINT
  8
寸法
 62
     0
 10
179.967098
 20
-3.58538
  0
TEXT
  7
TextStyle03
  8
寸法
  6
CONTINUOUS
 62
     0
 10
179.575
 20
25.11875
  1
1280
 40
3.0
 50
90.0
 72
     5
 11
179.575
 21
31.68125
  0
ENDBLK
  0
BLOCK
  2
*DIM_0008
 70
    65
 10
0.0
 20
0.0
  0
LINE
  8
寸法
  6
BYBLOCK
 62
     0
 10
103.304785
 20
63.41462
 11
103.304785
 21
71.161973
  0
LINE
  8
寸法
  6
BYBLOCK
 62
     0
 10
167.304785
 20
63.41462
 11
167.304785
 21
71.161973
  0
LINE
  8
寸法
  6
BYBLOCK
 62
     0
 10
103.304785
 20
71.161973
 11
167.304785
 21
71.161973
  0
POINT
  8
寸法
 62
     0
 10
103.304785
 20
71.161973
  0
POINT
  8
寸法
 62
     0
 10
167.304785
 20
71.161973
  0
TEXT
  7
TextStyle03
  8
寸法
  6
CONTINUOUS
 62
     0
 10
131.99375
 20
71.525
  1
1280
 40
3.0
 72
     5
 11
138.55625
 21
71.525
  0
ENDBLK
  0
BLOCK
  2
*DIM_0009
 70
    65
 10
0.0
 20
0.0
  0
LINE
  8
寸法
  6
CONTINUOUS
 10
-10.297125
 20
-69.88924
 11
-10.297125
 21
-74.864243
  0
POINT
  8
寸法
 10
-10.297125
 20
-69.88924
  0
POINT
  8
寸法
 10
-10.297125
 20
-74.864243
  0
TEXT
  7
TextStyle03
  8
寸法
  6
CONTINUOUS
 10
-5.8
 20
-76.5
  1
99.5
 40
4.0
 50
90.0
 72
     5
 11
-5.8
 21
-67.75
  0
ENDBLK
  0
ENDSEC
  0
SECTION
  2
ENTITIES
  0
POLYLINE
  8
通り芯
  6
CONTINUOUS
 66
     1
 70
     1
  0
VERTEX
  8
通り芯
 10
-210.0
 20
-148.5
  0
VERTEX
  8
通り芯
 10
210.0
 20
-148.5
  0
VERTEX
  8
通り芯
 10
210.0
 20
148.5
  0
VERTEX
  8
通り芯
 10
-210.0
 20
148.5
  0
SEQEND
  0
INSERT
  2
*GRP_0001
  8
型材断面
  6
CONTINUOUS
 10
0.0
 20
0.0
  0
LINE
  8
型材断面
  6
DASHDOT
 10
-30.755937
 20
-85.083888
 11
-30.755937
 21
59.370383
  0
LINE
  8
型材断面
  6
DASHDOT
 10
-95.755937
 20
-85.083888
 11
-95.755937
 21
59.370383
  0
LINE
  8
型材断面
  6
CONTINUOUS
 10
-22.732063
 20
26.870383
 11
-18.846303
 21
24.626937
  0
LINE
  8
型材断面
  6
CONTINUOUS
 10
-22.732063
 20
26.870383
 11
-18.846303
 21
29.113827
  0
LINE
  8
型材断面
  6
CONTINUOUS
 10
-18.846303
 20
29.113827
 11
-18.846303
 21
24.626937
  0
LINE
  8
型材断面
  6
CONTINUOUS
 10
-63.255937
 20
67.394257
 11
-65.499382
 21
71.280018
  0
LINE
  8
型材断面
  6
CONTINUOUS
 10
-63.255937
 20
67.394257
 11
-61.012493
 21
71.280018
  0
LINE
  8
型材断面
  6
CONTINUOUS
 10
-61.012493
 20
71.280018
 11
-65.499382
 21
71.280018
  0
LINE
  8
型材断面
  6
CONTINUOUS
 10
-63.255937
 20
-13.653492
 11
-65.499382
 21
-17.539253
  0
LINE
  8
型材断面
  6
CONTINUOUS
 10
-63.255937
 20
-13.653492
 11
-61.012493
 21
-17.539253
  0
LINE
  8
型材断面
  6
CONTINUOUS
 10
-61.012493
 20
-17.539253
 11
-65.499382
 21
-17.539253
  0
LINE
  8
型材断面
  6
CONTINUOUS
 10
-103.779813
 20
26.870383
 11
-107.665572
 21
24.626937
  0
LINE
  8
型材断面
  6
CONTINUOUS
 10
-103.779813
 20
26.870383
 11
-107.665572
 21
29.113827
  0
LINE
  8
型材断面
  6
CONTINUOUS
 10
-107.665572
 20
29.113827
 11
-107.665572
 21
24.626937
  0
LINE
  8
型材断面
  6
CONTINUOUS
 10
4.930422
 20
-11.415415
 11
2.686977
 21
-15.301175
  0
LINE
  8
型材断面
  6
CONTINUOUS
 10
4.930422
 20
-11.415415
 11
7.173868
 21
-15.301175
  0
LINE
  8
型材断面
  6
CONTINUOUS
 10
7.173868
 20
-15.301175
 11
2.686977
 21
-15.301175
  0
LINE
  8
型材断面
  6
CONTINUOUS
 10
-4.103457
 20
-16.709068
 11
48.553223
 21
-16.709068
  0
LINE
  8
型材断面
  6
DASHDOT
 10
-63.255937
 20
-85.083888
 11
-63.255937
 21
59.370383
  0
LINE
  8
型材断面
  6
DASHDOT
 10
-95.755937
 20
26.870383
 11
-30.755937
 21
26.870383
  0
LINE
  8
型材断面
  6
CONTINUOUS
 10
-4.103457
 20
-24.050505
 11
48.553223
 21
-24.050505
  0
LINE
  8
型材断面
  6
CONTINUOUS
 10
-26.25587
 20
26.870383
 11
-26.25587
 21
-10.129685
  0
LINE
  8
型材断面
  6
CONTINUOUS
 10
-63.255937
 20
-10.129685
 11
-26.25587
 21
-10.129685
  0
LINE
  8
型材断面
  6
CONTINUOUS
 10
-26.25587
 20
26.870383
 11
-26.25587
 21
63.87045
  0
LINE
  8
型材断面
  6
CONTINUOUS
 10
-63.255937
 20
63.87045
 11
-26.25587
 21
63.87045
  0
LINE
  8
型材断面
  6
CONTINUOUS
 10
-100.256005
 20
26.870383
 11
-100.256005
 21
63.87045
  0
LINE
  8
型材断面
  6
CONTINUOUS
 10
-63.255937
 20
63.87045
 11
-100.256005
 21
63.87045
  0
LINE
  8
型材断面
  6
CONTINUOUS
 10
-100.256005
 20
26.870383
 11
-100.256005
 21
-10.129685
  0
LINE
  8
型材断面
  6
CONTINUOUS
 10
-63.255937
 20
-10.129685
 11
-100.256005
 21
-10.129685
  0
CIRCLE
  8
型材断面
  6
CONTINUOUS
 62
    47
 10
-26.25595
 20
-74.114245
 40
0.016668
  0
LINE
  8
型材断面
  6
CONTINUOUS
 62
    47
 10
-27.005937
 20
-74.864243
 11
-26.25595
 21
-74.864243
  0
LINE
  8
型材断面
  6
CONTINUOUS
 62
    47
 10
-26.25595
 20
-74.864243
 11
-26.25595
 21
-74.114245
  0
LINE
  8
型材断面
  6
CONTINUOUS
 62
    47
 10
-26.25595
 20
-74.114245
 11
-30.655948
 21
-73.368475
  0
LINE
  8
型材断面
  6
CONTINUOUS
 62
    47
 10
-27.005937
 20
-74.864243
 11
-27.005937
 21
-75.614243
  0
LINE
  8
型材断面
  6
CONTINUOUS
 62
    47
 10
-30.655948
 20
-73.368475
 11
-30.655948
 21
-72.38924
  0
CIRCLE
  8
型材断面
  6
CONTINUOUS
 62
    47
 10
-100.255925
 20
-74.114245
 40
0.016668
  0
LINE
  8
型材断面
  6
CONTINUOUS
 62
    47
 10
-99.505937
 20
-74.864243
 11
-100.255925
 21
-74.864243
  0
LINE
  8
型材断面
  6
CONTINUOUS
 62
    47
 10
-100.255925
 20
-74.864243
 11
-100.255925
 21
-74.114245
  0
LINE
  8
型材断面
  6
CONTINUOUS
 62
    47
 10
-100.255925
 20
-74.114245
 11
-95.855927
 21
-73.368475
  0
LINE
  8
型材断面
  6
CONTINUOUS
 62
    47
 10
-99.505937
 20
-74.864243
 11
-99.505937
 21
-75.614243
  0
LINE
  8
型材断面
  6
CONTINUOUS
 62
    47
 10
-95.855927
 20
-73.368475
 11
-95.855927
 21
-72.38924
  0
LINE
  8
型材断面
  6
CONTINUOUS
 62
    47
 10
-98.22563
 20
-70.13924
 11
-63.255937
 21
-70.13924
  0
LINE
  8
型材断面
  6
CONTINUOUS
 62
    47
 10
-97.990848
 20
-69.88924
 11
-63.255937
 21
-69.88924
  0
LINE
  8
型材断面
  6
CONTINUOUS
 62
    47
 10
-97.990848
 20
-72.38924
 11
-63.255937
 21
-72.38924
  0
LINE
  8
型材断面
  6
CONTINUOUS
 10
-95.856008
 20
-73.368475
 11
-63.255937
 21
-73.368475
  0
LINE
  8
型材断面
  6
CONTINUOUS
 10
-100.256005
 20
-74.114247
 11
-63.255937
 21
-74.114247
  0
LINE
  8
型材断面
  6
CONTINUOUS
 62
    47
 10
-100.256005
 20
-74.864243
 11
-63.255937
 21
-74.864243
  0
LINE
  8
型材断面
  6
CONTINUOUS
 10
-99.50602
 20
-75.614243
 11
-63.255937
 21
-75.614243
  0
LINE
  8
型材断面
  6
CONTINUOUS
 62
    47
 10
-26.25587
 20
-74.864243
 11
-63.255937
 21
-74.864243
  0
LINE
  8
型材断面
  6
CONTINUOUS
 10
-30.655868
 20
-73.368475
 11
-63.255937
 21
-73.368475
  0
LINE
  8
型材断面
  6
CONTINUOUS
 62
    47
 10
-28.286245
 20
-70.13924
 11
-63.255937
 21
-70.13924
  0
LINE
  8
型材断面
  6
CONTINUOUS
 62
    47
 10
-28.521028
 20
-69.88924
 11
-63.255937
 21
-69.88924
  0
LINE
  8
型材断面
  6
CONTINUOUS
 62
    47
 10
-28.521028
 20
-72.38924
 11
-63.255937
 21
-72.38924
  0
LINE
  8
型材断面
  6
CONTINUOUS
 10
-26.25587
 20
-74.114247
 11
-63.255937
 21
-74.114247
  0
LINE
  8
型材断面
  6
CONTINUOUS
 10
-27.005855
 20
-75.614243
 11
-63.255937
 21
-75.614243
  0
LINE
  8
型材断面
  6
DASHDOT
 10
-95.755937
 20
59.370383
 11
-30.755937
 21
59.370383
  0
LINE
  8
型材断面
  6
DASHDOT
 10
-95.755937
 20
-5.629618
 11
-30.755937
 21
-5.629618
  0
LINE
  8
型材断面
  6
CONTINUOUS
 10
-62.630937
 20
-4.34931
 11
-62.630937
 21
-8.09931
  0
LINE
  8
型材断面
  6
CONTINUOUS
 10
-63.880937
 20
-4.34931
 11
-63.880937
 21
-8.09931
  0
LINE
  8
型材断面
  6
CONTINUOUS
 10
-32.036245
 20
26.245383
 11
-28.286245
 21
26.245383
  0
LINE
  8
型材断面
  6
CONTINUOUS
 10
-32.036245
 20
27.495383
 11
-28.286245
 21
27.495383
  0
LINE
  8
型材断面
  6
CONTINUOUS
 10
-63.880937
 20
58.090075
 11
-63.880937
 21
61.840075
  0
LINE
  8
型材断面
  6
CONTINUOUS
 10
-62.630937
 20
58.090075
 11
-62.630937
 21
61.840075
  0
LINE
  8
型材断面
  6
CONTINUOUS
 10
-94.47563
 20
27.495383
 11
-98.22563
 21
27.495383
  0
LINE
  8
型材断面
  6
CONTINUOUS
 10
-94.47563
 20
26.245383
 11
-98.22563
 21
26.245383
  0
LINE
  8
型材断面
  6
CONTINUOUS
 10
-28.639797
 20
-8.09939
 11
-28.286247
 21
-7.74584
  0
LINE
  8
型材断面
  6
CONTINUOUS
 10
-26.25587
 20
-10.129685
 11
-28.462982
 21
-7.922573
  0
LINE
  8
型材断面
  6
CONTINUOUS
 10
-32.389797
 20
-4.34939
 11
-32.036247
 21
-3.99584
  0
LINE
  8
型材断面
  6
CONTINUOUS
 10
-32.389797
 20
-4.34939
 11
-28.639873
 21
-8.099315
  0
LINE
  8
型材断面
  6
CONTINUOUS
 10
-32.036247
 20
-3.99584
 11
-28.286252
 21
-7.745835
  0
LINE
  8
型材断面
  6
CONTINUOUS
 10
-32.036245
 20
26.245383
 11
-32.036245
 21
-3.995838
  0
LINE
  8
型材断面
  6
CONTINUOUS
 10
-62.630937
 20
-4.34931
 11
-32.389718
 21
-4.34931
  0
LINE
  8
型材断面
  6
CONTINUOUS
 10
-28.639797
 20
61.840155
 11
-28.286247
 21
61.486605
  0
LINE
  8
型材断面
  6
CONTINUOUS
 10
-26.25587
 20
63.87045
 11
-28.462982
 21
61.663337
  0
LINE
  8
型材断面
  6
CONTINUOUS
 10
-32.389797
 20
58.090155
 11
-32.036247
 21
57.736605
  0
LINE
  8
型材断面
  6
CONTINUOUS
 10
-32.389797
 20
58.090155
 11
-28.639873
 21
61.84008
  0
LINE
  8
型材断面
  6
CONTINUOUS
 10
-32.036247
 20
57.736605
 11
-28.286252
 21
61.4866
  0
LINE
  8
型材断面
  6
CONTINUOUS
 10
-97.872077
 20
61.840155
 11
-98.225627
 21
61.486605
  0
LINE
  8
型材断面
  6
CONTINUOUS
 10
-100.256005
 20
63.87045
 11
-98.048892
 21
61.663337
  0
LINE
  8
型材断面
  6
CONTINUOUS
 10
-94.122077
 20
58.090155
 11
-94.475627
 21
57.736605
  0
LINE
  8
型材断面
  6
CONTINUOUS
 10
-94.122077
 20
58.090155
 11
-97.872002
 21
61.84008
  0
LINE
  8
型材断面
  6
CONTINUOUS
 10
-94.475627
 20
57.736605
 11
-98.225623
 21
61.4866
  0
LINE
  8
型材断面
  6
CONTINUOUS
 10
-97.872077
 20
-8.09939
 11
-98.225627
 21
-7.74584
  0
LINE
  8
型材断面
  6
CONTINUOUS
 10
-100.256005
 20
-10.129685
 11
-98.048892
 21
-7.922573
  0
LINE
  8
型材断面
  6
CONTINUOUS
 10
-94.122077
 20
-4.34939
 11
-94.475627
 21
-3.99584
  0
LINE
  8
型材断面
  6
CONTINUOUS
 10
-94.122077
 20
-4.34939
 11
-97.872002
 21
-8.099315
  0
LINE
  8
型材断面
  6
CONTINUOUS
 10
-94.475627
 20
-3.99584
 11
-98.225623
 21
-7.745835
  0
LINE
  8
型材断面
  6
CONTINUOUS
 10
-32.036245
 20
27.495383
 11
-32.036245
 21
57.736602
  0
LINE
  8
型材断面
  6
CONTINUOUS
 10
-62.630937
 20
58.090075
 11
-32.389718
 21
58.090075
  0
LINE
  8
型材断面
  6
CONTINUOUS
 10
-28.286245
 20
-7.745842
 11
-28.286245
 21
61.486607
  0
LINE
  8
型材断面
  6
CONTINUOUS
 10
-94.47563
 20
27.495383
 11
-94.47563
 21
57.736602
  0
LINE
  8
型材断面
  6
CONTINUOUS
 10
-63.880937
 20
58.090075
 11
-94.122157
 21
58.090075
  0
LINE
  8
型材断面
  6
CONTINUOUS
 10
-28.639877
 20
61.840075
 11
-97.871997
 21
61.840075
  0
LINE
  8
型材断面
  6
CONTINUOUS
 10
-63.880937
 20
-4.34931
 11
-94.122157
 21
-4.34931
  0
LINE
  8
型材断面
  6
CONTINUOUS
 10
-94.47563
 20
26.245383
 11
-94.47563
 21
-3.995838
  0
LINE
  8
型材断面
  6
CONTINUOUS
 10
-28.639877
 20
-8.09931
 11
-97.871997
 21
-8.09931
  0
LINE
  8
型材断面
  6
CONTINUOUS
 10
-98.22563
 20
61.486607
 11
-98.22563
 21
-7.745842
  0
LINE
  8
ガラス
  6
CONTINUOUS
 10
-60.987105
 20
28.753778
 11
-64.933553
 21
24.807332
  0
LINE
  8
ガラス
  6
CONTINUOUS
 10
-61.971365
 20
25.79159
 11
-63.94929
 21
27.769525
  0
LINE
  8
ガラス
  6
CONTINUOUS
 10
-63.250932
 20
25.837268
 11
-61.726158
 21
27.362042
  0
LINE
  8
ガラス
  6
CONTINUOUS
 10
-62.669725
 20
27.723848
 11
-64.194495
 21
26.199075
  0
LINE
  8
ガラス
  6
CONTINUOUS
 10
103.304785
 20
-3.58538
 11
167.304785
 21
-3.58538
  0
LINE
  8
ガラス
  6
CONTINUOUS
 10
167.304785
 20
60.41462
 11
167.304785
 21
-3.58538
  0
LINE
  8
ガラス
  6
CONTINUOUS
 10
103.304785
 20
-3.58538
 11
103.304785
 21
60.41462
  0
LINE
  8
ガラス
  6
CONTINUOUS
 10
167.304785
 20
60.41462
 11
103.304785
 21
60.41462
  0
TEXT
  7
TextStyle03
  8
文字
  6
CONTINUOUS
 10
9.175
 20
-14.975
  1
は排水穴位置を示す
 40
3.0
 72
     5
 11
39.175
 21
-14.975
  0
TEXT
  7
TextStyle03
  8
文字
  6
CONTINUOUS
 10
-110.25
 20
86.3
  1
アンカーピッチ
 40
3.0
 72
     5
 11
-87.0
 21
86.3
  0
TEXT
  7
TextStyle03
  8
文字
  6
CONTINUOUS
 10
-127.25
 20
-16.5
  1
アンカーピッチ
 40
3.0
 50
90.0
 72
     5
 11
-127.25
 21
6.75
  0
TEXT
  7
TextStyle03
  8
文字
  6
CONTINUOUS
 10
3.575
 20
-22.675
  1
アンカー数量　８ヶ所
 40
3.0
 72
     5
 11
36.95
 21
-22.675
  0
TEXT
  7
TextStyle03
  8
文字
  6
CONTINUOUS
 10
63.8
 20
91.8
  1
ＮＳコード：ＮＳＦＫＺ
 40
5.0
 72
     5
 11
125.05
 21
91.8
  0
TEXT
  7
TextStyle03
  8
文字
  6
CONTINUOUS
 10
146.1
 20
4.675
  1
網入り6.8t
 40
3.0
 72
     5
 11
162.7875
 21
4.675
  0
TEXT
  7
TextStyle03
  8
文字
  6
CONTINUOUS
 10
152.725
 20
-0.575
  1
×１枚
 40
3.0
 72
     5
 11
162.475
 21
-0.575
  0
LINE
  8
文字
  6
CONTINUOUS
 10
-10.297125
 20
-69.88924
 11
-24.32686
 21
-69.88924
  0
LINE
  8
文字
  6
CONTINUOUS
 10
-10.297125
 20
-74.864243
 11
-24.22883
 21
-74.864243
  0
TEXT
  7
TextStyle03
  8
文字
  6
CONTINUOUS
 10
63.525
 20
119.425
  1
シリーズ：ＴＦ２ＦＫ
 40
5.0
 72
     5
 11
119.15
 21
119.425
  0
TEXT
  7
TextStyle03
  8
文字
  6
CONTINUOUS
 10
63.525
 20
113.8
  1
　　　　　（固定）1300×1300タイプ
 40
5.0
 72
     5
 11
158.525
 21
113.8
  0
TEXT
  7
TextStyle03
  8
文字
  6
CONTINUOUS
 10
63.525
 20
108.175
  1

 40
5.0
 41
1.125
  0
TEXT
  7
TextStyle03
  8
文字
  6
CONTINUOUS
 10
63.525
 20
102.55
  1
図面名　：外観姿図
 40
5.0
 72
     5
 11
113.525
 21
102.55
  0
INSERT
  2
*DIM_0002
  8
寸法
  6
CONTINUOUS
 10
0.0
 20
0.0
  0
INSERT
  2
*DIM_0003
  8
寸法
  6
CONTINUOUS
 10
0.0
 20
0.0
  0
INSERT
  2
*DIM_0004
  8
寸法
  6
CONTINUOUS
 10
0.0
 20
0.0
  0
INSERT
  2
*DIM_0005
  8
寸法
  6
CONTINUOUS
 10
0.0
 20
0.0
  0
INSERT
  2
*DIM_0006
  8
寸法
  6
CONTINUOUS
 10
0.0
 20
0.0
  0
INSERT
  2
*DIM_0007
  8
寸法
  6
CONTINUOUS
 10
0.0
 20
0.0
  0
INSERT
  2
*DIM_0008
  8
寸法
  6
CONTINUOUS
 10
0.0
 20
0.0
  0
INSERT
  2
*DIM_0009
  8
寸法
  6
CONTINUOUS
 10
0.0
 20
0.0
  0
LINE
  8
別途部材
  6
CONTINUOUS
 62
    47
 10
-28.286245
 20
-70.03924
 11
-28.286245
 21
-70.13924
  0
ARC
  8
別途部材
  6
CONTINUOUS
 62
    47
 10
-28.436243
 20
-70.039238
 40
0.15
 50
0.0
 51
90.0
  0
LINE
  8
別途部材
  6
CONTINUOUS
 62
    47
 10
-28.436245
 20
-69.88924
 11
-28.521028
 21
-69.88924
  0
LINE
  8
別途部材
  6
CONTINUOUS
 62
    47
 10
-28.521028
 20
-72.38924
 11
-28.521028
 21
-70.13924
  0
LINE
  8
別途部材
  6
CONTINUOUS
 62
    47
 10
-98.22563
 20
-70.03924
 11
-98.22563
 21
-70.13924
  0
ARC
  8
別途部材
  6
CONTINUOUS
 62
    47
 10
-98.075629
 20
-70.039238
 40
0.15
 50
90.0
 51
180.0
  0
LINE
  8
別途部材
  6
CONTINUOUS
 62
    47
 10
-98.07563
 20
-69.88924
 11
-97.990848
 21
-69.88924
  0
LINE
  8
別途部材
  6
CONTINUOUS
 62
    47
 10
-97.990848
 20
-72.38924
 11
-97.990848
 21
-70.13924
  0
CIRCLE
  8
LAYER010
  6
CONTINUOUS
 62
    47
 10
-26.25595
 20
-74.114245
 40
0.016668
  0
CIRCLE
  8
LAYER010
  6
CONTINUOUS
 62
    47
 10
-100.255925
 20
-74.114245
 40
0.016668
  0
ENDSEC
  0
EOF
