  0
SECTION
  2
HEADER
  9
$EXTMIN
 10
-210.0
 20
-148.5
  9
$EXTMAX
 10
210.0
 20
148.5
  9
$PDMODE
 70
    32
  9
$PDSIZE
 40
1.5
  9
$LTSCALE
 40
10.0
  0
ENDSEC
  0
SECTION
  2
TABLES
  0
TABLE
  2
LTYPE
 70
    15
  0
LTYPE
  2
CONTINUOUS
 70
    64
  3
実線
 72
    65
 73
     0
 40
0.0
  0
LTYPE
  2
DASHED
 70
    64
  3
破線A
 72
    65
 73
     2
 40
0.6
 49
0.4
 49
-0.2
  0
LTYPE
  2
DASHEDX2
 70
    64
  3
破線B
 72
    65
 73
     2
 40
1.3
 49
0.9
 49
-0.4
  0
LTYPE
  2
DASHDOT
 70
    64
  3
１点鎖線A
 72
    65
 73
     4
 40
0.5375
 49
0.375
 49
-0.05
 49
0.0625
 49
-0.05
  0
LTYPE
  2
DASHDOTX2
 70
    64
  3
１点鎖線B
 72
    65
 73
     4
 40
1.075
 49
0.75
 49
-0.1
 49
0.125
 49
-0.1
  0
LTYPE
  2
DIVIDE2
 70
    64
  3
２点鎖線A
 72
    65
 73
     6
 40
0.5125
 49
0.3
 49
-0.0375
 49
0.05
 49
-0.0375
 49
0.05
 49
-0.0375
  0
LTYPE
  2
DIVIDE
 70
    64
  3
２点鎖線B
 72
    65
 73
     6
 40
1.05
 49
0.55
 49
-0.1
 49
0.1
 49
-0.1
 49
0.1
 49
-0.1
  0
LTYPE
  2
DOT
 70
    64
  3
点線A
 72
    65
 73
     2
 40
0.1125
 49
0.0625
 49
-0.05
  0
LTYPE
  2
DOTX2
 70
    64
  3
点線B
 72
    65
 73
     2
 40
0.275
 49
0.15
 49
-0.125
  0
LTYPE
  2
CONTINUOUS
 70
    64
  3
実線
 72
    65
 73
     0
 40
0.0
  0
LTYPE
  2
CONTINUOUS
 70
    64
  3
実線
 72
    65
 73
     0
 40
0.0
  0
LTYPE
  2
CONTINUOUS
 70
    64
  3
実線
 72
    65
 73
     0
 40
0.0
  0
LTYPE
  2
CONTINUOUS
 70
    64
  3
実線
 72
    65
 73
     0
 40
0.0
  0
LTYPE
  2
CONTINUOUS
 70
    64
  3
実線
 72
    65
 73
     0
 40
0.0
  0
LTYPE
  2
CONTINUOUS
 70
    64
  3
実線
 72
    65
 73
     0
 40
0.0
  0
ENDTAB
  0
TABLE
  2
LAYER
 70
    34
  0
LAYER
  2
通り芯
 70
     0
 62
    15
  6
CONTINUOUS
  0
LAYER
  2
補助線
 70
     0
 62
    16
  6
DOT
  0
LAYER
  2
躯体
 70
     0
 62
    31
  6
CONTINUOUS
  0
LAYER
  2
型材
 70
     0
 62
    32
  6
CONTINUOUS
  0
LAYER
  2
型材断面
 70
     0
 62
    47
  6
CONTINUOUS
  0
LAYER
  2
ガラス
 70
     0
 62
    48
  6
CONTINUOUS
  0
LAYER
  2
ゴム等
 70
     0
 62
    63
  6
CONTINUOUS
  0
LAYER
  2
ボルト／ビス
 70
     0
 62
    64
  6
CONTINUOUS
  0
LAYER
  2
文字
 70
     0
 62
    79
  6
CONTINUOUS
  0
LAYER
  2
寸法
 70
     0
 62
    80
  6
CONTINUOUS
  0
LAYER
  2
ﾊｯﾁﾝｸﾞ
 70
     0
 62
    95
  6
CONTINUOUS
  0
LAYER
  2
別途部材
 70
     0
 62
    96
  6
CONTINUOUS
  0
LAYER
  2
曲げ物
 70
     0
 62
   111
  6
CONTINUOUS
  0
LAYER
  2
鉄骨等
 70
     0
 62
   112
  6
CONTINUOUS
  0
LAYER
  2
St
 70
     0
 62
   127
  6
CONTINUOUS
  0
LAYER
  2
その他部品等
 70
     0
 62
   128
  6
CONTINUOUS
  0
LAYER
  2
ｶﾞｽｹｯﾄ
 70
     0
 62
   143
  6
CONTINUOUS
  0
LAYER
  2
ｽｹｯﾁ
 70
     0
 62
    14
  6
CONTINUOUS
  0
LAYER
  2
0
 70
     0
 62
    17
  6
CONTINUOUS
  0
LAYER
  2
1
 70
     0
 62
    30
  6
CONTINUOUS
  0
LAYER
  2
4
 70
     0
 62
    33
  6
CONTINUOUS
  0
LAYER
  2
ﾚｲﾔ3
 70
     0
 62
    46
  6
CONTINUOUS
  0
LAYER
  2
外形線
 70
     0
 62
    49
  6
CONTINUOUS
  0
LAYER
  2
部品
 70
     0
 62
    14
  6
CONTINUOUS
  0
LAYER
  2
サッシ芯
 70
     0
 62
    17
  6
DASHDOTX2
  0
LAYER
  2
寸法線
 70
     0
 62
    62
  6
CONTINUOUS
  0
LAYER
  2
姿図外形線
 70
     0
 62
    65
  6
CONTINUOUS
  0
LAYER
  2
姿補助線
 70
     0
 62
    30
  6
CONTINUOUS
  0
LAYER
  2
透視線
 70
     0
 62
    78
  6
DOT
  0
LAYER
  2
用紙
 70
     0
 62
    81
  6
CONTINUOUS
  0
LAYER
  2
実線図枠
 70
     0
 62
    94
  6
CONTINUOUS
  0
LAYER
  2
補助図枠
 70
     0
 62
    97
  6
CONTINUOUS
  0
LAYER
  2
建具記号
 70
     0
 62
   110
  6
CONTINUOUS
  0
LAYER
  2
補助文字
 70
     0
 62
   113
  6
CONTINUOUS
  0
ENDTAB
  0
TABLE
  2
STYLE
 70
    10
  0
STYLE
  2
STANDARD
 70
     0
 40
1.0
 41
1.0
 42
1.0
 50
0.0
 71
     0
  3
TXT
  4
BIGFONT
  0
STYLE
  2
TATE
 70
     4
 40
1.0
 41
1.0
 42
1.0
 50
0.0
 71
     0
  3
TXT
  4
BIGFONT
  0
STYLE
  2
TextStyle03
 70
     0
 40
1.0
 41
1.0
 42
1.0
 50
0.0
 71
     0
  3
MONOTXT
  4
BIGFONT
  0
STYLE
  2
TextStyle04
 70
     0
 40
1.0
 41
1.0
 42
1.0
 50
0.0
 71
     0
  3
MONOTXT
  4
BIGFONT
  0
STYLE
  2
TextStyle05
 70
     0
 40
1.0
 41
1.0
 42
1.0
 50
0.0
 71
     0
  3
MONOTXT
  4
BIGFONT
  0
STYLE
  2
TextStyle06
 70
     0
 40
1.0
 41
1.0
 42
1.0
 50
0.0
 71
     0
  3
MONOTXT
  4
BIGFONT
  0
STYLE
  2
TextStyle07
 70
     0
 40
1.0
 41
1.0
 42
1.0
 50
0.0
 71
     0
  3
MONOTXT
  4
BIGFONT
  0
STYLE
  2
TextStyle08
 70
     0
 40
1.0
 41
1.0
 42
1.0
 50
0.0
 71
     0
  3
MONOTXT
  4
BIGFONT
  0
STYLE
  2
TextStyle09
 70
     0
 40
1.0
 41
1.0
 42
1.0
 50
0.0
 71
     0
  3
MONOTXT
  4
BIGFONT
  0
STYLE
  2
TextStyle10
 70
     0
 40
1.0
 41
1.0
 42
1.0
 50
0.0
 71
     0
  3
MONOTXT
  4
BIGFONT
  0
ENDTAB
  0
ENDSEC
  0
SECTION
  2
BLOCKS
  0
BLOCK
  2
*HAT_0001
 70
    65
 10
0.0
 20
0.0
  0
LINE
  8
型材断面
  6
DOT
 10
-118.3
 20
-44.6
 11
-117.475
 21
-43.775
  0
LINE
  8
型材断面
  6
DOT
 10
-119.725
 20
-44.6
 11
-117.475
 21
-42.4
  0
LINE
  8
型材断面
  6
DOT
 10
-121.15
 20
-44.6
 11
-117.475
 21
-40.975
  0
LINE
  8
型材断面
  6
DOT
 10
-122.5
 20
-44.575
 11
-117.55
 21
-39.625
  0
LINE
  8
型材断面
  6
DOT
 10
-122.5
 20
-43.15
 11
-118.975
 21
-39.625
  0
LINE
  8
型材断面
  6
DOT
 10
-122.5
 20
-41.75
 11
-120.4
 21
-39.625
  0
LINE
  8
型材断面
  6
DOT
 10
-122.5
 20
-40.325
 11
-121.775
 21
-39.625
  0
ENDBLK
  0
BLOCK
  2
*HAT_0002
 70
    65
 10
0.0
 20
0.0
  0
LINE
  8
型材断面
  6
DOT
 10
97.0
 20
-44.6
 11
96.175
 21
-43.775
  0
LINE
  8
型材断面
  6
DOT
 10
98.425
 20
-44.6
 11
96.175
 21
-42.4
  0
LINE
  8
型材断面
  6
DOT
 10
99.85
 20
-44.6
 11
96.175
 21
-40.975
  0
LINE
  8
型材断面
  6
DOT
 10
101.2
 20
-44.575
 11
96.25
 21
-39.625
  0
LINE
  8
型材断面
  6
DOT
 10
101.2
 20
-43.15
 11
97.675
 21
-39.625
  0
LINE
  8
型材断面
  6
DOT
 10
101.2
 20
-41.75
 11
99.1
 21
-39.625
  0
LINE
  8
型材断面
  6
DOT
 10
101.2
 20
-40.325
 11
100.475
 21
-39.625
  0
ENDBLK
  0
BLOCK
  2
*HAT_0003
 70
    65
 10
0.0
 20
0.0
  0
LINE
  8
ﾊｯﾁﾝｸﾞ
 10
-119.9
 20
-54.025
 11
-118.775
 21
-52.9
  0
LINE
  8
ﾊｯﾁﾝｸﾞ
 10
-121.4
 20
-54.25
 11
-118.775
 21
-51.625
  0
LINE
  8
ﾊｯﾁﾝｸﾞ
 10
-122.875
 20
-54.425
 11
-118.775
 21
-50.35
  0
LINE
  8
ﾊｯﾁﾝｸﾞ
 10
-123.275
 20
-53.6
 11
-118.775
 21
-49.1
  0
LINE
  8
ﾊｯﾁﾝｸﾞ
 10
-123.275
 20
-52.325
 11
-118.775
 21
-47.825
  0
LINE
  8
ﾊｯﾁﾝｸﾞ
 10
-123.275
 20
-51.05
 11
-119.225
 21
-47.0
  0
LINE
  8
ﾊｯﾁﾝｸﾞ
 10
-123.275
 20
-49.775
 11
-120.5
 21
-47.0
  0
LINE
  8
ﾊｯﾁﾝｸﾞ
 10
-123.275
 20
-48.5
 11
-121.775
 21
-47.0
  0
LINE
  8
ﾊｯﾁﾝｸﾞ
 10
-123.275
 20
-47.225
 11
-123.05
 21
-47.0
  0
LINE
  8
ﾊｯﾁﾝｸﾞ
 10
-123.275
 20
-53.9
 11
-122.8
 21
-54.425
  0
LINE
  8
ﾊｯﾁﾝｸﾞ
 10
-123.275
 20
-52.625
 11
-121.675
 21
-54.275
  0
LINE
  8
ﾊｯﾁﾝｸﾞ
 10
-123.275
 20
-51.35
 11
-120.55
 21
-54.125
  0
LINE
  8
ﾊｯﾁﾝｸﾞ
 10
-123.275
 20
-50.075
 11
-119.425
 21
-53.95
  0
LINE
  8
ﾊｯﾁﾝｸﾞ
 10
-123.275
 20
-48.8
 11
-118.775
 21
-53.3
  0
LINE
  8
ﾊｯﾁﾝｸﾞ
 10
-123.275
 20
-47.525
 11
-118.775
 21
-52.025
  0
LINE
  8
ﾊｯﾁﾝｸﾞ
 10
-122.575
 20
-47.0
 11
-118.775
 21
-50.75
  0
LINE
  8
ﾊｯﾁﾝｸﾞ
 10
-121.325
 20
-47.0
 11
-118.775
 21
-49.525
  0
LINE
  8
ﾊｯﾁﾝｸﾞ
 10
-120.05
 20
-47.0
 11
-118.825
 21
-48.25
  0
ENDBLK
  0
BLOCK
  2
*HAT_0004
 70
    65
 10
0.0
 20
0.0
  0
LINE
  8
ﾊｯﾁﾝｸﾞ
 10
-116.675
 20
-47.0
 11
-115.775
 21
-46.1
  0
LINE
  8
ﾊｯﾁﾝｸﾞ
 10
-117.95
 20
-47.0
 11
-116.3
 21
-45.325
  0
LINE
  8
ﾊｯﾁﾝｸﾞ
 10
-119.225
 20
-47.0
 11
-117.575
 21
-45.325
  0
LINE
  8
ﾊｯﾁﾝｸﾞ
 10
-120.5
 20
-47.0
 11
-118.85
 21
-45.325
  0
LINE
  8
ﾊｯﾁﾝｸﾞ
 10
-121.775
 20
-47.0
 11
-120.1
 21
-45.325
  0
LINE
  8
ﾊｯﾁﾝｸﾞ
 10
-122.45
 20
-46.4
 11
-121.775
 21
-45.725
  0
LINE
  8
ﾊｯﾁﾝｸﾞ
 10
-121.775
 20
-45.725
 11
-121.375
 21
-45.325
  0
LINE
  8
ﾊｯﾁﾝｸﾞ
 10
-122.675
 20
-45.35
 11
-122.65
 21
-45.325
  0
LINE
  8
ﾊｯﾁﾝｸﾞ
 10
-122.675
 20
-45.625
 11
-121.925
 21
-46.4
  0
LINE
  8
ﾊｯﾁﾝｸﾞ
 10
-121.825
 20
-46.525
 11
-121.325
 21
-47.0
  0
LINE
  8
ﾊｯﾁﾝｸﾞ
 10
-121.7
 20
-45.325
 11
-120.05
 21
-47.0
  0
LINE
  8
ﾊｯﾁﾝｸﾞ
 10
-120.425
 20
-45.325
 11
-118.775
 21
-47.0
  0
LINE
  8
ﾊｯﾁﾝｸﾞ
 10
-119.15
 20
-45.325
 11
-117.5
 21
-47.0
  0
LINE
  8
ﾊｯﾁﾝｸﾞ
 10
-117.875
 20
-45.325
 11
-116.225
 21
-47.0
  0
LINE
  8
ﾊｯﾁﾝｸﾞ
 10
-116.6
 20
-45.325
 11
-115.775
 21
-46.15
  0
ENDBLK
  0
BLOCK
  2
*HAT_0005
 70
    65
 10
0.0
 20
0.0
  0
LINE
  8
ﾊｯﾁﾝｸﾞ
 10
98.6
 20
-54.025
 11
97.475
 21
-52.9
  0
LINE
  8
ﾊｯﾁﾝｸﾞ
 10
100.1
 20
-54.25
 11
97.475
 21
-51.625
  0
LINE
  8
ﾊｯﾁﾝｸﾞ
 10
101.575
 20
-54.425
 11
97.475
 21
-50.35
  0
LINE
  8
ﾊｯﾁﾝｸﾞ
 10
101.975
 20
-53.6
 11
97.475
 21
-49.1
  0
LINE
  8
ﾊｯﾁﾝｸﾞ
 10
101.975
 20
-52.325
 11
97.475
 21
-47.825
  0
LINE
  8
ﾊｯﾁﾝｸﾞ
 10
101.975
 20
-51.05
 11
97.925
 21
-47.0
  0
LINE
  8
ﾊｯﾁﾝｸﾞ
 10
101.975
 20
-49.775
 11
99.2
 21
-47.0
  0
LINE
  8
ﾊｯﾁﾝｸﾞ
 10
101.975
 20
-48.5
 11
100.475
 21
-47.0
  0
LINE
  8
ﾊｯﾁﾝｸﾞ
 10
101.975
 20
-47.225
 11
101.75
 21
-47.0
  0
LINE
  8
ﾊｯﾁﾝｸﾞ
 10
101.975
 20
-53.9
 11
101.5
 21
-54.425
  0
LINE
  8
ﾊｯﾁﾝｸﾞ
 10
101.975
 20
-52.625
 11
100.375
 21
-54.275
  0
LINE
  8
ﾊｯﾁﾝｸﾞ
 10
101.975
 20
-51.35
 11
99.25
 21
-54.125
  0
LINE
  8
ﾊｯﾁﾝｸﾞ
 10
101.975
 20
-50.075
 11
98.125
 21
-53.95
  0
LINE
  8
ﾊｯﾁﾝｸﾞ
 10
101.975
 20
-48.8
 11
97.475
 21
-53.3
  0
LINE
  8
ﾊｯﾁﾝｸﾞ
 10
101.975
 20
-47.525
 11
97.475
 21
-52.025
  0
LINE
  8
ﾊｯﾁﾝｸﾞ
 10
101.275
 20
-47.0
 11
97.475
 21
-50.75
  0
LINE
  8
ﾊｯﾁﾝｸﾞ
 10
100.025
 20
-47.0
 11
97.475
 21
-49.525
  0
LINE
  8
ﾊｯﾁﾝｸﾞ
 10
98.75
 20
-47.0
 11
97.525
 21
-48.25
  0
ENDBLK
  0
BLOCK
  2
*HAT_0006
 70
    65
 10
0.0
 20
0.0
  0
LINE
  8
ﾊｯﾁﾝｸﾞ
 10
95.375
 20
-47.0
 11
94.475
 21
-46.1
  0
LINE
  8
ﾊｯﾁﾝｸﾞ
 10
96.65
 20
-47.0
 11
95.0
 21
-45.325
  0
LINE
  8
ﾊｯﾁﾝｸﾞ
 10
97.925
 20
-47.0
 11
96.275
 21
-45.325
  0
LINE
  8
ﾊｯﾁﾝｸﾞ
 10
99.2
 20
-47.0
 11
97.55
 21
-45.325
  0
LINE
  8
ﾊｯﾁﾝｸﾞ
 10
100.475
 20
-47.0
 11
98.8
 21
-45.325
  0
LINE
  8
ﾊｯﾁﾝｸﾞ
 10
101.15
 20
-46.4
 11
100.475
 21
-45.725
  0
LINE
  8
ﾊｯﾁﾝｸﾞ
 10
100.475
 20
-45.725
 11
100.075
 21
-45.325
  0
LINE
  8
ﾊｯﾁﾝｸﾞ
 10
101.375
 20
-45.35
 11
101.35
 21
-45.325
  0
LINE
  8
ﾊｯﾁﾝｸﾞ
 10
101.375
 20
-45.625
 11
100.625
 21
-46.4
  0
LINE
  8
ﾊｯﾁﾝｸﾞ
 10
100.525
 20
-46.525
 11
100.025
 21
-47.0
  0
LINE
  8
ﾊｯﾁﾝｸﾞ
 10
100.4
 20
-45.325
 11
98.75
 21
-47.0
  0
LINE
  8
ﾊｯﾁﾝｸﾞ
 10
99.125
 20
-45.325
 11
97.475
 21
-47.0
  0
LINE
  8
ﾊｯﾁﾝｸﾞ
 10
97.85
 20
-45.325
 11
96.2
 21
-47.0
  0
LINE
  8
ﾊｯﾁﾝｸﾞ
 10
96.575
 20
-45.325
 11
94.925
 21
-47.0
  0
LINE
  8
ﾊｯﾁﾝｸﾞ
 10
95.3
 20
-45.325
 11
94.475
 21
-46.15
  0
ENDBLK
  0
BLOCK
  2
*HAT_0007
 70
    65
 10
0.0
 20
0.0
  0
LINE
  8
ﾊｯﾁﾝｸﾞ
 10
-168.55
 20
-92.325
 11
-167.275
 21
-91.025
  0
LINE
  8
ﾊｯﾁﾝｸﾞ
 10
-169.975
 20
-92.325
 11
-167.275
 21
-89.6
  0
LINE
  8
ﾊｯﾁﾝｸﾞ
 10
-171.375
 20
-92.325
 11
-167.375
 21
-88.325
  0
LINE
  8
ﾊｯﾁﾝｸﾞ
 10
-172.8
 20
-92.325
 11
-168.8
 21
-88.325
  0
LINE
  8
ﾊｯﾁﾝｸﾞ
 10
-174.2
 20
-92.325
 11
-170.2
 21
-88.325
  0
LINE
  8
ﾊｯﾁﾝｸﾞ
 10
-175.625
 20
-92.325
 11
-171.625
 21
-88.325
  0
LINE
  8
ﾊｯﾁﾝｸﾞ
 10
-177.025
 20
-92.325
 11
-173.025
 21
-88.325
  0
LINE
  8
ﾊｯﾁﾝｸﾞ
 10
-178.45
 20
-92.325
 11
-174.45
 21
-88.325
  0
LINE
  8
ﾊｯﾁﾝｸﾞ
 10
-179.85
 20
-92.325
 11
-175.85
 21
-88.325
  0
LINE
  8
ﾊｯﾁﾝｸﾞ
 10
-179.875
 20
-90.925
 11
-177.275
 21
-88.325
  0
LINE
  8
ﾊｯﾁﾝｸﾞ
 10
-179.875
 20
-89.525
 11
-178.675
 21
-88.325
  0
LINE
  8
ﾊｯﾁﾝｸﾞ
 10
-179.875
 20
-91.225
 11
-178.8
 21
-92.325
  0
LINE
  8
ﾊｯﾁﾝｸﾞ
 10
-179.875
 20
-89.825
 11
-177.4
 21
-92.325
  0
LINE
  8
ﾊｯﾁﾝｸﾞ
 10
-179.875
 20
-88.4
 11
-175.975
 21
-92.325
  0
LINE
  8
ﾊｯﾁﾝｸﾞ
 10
-178.575
 20
-88.325
 11
-174.575
 21
-92.325
  0
LINE
  8
ﾊｯﾁﾝｸﾞ
 10
-177.15
 20
-88.325
 11
-173.15
 21
-92.325
  0
LINE
  8
ﾊｯﾁﾝｸﾞ
 10
-175.75
 20
-88.325
 11
-171.75
 21
-92.325
  0
LINE
  8
ﾊｯﾁﾝｸﾞ
 10
-174.325
 20
-88.325
 11
-170.325
 21
-92.325
  0
LINE
  8
ﾊｯﾁﾝｸﾞ
 10
-172.925
 20
-88.325
 11
-168.925
 21
-92.325
  0
LINE
  8
ﾊｯﾁﾝｸﾞ
 10
-171.5
 20
-88.325
 11
-167.525
 21
-92.325
  0
LINE
  8
ﾊｯﾁﾝｸﾞ
 10
-170.1
 20
-88.325
 11
-167.275
 21
-91.15
  0
LINE
  8
ﾊｯﾁﾝｸﾞ
 10
-168.7
 20
-88.325
 11
-167.275
 21
-89.725
  0
ENDBLK
  0
BLOCK
  2
*HAT_0008
 70
    65
 10
0.0
 20
0.0
  0
LINE
  8
ﾊｯﾁﾝｸﾞ
 10
147.25
 20
-92.325
 11
145.975
 21
-91.025
  0
LINE
  8
ﾊｯﾁﾝｸﾞ
 10
148.675
 20
-92.325
 11
145.975
 21
-89.6
  0
LINE
  8
ﾊｯﾁﾝｸﾞ
 10
150.075
 20
-92.325
 11
146.075
 21
-88.325
  0
LINE
  8
ﾊｯﾁﾝｸﾞ
 10
151.5
 20
-92.325
 11
147.5
 21
-88.325
  0
LINE
  8
ﾊｯﾁﾝｸﾞ
 10
152.9
 20
-92.325
 11
148.9
 21
-88.325
  0
LINE
  8
ﾊｯﾁﾝｸﾞ
 10
154.325
 20
-92.325
 11
150.325
 21
-88.325
  0
LINE
  8
ﾊｯﾁﾝｸﾞ
 10
155.725
 20
-92.325
 11
151.725
 21
-88.325
  0
LINE
  8
ﾊｯﾁﾝｸﾞ
 10
157.15
 20
-92.325
 11
153.15
 21
-88.325
  0
LINE
  8
ﾊｯﾁﾝｸﾞ
 10
158.55
 20
-92.325
 11
154.55
 21
-88.325
  0
LINE
  8
ﾊｯﾁﾝｸﾞ
 10
158.575
 20
-90.925
 11
155.975
 21
-88.325
  0
LINE
  8
ﾊｯﾁﾝｸﾞ
 10
158.575
 20
-89.525
 11
157.375
 21
-88.325
  0
LINE
  8
ﾊｯﾁﾝｸﾞ
 10
158.575
 20
-91.225
 11
157.5
 21
-92.325
  0
LINE
  8
ﾊｯﾁﾝｸﾞ
 10
158.575
 20
-89.825
 11
156.1
 21
-92.325
  0
LINE
  8
ﾊｯﾁﾝｸﾞ
 10
158.575
 20
-88.4
 11
154.675
 21
-92.325
  0
LINE
  8
ﾊｯﾁﾝｸﾞ
 10
157.275
 20
-88.325
 11
153.275
 21
-92.325
  0
LINE
  8
ﾊｯﾁﾝｸﾞ
 10
155.85
 20
-88.325
 11
151.85
 21
-92.325
  0
LINE
  8
ﾊｯﾁﾝｸﾞ
 10
154.45
 20
-88.325
 11
150.45
 21
-92.325
  0
LINE
  8
ﾊｯﾁﾝｸﾞ
 10
153.025
 20
-88.325
 11
149.025
 21
-92.325
  0
LINE
  8
ﾊｯﾁﾝｸﾞ
 10
151.625
 20
-88.325
 11
147.625
 21
-92.325
  0
LINE
  8
ﾊｯﾁﾝｸﾞ
 10
150.2
 20
-88.325
 11
146.225
 21
-92.325
  0
LINE
  8
ﾊｯﾁﾝｸﾞ
 10
148.8
 20
-88.325
 11
145.975
 21
-91.15
  0
LINE
  8
ﾊｯﾁﾝｸﾞ
 10
147.4
 20
-88.325
 11
145.975
 21
-89.725
  0
ENDBLK
  0
BLOCK
  2
*HAT_0009
 70
    65
 10
0.0
 20
0.0
  0
LINE
  8
ﾊｯﾁﾝｸﾞ
 10
-77.5
 20
-124.125
 11
-77.275
 21
-123.925
  0
LINE
  8
ﾊｯﾁﾝｸﾞ
 10
-81.725
 20
-124.125
 11
-77.275
 21
-119.675
  0
LINE
  8
ﾊｯﾁﾝｸﾞ
 10
-85.975
 20
-124.125
 11
-77.275
 21
-115.425
  0
LINE
  8
ﾊｯﾁﾝｸﾞ
 10
-87.275
 20
-121.2
 11
-77.275
 21
-111.2
  0
LINE
  8
ﾊｯﾁﾝｸﾞ
 10
-87.275
 20
-116.95
 11
-77.275
 21
-106.95
  0
LINE
  8
ﾊｯﾁﾝｸﾞ
 10
-87.275
 20
-112.725
 11
-77.275
 21
-102.725
  0
LINE
  8
ﾊｯﾁﾝｸﾞ
 10
-87.275
 20
-108.475
 11
-77.275
 21
-98.475
  0
LINE
  8
ﾊｯﾁﾝｸﾞ
 10
-87.275
 20
-104.25
 11
-77.275
 21
-94.25
  0
LINE
  8
ﾊｯﾁﾝｸﾞ
 10
-87.275
 20
-100.0
 11
-77.275
 21
-90.0
  0
LINE
  8
ﾊｯﾁﾝｸﾞ
 10
-87.275
 20
-95.75
 11
-77.275
 21
-85.75
  0
LINE
  8
ﾊｯﾁﾝｸﾞ
 10
-87.275
 20
-91.525
 11
-77.275
 21
-81.525
  0
LINE
  8
ﾊｯﾁﾝｸﾞ
 10
-87.275
 20
-87.275
 11
-77.275
 21
-77.275
  0
LINE
  8
ﾊｯﾁﾝｸﾞ
 10
-87.275
 20
-83.05
 11
-77.275
 21
-73.05
  0
LINE
  8
ﾊｯﾁﾝｸﾞ
 10
-87.275
 20
-78.8
 11
-77.275
 21
-68.8
  0
LINE
  8
ﾊｯﾁﾝｸﾞ
 10
-87.275
 20
-74.55
 11
-77.275
 21
-64.575
  0
LINE
  8
ﾊｯﾁﾝｸﾞ
 10
-87.275
 20
-70.325
 11
-77.275
 21
-60.325
  0
LINE
  8
ﾊｯﾁﾝｸﾞ
 10
-87.275
 20
-66.075
 11
-77.275
 21
-56.075
  0
LINE
  8
ﾊｯﾁﾝｸﾞ
 10
-87.275
 20
-61.85
 11
-77.275
 21
-51.85
  0
LINE
  8
ﾊｯﾁﾝｸﾞ
 10
-87.275
 20
-57.6
 11
-77.275
 21
-47.6
  0
LINE
  8
ﾊｯﾁﾝｸﾞ
 10
-87.275
 20
-53.375
 11
-85.1
 21
-51.175
  0
LINE
  8
ﾊｯﾁﾝｸﾞ
 10
-81.275
 20
-47.375
 11
-79.25
 21
-45.325
  0
LINE
  8
ﾊｯﾁﾝｸﾞ
 10
-87.275
 20
-120.475
 11
-83.65
 21
-124.125
  0
LINE
  8
ﾊｯﾁﾝｸﾞ
 10
-87.275
 20
-116.225
 11
-79.4
 21
-124.125
  0
LINE
  8
ﾊｯﾁﾝｸﾞ
 10
-87.275
 20
-112.0
 11
-77.275
 21
-122.0
  0
LINE
  8
ﾊｯﾁﾝｸﾞ
 10
-87.275
 20
-107.75
 11
-77.275
 21
-117.75
  0
LINE
  8
ﾊｯﾁﾝｸﾞ
 10
-87.275
 20
-103.525
 11
-77.275
 21
-113.525
  0
LINE
  8
ﾊｯﾁﾝｸﾞ
 10
-87.275
 20
-99.275
 11
-77.275
 21
-109.275
  0
LINE
  8
ﾊｯﾁﾝｸﾞ
 10
-87.275
 20
-95.05
 11
-77.275
 21
-105.05
  0
LINE
  8
ﾊｯﾁﾝｸﾞ
 10
-87.275
 20
-90.8
 11
-77.275
 21
-100.8
  0
LINE
  8
ﾊｯﾁﾝｸﾞ
 10
-87.275
 20
-86.55
 11
-77.275
 21
-96.55
  0
LINE
  8
ﾊｯﾁﾝｸﾞ
 10
-87.275
 20
-82.325
 11
-77.275
 21
-92.325
  0
LINE
  8
ﾊｯﾁﾝｸﾞ
 10
-87.3
 20
-78.075
 11
-77.275
 21
-88.075
  0
LINE
  8
ﾊｯﾁﾝｸﾞ
 10
-87.3
 20
-73.85
 11
-77.275
 21
-83.85
  0
LINE
  8
ﾊｯﾁﾝｸﾞ
 10
-87.3
 20
-69.6
 11
-77.275
 21
-79.6
  0
LINE
  8
ﾊｯﾁﾝｸﾞ
 10
-87.3
 20
-65.35
 11
-77.275
 21
-75.375
  0
LINE
  8
ﾊｯﾁﾝｸﾞ
 10
-87.3
 20
-61.125
 11
-77.275
 21
-71.125
  0
LINE
  8
ﾊｯﾁﾝｸﾞ
 10
-87.3
 20
-56.875
 11
-77.275
 21
-66.875
  0
LINE
  8
ﾊｯﾁﾝｸﾞ
 10
-87.3
 20
-52.65
 11
-77.275
 21
-62.65
  0
LINE
  8
ﾊｯﾁﾝｸﾞ
 10
-84.525
 20
-51.175
 11
-77.275
 21
-58.4
  0
LINE
  8
ﾊｯﾁﾝｸﾞ
 10
-81.275
 20
-50.175
 11
-77.275
 21
-54.175
  0
LINE
  8
ﾊｯﾁﾝｸﾞ
 10
-81.275
 20
-45.925
 11
-77.275
 21
-49.925
  0
LINE
  8
ﾊｯﾁﾝｸﾞ
 10
-77.65
 20
-45.325
 11
-77.275
 21
-45.7
  0
ENDBLK
  0
BLOCK
  2
*HAT_0010
 70
    65
 10
0.0
 20
0.0
  0
LINE
  8
ﾊｯﾁﾝｸﾞ
 10
62.4
 20
-124.125
 11
65.975
 21
-120.575
  0
LINE
  8
ﾊｯﾁﾝｸﾞ
 10
58.175
 20
-124.125
 11
65.975
 21
-116.325
  0
LINE
  8
ﾊｯﾁﾝｸﾞ
 10
55.975
 20
-122.1
 11
65.975
 21
-112.1
  0
LINE
  8
ﾊｯﾁﾝｸﾞ
 10
55.975
 20
-117.85
 11
65.975
 21
-107.85
  0
LINE
  8
ﾊｯﾁﾝｸﾞ
 10
55.975
 20
-113.625
 11
65.975
 21
-103.625
  0
LINE
  8
ﾊｯﾁﾝｸﾞ
 10
55.975
 20
-109.375
 11
65.975
 21
-99.375
  0
LINE
  8
ﾊｯﾁﾝｸﾞ
 10
55.975
 20
-105.125
 11
65.975
 21
-95.125
  0
LINE
  8
ﾊｯﾁﾝｸﾞ
 10
55.975
 20
-100.9
 11
65.975
 21
-90.9
  0
LINE
  8
ﾊｯﾁﾝｸﾞ
 10
55.975
 20
-96.65
 11
65.975
 21
-86.65
  0
LINE
  8
ﾊｯﾁﾝｸﾞ
 10
55.975
 20
-92.425
 11
65.975
 21
-82.425
  0
LINE
  8
ﾊｯﾁﾝｸﾞ
 10
55.975
 20
-88.175
 11
65.975
 21
-78.175
  0
LINE
  8
ﾊｯﾁﾝｸﾞ
 10
55.975
 20
-83.925
 11
65.975
 21
-73.95
  0
LINE
  8
ﾊｯﾁﾝｸﾞ
 10
55.975
 20
-79.7
 11
65.975
 21
-69.7
  0
LINE
  8
ﾊｯﾁﾝｸﾞ
 10
55.975
 20
-75.45
 11
65.975
 21
-65.45
  0
LINE
  8
ﾊｯﾁﾝｸﾞ
 10
55.975
 20
-71.225
 11
65.975
 21
-61.225
  0
LINE
  8
ﾊｯﾁﾝｸﾞ
 10
55.975
 20
-66.975
 11
65.975
 21
-56.975
  0
LINE
  8
ﾊｯﾁﾝｸﾞ
 10
55.975
 20
-62.75
 11
65.975
 21
-52.75
  0
LINE
  8
ﾊｯﾁﾝｸﾞ
 10
55.975
 20
-58.5
 11
63.275
 21
-51.175
  0
LINE
  8
ﾊｯﾁﾝｸﾞ
 10
55.975
 20
-54.25
 11
59.975
 21
-50.25
  0
LINE
  8
ﾊｯﾁﾝｸﾞ
 10
55.975
 20
-50.025
 11
59.975
 21
-46.025
  0
LINE
  8
ﾊｯﾁﾝｸﾞ
 10
55.975
 20
-45.775
 11
56.425
 21
-45.325
  0
LINE
  8
ﾊｯﾁﾝｸﾞ
 10
55.95
 20
-123.825
 11
56.275
 21
-124.125
  0
LINE
  8
ﾊｯﾁﾝｸﾞ
 10
55.95
 20
-119.575
 11
60.5
 21
-124.125
  0
LINE
  8
ﾊｯﾁﾝｸﾞ
 10
55.95
 20
-115.35
 11
64.75
 21
-124.125
  0
LINE
  8
ﾊｯﾁﾝｸﾞ
 10
55.95
 20
-111.1
 11
65.95
 21
-121.1
  0
LINE
  8
ﾊｯﾁﾝｸﾞ
 10
55.95
 20
-106.85
 11
65.95
 21
-116.85
  0
LINE
  8
ﾊｯﾁﾝｸﾞ
 10
55.95
 20
-102.625
 11
65.95
 21
-112.625
  0
LINE
  8
ﾊｯﾁﾝｸﾞ
 10
55.95
 20
-98.375
 11
65.95
 21
-108.375
  0
LINE
  8
ﾊｯﾁﾝｸﾞ
 10
55.95
 20
-94.15
 11
65.95
 21
-104.15
  0
LINE
  8
ﾊｯﾁﾝｸﾞ
 10
55.95
 20
-89.9
 11
65.95
 21
-99.9
  0
LINE
  8
ﾊｯﾁﾝｸﾞ
 10
55.95
 20
-85.65
 11
65.95
 21
-95.675
  0
LINE
  8
ﾊｯﾁﾝｸﾞ
 10
55.95
 20
-81.425
 11
65.95
 21
-91.425
  0
LINE
  8
ﾊｯﾁﾝｸﾞ
 10
55.95
 20
-77.175
 11
65.95
 21
-87.175
  0
LINE
  8
ﾊｯﾁﾝｸﾞ
 10
55.95
 20
-72.95
 11
65.95
 21
-82.95
  0
LINE
  8
ﾊｯﾁﾝｸﾞ
 10
55.95
 20
-68.7
 11
65.95
 21
-78.7
  0
LINE
  8
ﾊｯﾁﾝｸﾞ
 10
55.95
 20
-64.475
 11
65.95
 21
-74.475
  0
LINE
  8
ﾊｯﾁﾝｸﾞ
 10
55.95
 20
-60.225
 11
65.95
 21
-70.225
  0
LINE
  8
ﾊｯﾁﾝｸﾞ
 10
55.95
 20
-55.975
 11
65.95
 21
-66.0
  0
LINE
  8
ﾊｯﾁﾝｸﾞ
 10
55.95
 20
-51.75
 11
65.95
 21
-61.75
  0
LINE
  8
ﾊｯﾁﾝｸﾞ
 10
55.95
 20
-47.5
 11
65.95
 21
-57.5
  0
LINE
  8
ﾊｯﾁﾝｸﾞ
 10
58.025
 20
-45.325
 11
59.95
 21
-47.275
  0
LINE
  8
ﾊｯﾁﾝｸﾞ
 10
63.875
 20
-51.175
 11
65.95
 21
-53.275
  0
ENDBLK
  0
BLOCK
  2
*HAT_0011
 70
    65
 10
0.0
 20
0.0
  0
LINE
  8
ﾊｯﾁﾝｸﾞ
 10
-114.275
 20
-17.975
 11
-113.85
 21
-17.975
  0
LINE
  8
ﾊｯﾁﾝｸﾞ
 10
-114.775
 20
-17.475
 11
-113.35
 21
-17.475
  0
LINE
  8
ﾊｯﾁﾝｸﾞ
 10
-115.275
 20
-16.975
 11
-112.85
 21
-16.975
  0
LINE
  8
ﾊｯﾁﾝｸﾞ
 10
-115.775
 20
-16.475
 11
-112.35
 21
-16.475
  0
LINE
  8
ﾊｯﾁﾝｸﾞ
 10
-116.275
 20
-15.975
 11
-111.85
 21
-15.975
  0
LINE
  8
ﾊｯﾁﾝｸﾞ
 10
-116.775
 20
-15.5
 11
-111.35
 21
-15.5
  0
LINE
  8
ﾊｯﾁﾝｸﾞ
 10
-116.875
 20
-15.0
 11
-116.775
 21
-15.0
  0
LINE
  8
ﾊｯﾁﾝｸﾞ
 10
-116.025
 20
-15.0
 11
-110.85
 21
-15.0
  0
LINE
  8
ﾊｯﾁﾝｸﾞ
 10
-115.525
 20
-14.5
 11
-110.35
 21
-14.5
  0
LINE
  8
ﾊｯﾁﾝｸﾞ
 10
-115.025
 20
-14.0
 11
-109.85
 21
-14.0
  0
LINE
  8
ﾊｯﾁﾝｸﾞ
 10
-114.725
 20
-13.5
 11
-109.35
 21
-13.5
  0
LINE
  8
ﾊｯﾁﾝｸﾞ
 10
-115.225
 20
-13.0
 11
-108.85
 21
-13.0
  0
LINE
  8
ﾊｯﾁﾝｸﾞ
 10
-115.725
 20
-12.5
 11
-108.35
 21
-12.5
  0
LINE
  8
ﾊｯﾁﾝｸﾞ
 10
-108.35
 20
-12.475
 11
-108.35
 21
-12.275
  0
LINE
  8
ﾊｯﾁﾝｸﾞ
 10
-108.85
 20
-12.975
 11
-108.85
 21
-12.275
  0
LINE
  8
ﾊｯﾁﾝｸﾞ
 10
-109.325
 20
-13.475
 11
-109.325
 21
-12.3
  0
LINE
  8
ﾊｯﾁﾝｸﾞ
 10
-109.825
 20
-13.975
 11
-109.825
 21
-12.3
  0
LINE
  8
ﾊｯﾁﾝｸﾞ
 10
-110.325
 20
-14.475
 11
-110.325
 21
-12.325
  0
LINE
  8
ﾊｯﾁﾝｸﾞ
 10
-110.825
 20
-14.975
 11
-110.825
 21
-12.325
  0
LINE
  8
ﾊｯﾁﾝｸﾞ
 10
-111.325
 20
-15.475
 11
-111.325
 21
-12.35
  0
LINE
  8
ﾊｯﾁﾝｸﾞ
 10
-111.825
 20
-15.975
 11
-111.825
 21
-12.35
  0
LINE
  8
ﾊｯﾁﾝｸﾞ
 10
-112.325
 20
-16.475
 11
-112.325
 21
-12.375
  0
LINE
  8
ﾊｯﾁﾝｸﾞ
 10
-112.825
 20
-16.975
 11
-112.825
 21
-12.375
  0
LINE
  8
ﾊｯﾁﾝｸﾞ
 10
-113.325
 20
-17.475
 11
-113.325
 21
-12.4
  0
LINE
  8
ﾊｯﾁﾝｸﾞ
 10
-113.825
 20
-17.975
 11
-113.825
 21
-12.4
  0
LINE
  8
ﾊｯﾁﾝｸﾞ
 10
-114.325
 20
-17.925
 11
-114.325
 21
-12.425
  0
LINE
  8
ﾊｯﾁﾝｸﾞ
 10
-114.825
 20
-17.425
 11
-114.825
 21
-13.8
  0
LINE
  8
ﾊｯﾁﾝｸﾞ
 10
-115.325
 20
-16.925
 11
-115.325
 21
-14.3
  0
LINE
  8
ﾊｯﾁﾝｸﾞ
 10
-114.825
 20
-13.375
 11
-114.825
 21
-12.425
  0
LINE
  8
ﾊｯﾁﾝｸﾞ
 10
-115.325
 20
-12.875
 11
-115.325
 21
-12.45
  0
LINE
  8
ﾊｯﾁﾝｸﾞ
 10
-115.825
 20
-16.425
 11
-115.825
 21
-14.8
  0
LINE
  8
ﾊｯﾁﾝｸﾞ
 10
-116.325
 20
-15.925
 11
-116.325
 21
-15.3
  0
LINE
  8
ﾊｯﾁﾝｸﾞ
 10
-116.825
 20
-15.425
 11
-116.825
 21
-14.95
  0
ENDBLK
  0
BLOCK
  2
*HAT_0012
 70
    65
 10
0.0
 20
0.0
  0
LINE
  8
ﾊｯﾁﾝｸﾞ
 10
92.525
 20
-17.975
 11
92.95
 21
-17.975
  0
LINE
  8
ﾊｯﾁﾝｸﾞ
 10
92.025
 20
-17.475
 11
93.45
 21
-17.475
  0
LINE
  8
ﾊｯﾁﾝｸﾞ
 10
91.525
 20
-16.975
 11
93.95
 21
-16.975
  0
LINE
  8
ﾊｯﾁﾝｸﾞ
 10
91.025
 20
-16.475
 11
94.45
 21
-16.475
  0
LINE
  8
ﾊｯﾁﾝｸﾞ
 10
90.525
 20
-15.975
 11
94.95
 21
-15.975
  0
LINE
  8
ﾊｯﾁﾝｸﾞ
 10
90.025
 20
-15.5
 11
95.45
 21
-15.5
  0
LINE
  8
ﾊｯﾁﾝｸﾞ
 10
89.525
 20
-15.0
 11
94.7
 21
-15.0
  0
LINE
  8
ﾊｯﾁﾝｸﾞ
 10
95.45
 20
-15.0
 11
95.55
 21
-15.0
  0
LINE
  8
ﾊｯﾁﾝｸﾞ
 10
89.025
 20
-14.5
 11
94.2
 21
-14.5
  0
LINE
  8
ﾊｯﾁﾝｸﾞ
 10
88.55
 20
-14.0
 11
93.7
 21
-14.0
  0
LINE
  8
ﾊｯﾁﾝｸﾞ
 10
88.05
 20
-13.5
 11
93.4
 21
-13.5
  0
LINE
  8
ﾊｯﾁﾝｸﾞ
 10
87.55
 20
-13.0
 11
93.9
 21
-13.0
  0
LINE
  8
ﾊｯﾁﾝｸﾞ
 10
87.05
 20
-12.5
 11
94.4
 21
-12.5
  0
LINE
  8
ﾊｯﾁﾝｸﾞ
 10
95.325
 20
-15.6
 11
95.325
 21
-15.1
  0
LINE
  8
ﾊｯﾁﾝｸﾞ
 10
94.825
 20
-16.1
 11
94.825
 21
-15.125
  0
LINE
  8
ﾊｯﾁﾝｸﾞ
 10
94.325
 20
-16.6
 11
94.325
 21
-14.625
  0
LINE
  8
ﾊｯﾁﾝｸﾞ
 10
93.825
 20
-17.1
 11
93.825
 21
-14.125
  0
LINE
  8
ﾊｯﾁﾝｸﾞ
 10
93.35
 20
-17.6
 11
93.35
 21
-13.625
  0
LINE
  8
ﾊｯﾁﾝｸﾞ
 10
94.325
 20
-12.575
 11
94.325
 21
-12.45
  0
LINE
  8
ﾊｯﾁﾝｸﾞ
 10
93.825
 20
-13.075
 11
93.825
 21
-12.45
  0
LINE
  8
ﾊｯﾁﾝｸﾞ
 10
93.35
 20
-13.575
 11
93.35
 21
-12.425
  0
LINE
  8
ﾊｯﾁﾝｸﾞ
 10
92.85
 20
-18.1
 11
92.85
 21
-12.425
  0
LINE
  8
ﾊｯﾁﾝｸﾞ
 10
92.35
 20
-17.775
 11
92.35
 21
-12.4
  0
LINE
  8
ﾊｯﾁﾝｸﾞ
 10
91.85
 20
-17.275
 11
91.85
 21
-12.4
  0
LINE
  8
ﾊｯﾁﾝｸﾞ
 10
91.35
 20
-16.775
 11
91.35
 21
-12.375
  0
LINE
  8
ﾊｯﾁﾝｸﾞ
 10
90.85
 20
-16.275
 11
90.85
 21
-12.375
  0
LINE
  8
ﾊｯﾁﾝｸﾞ
 10
90.35
 20
-15.775
 11
90.35
 21
-12.35
  0
LINE
  8
ﾊｯﾁﾝｸﾞ
 10
89.85
 20
-15.3
 11
89.85
 21
-12.35
  0
LINE
  8
ﾊｯﾁﾝｸﾞ
 10
89.35
 20
-14.8
 11
89.35
 21
-12.325
  0
LINE
  8
ﾊｯﾁﾝｸﾞ
 10
88.85
 20
-14.3
 11
88.85
 21
-12.325
  0
LINE
  8
ﾊｯﾁﾝｸﾞ
 10
88.35
 20
-13.8
 11
88.35
 21
-12.3
  0
LINE
  8
ﾊｯﾁﾝｸﾞ
 10
87.85
 20
-13.3
 11
87.85
 21
-12.3
  0
LINE
  8
ﾊｯﾁﾝｸﾞ
 10
87.35
 20
-12.8
 11
87.35
 21
-12.275
  0
LINE
  8
ﾊｯﾁﾝｸﾞ
 10
86.85
 20
-12.3
 11
86.85
 21
-12.275
  0
ENDBLK
  0
BLOCK
  2
*GRP_0001
 70
    65
 10
0.0
 20
0.0
  0
LINE
  8
型材断面
  6
CONTINUOUS
 10
195.0
 20
133.5
 11
195.0
 21
-133.5
  0
LINE
  8
型材断面
  6
CONTINUOUS
 10
195.0
 20
-133.5
 11
-185.0
 21
-133.5
  0
LINE
  8
型材断面
  6
CONTINUOUS
 10
-185.0
 20
-133.5
 11
-185.0
 21
133.5
  0
LINE
  8
型材断面
  6
CONTINUOUS
 10
195.0
 20
133.5
 11
-185.0
 21
133.5
  0
LINE
  8
型材断面
  6
CONTINUOUS
 10
145.0
 20
-133.5
 11
145.0
 21
-118.5
  0
LINE
  8
型材断面
  6
CONTINUOUS
 10
195.0
 20
-118.5
 11
145.0
 21
-118.5
  0
ENDBLK
  0
BLOCK
  2
*GRP_0002
 70
    65
 10
0.0
 20
0.0
  0
LINE
  8
ゴム等
  6
CONTINUOUS
 10
86.814283
 20
-27.653252
 11
85.541492
 21
-26.380458
  0
LINE
  8
ゴム等
  6
CONTINUOUS
 10
83.844437
 20
-24.683403
 11
82.571645
 21
-23.410607
  0
LINE
  8
ゴム等
  6
CONTINUOUS
 10
82.854485
 20
-24.966243
 11
83.20804
 21
-25.319795
  0
LINE
  8
ゴム等
  6
CONTINUOUS
 10
84.905098
 20
-27.016855
 11
85.258648
 21
-27.370405
  0
LINE
  8
ゴム等
  6
CONTINUOUS
 10
83.844437
 20
-24.683403
 11
83.20804
 21
-25.319795
  0
LINE
  8
ゴム等
  6
CONTINUOUS
 10
85.541492
 20
-26.380458
 11
84.905098
 21
-27.016855
  0
LINE
  8
ゴム等
  6
CONTINUOUS
 10
82.67771
 20
-25.143018
 11
82.74842
 21
-26.769362
  0
LINE
  8
ゴム等
  6
CONTINUOUS
 10
85.081872
 20
-27.54718
 11
83.455528
 21
-27.476473
  0
LINE
  8
ゴム等
  6
CONTINUOUS
 10
85.258648
 20
-27.370405
 11
85.081872
 21
-27.54718
  0
LINE
  8
ゴム等
  6
CONTINUOUS
 10
82.854485
 20
-24.966243
 11
82.67771
 21
-25.143018
  0
LINE
  8
ゴム等
  6
CONTINUOUS
 10
82.74842
 20
-26.769362
 11
83.455528
 21
-27.476473
  0
ARC
  8
ゴム等
  6
CONTINUOUS
 10
84.339417
 20
-25.885485
 40
0.5
 50
314.99998
 51
494.99998
  0
ARC
  8
ゴム等
  6
CONTINUOUS
 10
83.773731
 20
-26.451171
 40
0.5
 50
134.99998
 51
314.99998
  0
LINE
  8
ゴム等
  6
CONTINUOUS
 10
83.985858
 20
-25.531925
 11
83.420173
 21
-26.09761
  0
LINE
  8
ゴム等
  6
CONTINUOUS
 10
84.692965
 20
-26.239033
 11
84.12728
 21
-26.804717
  0
LINE
  8
ゴム等
  6
CONTINUOUS
 10
87.76318
 20
-26.704355
 11
85.865397
 21
-26.704355
  0
LINE
  8
ゴム等
  6
CONTINUOUS
 10
85.217598
 20
-26.704353
 11
84.227645
 21
-26.704353
  0
LINE
  8
ゴム等
  6
CONTINUOUS
 10
83.34257
 20
-26.704353
 11
82.745598
 21
-26.704353
  0
LINE
  8
ゴム等
  6
CONTINUOUS
 10
83.813433
 20
-25.70435
 11
82.702115
 21
-25.704355
  0
LINE
  8
ゴム等
  6
CONTINUOUS
 10
86.814283
 20
-27.653252
 11
88.228502
 21
-26.239037
  0
LINE
  8
ゴム等
  6
CONTINUOUS
 10
84.692965
 20
-23.057053
 11
87.167837
 21
-25.531925
  0
ARC
  8
ゴム等
  6
CONTINUOUS
 10
84.869748
 20
-22.880282
 40
0.25
 50
134.99998
 51
224.99998
  0
ARC
  8
ゴム等
  6
CONTINUOUS
 10
87.344621
 20
-25.355156
 40
0.25
 50
224.99998
 51
314.99998
  0
LINE
  8
ゴム等
  6
CONTINUOUS
 10
84.692965
 20
-22.7035
 11
83.98586
 21
-21.996393
  0
LINE
  8
ゴム等
  6
CONTINUOUS
 10
87.521395
 20
-25.531925
 11
88.228502
 21
-26.239037
  0
LINE
  8
ゴム等
  6
CONTINUOUS
 10
82.571645
 20
-23.410607
 11
83.98586
 21
-21.996393
  0
LINE
  8
ゴム等
  6
CONTINUOUS
 10
83.277897
 20
-22.704355
 11
84.69382
 21
-22.70435
  0
LINE
  8
ゴム等
  6
CONTINUOUS
 10
82.865402
 20
-23.704353
 11
85.340267
 21
-23.704353
  0
LINE
  8
ゴム等
  6
CONTINUOUS
 10
83.823485
 20
-24.704353
 11
86.340265
 21
-24.704353
  0
LINE
  8
ゴム等
  6
CONTINUOUS
 10
84.805452
 20
-25.704355
 11
87.69382
 21
-25.704355
  0
ENDBLK
  0
BLOCK
  2
*DIM_0003
 70
    65
 10
0.0
 20
0.0
  0
LINE
  8
寸法
  6
CONTINUOUS
 62
     0
 10
-75.30014
 20
59.9513
 11
-75.30014
 21
103.303955
  0
LINE
  8
寸法
  6
CONTINUOUS
 62
     0
 10
54.009045
 20
59.9513
 11
54.009045
 21
103.303955
  0
LINE
  8
寸法
  6
CONTINUOUS
 62
     0
 10
-75.30014
 20
103.303955
 11
54.009045
 21
103.303955
  0
POINT
  8
寸法
 62
     0
 10
-75.30014
 20
103.303955
  0
POINT
  8
寸法
 62
     0
 10
54.009045
 20
103.303955
  0
TEXT
  7
TextStyle03
  8
寸法
  6
CONTINUOUS
 62
     0
 10
-19.4
 20
103.675
  1
呼称寸法
 40
4.0
 72
     5
 11
-1.9
 21
103.675
  0
ENDBLK
  0
BLOCK
  2
*DIM_0004
 70
    65
 10
0.0
 20
0.0
  0
LINE
  8
寸法
  6
BYBLOCK
 62
     0
 10
102.759785
 20
-56.209037
 11
167.896877
 21
-56.209037
  0
LINE
  8
寸法
  6
BYBLOCK
 62
     0
 10
102.759785
 20
-48.708935
 11
167.896877
 21
-48.708935
  0
LINE
  8
寸法
  6
BYBLOCK
 62
     0
 10
167.896877
 20
-56.209037
 11
167.896877
 21
-48.708935
  0
POINT
  8
寸法
 62
     0
 10
167.896877
 20
-56.209037
  0
POINT
  8
寸法
 62
     0
 10
167.896877
 20
-48.708935
  0
TEXT
  7
TextStyle03
  8
寸法
  6
CONTINUOUS
 62
     0
 10
167.5
 20
-54.6
  1
15
 40
4.0
 50
90.0
 72
     5
 11
167.5
 21
-50.35
  0
ENDBLK
  0
BLOCK
  2
*DIM_0005
 70
    65
 10
0.0
 20
0.0
  0
LINE
  8
寸法
  6
BYBLOCK
 62
     0
 10
108.759043
 20
-25.758415
 11
167.896877
 21
-25.758415
  0
LINE
  8
寸法
  6
BYBLOCK
 62
     0
 10
167.896877
 20
-48.708935
 11
167.896877
 21
-25.758415
  0
POINT
  8
寸法
 62
     0
 10
167.896877
 20
-25.758415
  0
TEXT
  7
TextStyle03
  8
寸法
  6
CONTINUOUS
 62
     0
 10
167.5
 20
-41.625
  1
45.9
 40
4.0
 50
90.0
 72
     5
 11
167.5
 21
-32.875
  0
ENDBLK
  0
BLOCK
  2
*DIM_0006
 70
    65
 10
0.0
 20
0.0
  0
LINE
  8
寸法
  6
BYBLOCK
 62
     0
 10
158.170448
 20
-48.708935
 11
157.738735
 21
-48.708935
  0
LINE
  8
寸法
  6
BYBLOCK
 62
     0
 10
102.759043
 20
-38.708935
 11
157.738735
 21
-38.708935
  0
LINE
  8
寸法
  6
BYBLOCK
 62
     0
 10
157.738735
 20
-48.708935
 11
157.738735
 21
-38.708935
  0
POINT
  8
寸法
 62
     0
 10
157.738735
 20
-48.708935
  0
POINT
  8
寸法
 62
     0
 10
157.738735
 20
-38.708935
  0
TEXT
  7
TextStyle03
  8
寸法
  6
CONTINUOUS
 62
     0
 10
157.35
 20
-45.85
  1
20
 40
4.0
 50
90.0
 72
     5
 11
157.35
 21
-41.6
  0
ENDBLK
  0
BLOCK
  2
*DIM_0007
 70
    65
 10
0.0
 20
0.0
  0
LINE
  8
寸法
  6
BYBLOCK
 62
     0
 10
108.759043
 20
-28.258415
 11
157.738735
 21
-28.258415
  0
LINE
  8
寸法
  6
BYBLOCK
 62
     0
 10
157.738735
 20
-38.708935
 11
157.738735
 21
-28.258415
  0
POINT
  8
寸法
 62
     0
 10
157.738735
 20
-28.258415
  0
TEXT
  7
TextStyle03
  8
寸法
  6
CONTINUOUS
 62
     0
 10
157.35
 20
-37.875
  1
20.9
 40
4.0
 50
90.0
 72
     5
 11
157.35
 21
-29.125
  0
ENDBLK
  0
BLOCK
  2
*DIM_0008
 70
    65
 10
0.0
 20
0.0
  0
LINE
  8
寸法
  6
BYBLOCK
 62
     0
 10
109.759043
 20
-25.758415
 11
157.738735
 21
-25.758415
  0
LINE
  8
寸法
  6
BYBLOCK
 62
     0
 10
157.738735
 20
-28.258415
 11
157.738735
 21
-25.758415
  0
POINT
  8
寸法
 62
     0
 10
157.738735
 20
-25.758415
  0
TEXT
  7
TextStyle03
  8
寸法
  6
CONTINUOUS
 62
     0
 10
157.125
 20
-24.675
  1
5
 40
4.0
 50
90.0
 72
     5
 11
157.125
 21
-22.675
  0
ENDBLK
  0
BLOCK
  2
*GRP_0009
 70
    65
 10
0.0
 20
0.0
  0
POLYLINE
  8
寸法
  6
BYBLOCK
 62
     0
 66
     1
  0
VERTEX
  8
寸法
 10
71.730135
 20
2.84579
  0
VERTEX
  8
寸法
 10
84.916415
 20
16.03207
  0
VERTEX
  8
寸法
 10
112.364395
 20
16.03207
  0
SEQEND
  0
ENDBLK
  0
BLOCK
  2
*GRP_0010
 70
    65
 10
0.0
 20
0.0
  0
POLYLINE
  8
寸法
  6
BYBLOCK
 62
     0
 66
     1
  0
VERTEX
  8
寸法
 10
-93.02123
 20
2.84579
  0
VERTEX
  8
寸法
 10
-106.20751
 20
16.03207
  0
VERTEX
  8
寸法
 10
-133.65549
 20
16.03207
  0
SEQEND
  0
ENDBLK
  0
BLOCK
  2
*GRP_0011
 70
    65
 10
0.0
 20
0.0
  0
POLYLINE
  8
ガラス
  6
CONTINUOUS
 66
     1
 70
     4
  0
VERTEX
  8
ガラス
 10
-125.05
 20
-47.3
 70
     8
  0
VERTEX
  8
ガラス
 10
-125.025
 20
-47.275
 70
     8
  0
VERTEX
  8
ガラス
 10
-125.025
 20
-47.225
 70
     8
  0
VERTEX
  8
ガラス
 10
-125.0
 20
-47.175
 70
     8
  0
VERTEX
  8
ガラス
 10
-124.975
 20
-47.15
 70
     8
  0
VERTEX
  8
ガラス
 10
-124.95
 20
-47.1
 70
     8
  0
VERTEX
  8
ガラス
 10
-124.95
 20
-47.05
 70
     8
  0
VERTEX
  8
ガラス
 10
-124.925
 20
-47.025
 70
     8
  0
VERTEX
  8
ガラス
 10
-124.9
 20
-46.975
 70
     8
  0
VERTEX
  8
ガラス
 10
-124.875
 20
-46.925
 70
     8
  0
VERTEX
  8
ガラス
 10
-124.85
 20
-46.9
 70
     8
  0
VERTEX
  8
ガラス
 10
-124.85
 20
-46.85
 70
     8
  0
VERTEX
  8
ガラス
 10
-124.825
 20
-46.825
 70
     8
  0
VERTEX
  8
ガラス
 10
-124.8
 20
-46.775
 70
     8
  0
VERTEX
  8
ガラス
 10
-124.775
 20
-46.75
 70
     8
  0
VERTEX
  8
ガラス
 10
-124.75
 20
-46.7
 70
     8
  0
VERTEX
  8
ガラス
 10
-124.725
 20
-46.675
 70
     8
  0
VERTEX
  8
ガラス
 10
-124.7
 20
-46.65
 70
     8
  0
VERTEX
  8
ガラス
 10
-124.675
 20
-46.6
 70
     8
  0
VERTEX
  8
ガラス
 10
-124.625
 20
-46.575
 70
     8
  0
VERTEX
  8
ガラス
 10
-124.6
 20
-46.55
 70
     8
  0
VERTEX
  8
ガラス
 10
-124.575
 20
-46.525
 70
     8
  0
VERTEX
  8
ガラス
 10
-124.55
 20
-46.5
 70
     8
  0
VERTEX
  8
ガラス
 10
-124.5
 20
-46.475
 70
     8
  0
VERTEX
  8
ガラス
 10
-124.475
 20
-46.45
 70
     8
  0
VERTEX
  8
ガラス
 10
-124.425
 20
-46.45
 70
     8
  0
VERTEX
  8
ガラス
 10
-124.4
 20
-46.425
 70
     8
  0
VERTEX
  8
ガラス
 10
-124.35
 20
-46.4
 70
     8
  0
VERTEX
  8
ガラス
 10
-124.325
 20
-46.375
 70
     8
  0
VERTEX
  8
ガラス
 10
-124.275
 20
-46.375
 70
     8
  0
VERTEX
  8
ガラス
 10
-124.225
 20
-46.35
 70
     8
  0
VERTEX
  8
ガラス
 10
-124.2
 20
-46.35
 70
     8
  0
VERTEX
  8
ガラス
 10
-124.15
 20
-46.325
 70
     8
  0
VERTEX
  8
ガラス
 10
-124.1
 20
-46.325
 70
     8
  0
VERTEX
  8
ガラス
 10
-124.05
 20
-46.3
 70
     8
  0
VERTEX
  8
ガラス
 10
-124.025
 20
-46.3
 70
     8
  0
VERTEX
  8
ガラス
 10
-123.975
 20
-46.275
 70
     8
  0
VERTEX
  8
ガラス
 10
-123.925
 20
-46.275
 70
     8
  0
VERTEX
  8
ガラス
 10
-123.875
 20
-46.275
 70
     8
  0
VERTEX
  8
ガラス
 10
-123.825
 20
-46.25
 70
     8
  0
VERTEX
  8
ガラス
 10
-123.8
 20
-46.25
 70
     8
  0
SEQEND
  0
POLYLINE
  8
ガラス
  6
CONTINUOUS
 66
     1
 70
     4
  0
VERTEX
  8
ガラス
 10
-123.8
 20
-46.25
 70
     8
  0
VERTEX
  8
ガラス
 10
-123.8
 20
-46.275
 70
     8
  0
VERTEX
  8
ガラス
 10
-123.825
 20
-46.3
 70
     8
  0
VERTEX
  8
ガラス
 10
-123.825
 20
-46.325
 70
     8
  0
VERTEX
  8
ガラス
 10
-123.85
 20
-46.35
 70
     8
  0
VERTEX
  8
ガラス
 10
-123.85
 20
-46.4
 70
     8
  0
VERTEX
  8
ガラス
 10
-123.85
 20
-46.425
 70
     8
  0
VERTEX
  8
ガラス
 10
-123.875
 20
-46.45
 70
     8
  0
VERTEX
  8
ガラス
 10
-123.875
 20
-46.475
 70
     8
  0
VERTEX
  8
ガラス
 10
-123.9
 20
-46.5
 70
     8
  0
VERTEX
  8
ガラス
 10
-123.9
 20
-46.525
 70
     8
  0
VERTEX
  8
ガラス
 10
-123.925
 20
-46.55
 70
     8
  0
VERTEX
  8
ガラス
 10
-123.925
 20
-46.6
 70
     8
  0
VERTEX
  8
ガラス
 10
-123.95
 20
-46.625
 70
     8
  0
VERTEX
  8
ガラス
 10
-123.95
 20
-46.65
 70
     8
  0
VERTEX
  8
ガラス
 10
-123.95
 20
-46.675
 70
     8
  0
VERTEX
  8
ガラス
 10
-123.975
 20
-46.7
 70
     8
  0
VERTEX
  8
ガラス
 10
-123.975
 20
-46.725
 70
     8
  0
VERTEX
  8
ガラス
 10
-123.975
 20
-46.75
 70
     8
  0
VERTEX
  8
ガラス
 10
-124.0
 20
-46.8
 70
     8
  0
VERTEX
  8
ガラス
 10
-124.0
 20
-46.825
 70
     8
  0
VERTEX
  8
ガラス
 10
-124.0
 20
-46.85
 70
     8
  0
VERTEX
  8
ガラス
 10
-124.025
 20
-46.875
 70
     8
  0
VERTEX
  8
ガラス
 10
-124.025
 20
-46.9
 70
     8
  0
VERTEX
  8
ガラス
 10
-124.025
 20
-46.95
 70
     8
  0
VERTEX
  8
ガラス
 10
-124.05
 20
-46.975
 70
     8
  0
VERTEX
  8
ガラス
 10
-124.05
 20
-47.0
 70
     8
  0
VERTEX
  8
ガラス
 10
-124.05
 20
-47.025
 70
     8
  0
VERTEX
  8
ガラス
 10
-124.05
 20
-47.05
 70
     8
  0
VERTEX
  8
ガラス
 10
-124.05
 20
-47.1
 70
     8
  0
VERTEX
  8
ガラス
 10
-124.075
 20
-47.125
 70
     8
  0
VERTEX
  8
ガラス
 10
-124.075
 20
-47.15
 70
     8
  0
VERTEX
  8
ガラス
 10
-124.075
 20
-47.175
 70
     8
  0
VERTEX
  8
ガラス
 10
-124.075
 20
-47.2
 70
     8
  0
VERTEX
  8
ガラス
 10
-124.075
 20
-47.25
 70
     8
  0
VERTEX
  8
ガラス
 10
-124.075
 20
-47.275
 70
     8
  0
VERTEX
  8
ガラス
 10
-124.1
 20
-47.3
 70
     8
  0
VERTEX
  8
ガラス
 10
-124.1
 20
-47.325
 70
     8
  0
VERTEX
  8
ガラス
 10
-124.1
 20
-47.375
 70
     8
  0
VERTEX
  8
ガラス
 10
-124.1
 20
-47.4
 70
     8
  0
VERTEX
  8
ガラス
 10
-124.1
 20
-47.425
 70
     8
  0
SEQEND
  0
ARC
  8
ガラス
  6
CONTINUOUS
 10
-124.566479
 20
-47.35508
 40
0.477567
 50
173.117443
 51
353.117443
  0
ENDBLK
  0
BLOCK
  2
*GRP_0012
 70
    65
 10
0.0
 20
0.0
  0
POLYLINE
  8
ガラス
  6
CONTINUOUS
 66
     1
 70
     4
  0
VERTEX
  8
ガラス
 10
-126.925
 20
-51.625
 70
     8
  0
VERTEX
  8
ガラス
 10
-126.9
 20
-51.575
 70
     8
  0
VERTEX
  8
ガラス
 10
-126.875
 20
-51.525
 70
     8
  0
VERTEX
  8
ガラス
 10
-126.85
 20
-51.5
 70
     8
  0
VERTEX
  8
ガラス
 10
-126.85
 20
-51.45
 70
     8
  0
VERTEX
  8
ガラス
 10
-126.825
 20
-51.4
 70
     8
  0
VERTEX
  8
ガラス
 10
-126.8
 20
-51.35
 70
     8
  0
VERTEX
  8
ガラス
 10
-126.775
 20
-51.325
 70
     8
  0
VERTEX
  8
ガラス
 10
-126.775
 20
-51.275
 70
     8
  0
VERTEX
  8
ガラス
 10
-126.75
 20
-51.25
 70
     8
  0
VERTEX
  8
ガラス
 10
-126.725
 20
-51.2
 70
     8
  0
VERTEX
  8
ガラス
 10
-126.7
 20
-51.15
 70
     8
  0
VERTEX
  8
ガラス
 10
-126.675
 20
-51.125
 70
     8
  0
VERTEX
  8
ガラス
 10
-126.65
 20
-51.075
 70
     8
  0
VERTEX
  8
ガラス
 10
-126.625
 20
-51.05
 70
     8
  0
VERTEX
  8
ガラス
 10
-126.6
 20
-51.025
 70
     8
  0
VERTEX
  8
ガラス
 10
-126.575
 20
-50.975
 70
     8
  0
VERTEX
  8
ガラス
 10
-126.55
 20
-50.95
 70
     8
  0
VERTEX
  8
ガラス
 10
-126.525
 20
-50.925
 70
     8
  0
VERTEX
  8
ガラス
 10
-126.5
 20
-50.9
 70
     8
  0
VERTEX
  8
ガラス
 10
-126.475
 20
-50.85
 70
     8
  0
VERTEX
  8
ガラス
 10
-126.425
 20
-50.825
 70
     8
  0
VERTEX
  8
ガラス
 10
-126.4
 20
-50.8
 70
     8
  0
VERTEX
  8
ガラス
 10
-126.375
 20
-50.775
 70
     8
  0
VERTEX
  8
ガラス
 10
-126.325
 20
-50.775
 70
     8
  0
VERTEX
  8
ガラス
 10
-126.3
 20
-50.75
 70
     8
  0
VERTEX
  8
ガラス
 10
-126.25
 20
-50.725
 70
     8
  0
VERTEX
  8
ガラス
 10
-126.225
 20
-50.7
 70
     8
  0
VERTEX
  8
ガラス
 10
-126.175
 20
-50.7
 70
     8
  0
VERTEX
  8
ガラス
 10
-126.15
 20
-50.675
 70
     8
  0
VERTEX
  8
ガラス
 10
-126.1
 20
-50.675
 70
     8
  0
VERTEX
  8
ガラス
 10
-126.05
 20
-50.65
 70
     8
  0
VERTEX
  8
ガラス
 10
-126.0
 20
-50.625
 70
     8
  0
VERTEX
  8
ガラス
 10
-125.975
 20
-50.625
 70
     8
  0
VERTEX
  8
ガラス
 10
-125.925
 20
-50.625
 70
     8
  0
VERTEX
  8
ガラス
 10
-125.875
 20
-50.6
 70
     8
  0
VERTEX
  8
ガラス
 10
-125.825
 20
-50.6
 70
     8
  0
VERTEX
  8
ガラス
 10
-125.8
 20
-50.575
 70
     8
  0
VERTEX
  8
ガラス
 10
-125.75
 20
-50.575
 70
     8
  0
VERTEX
  8
ガラス
 10
-125.7
 20
-50.55
 70
     8
  0
VERTEX
  8
ガラス
 10
-125.65
 20
-50.55
 70
     8
  0
SEQEND
  0
POLYLINE
  8
ガラス
  6
CONTINUOUS
 66
     1
 70
     4
  0
VERTEX
  8
ガラス
 10
-125.65
 20
-50.55
 70
     8
  0
VERTEX
  8
ガラス
 10
-125.675
 20
-50.575
 70
     8
  0
VERTEX
  8
ガラス
 10
-125.675
 20
-50.6
 70
     8
  0
VERTEX
  8
ガラス
 10
-125.7
 20
-50.65
 70
     8
  0
VERTEX
  8
ガラス
 10
-125.7
 20
-50.675
 70
     8
  0
VERTEX
  8
ガラス
 10
-125.7
 20
-50.7
 70
     8
  0
VERTEX
  8
ガラス
 10
-125.725
 20
-50.725
 70
     8
  0
VERTEX
  8
ガラス
 10
-125.725
 20
-50.75
 70
     8
  0
VERTEX
  8
ガラス
 10
-125.75
 20
-50.775
 70
     8
  0
VERTEX
  8
ガラス
 10
-125.75
 20
-50.8
 70
     8
  0
VERTEX
  8
ガラス
 10
-125.775
 20
-50.825
 70
     8
  0
VERTEX
  8
ガラス
 10
-125.775
 20
-50.875
 70
     8
  0
VERTEX
  8
ガラス
 10
-125.8
 20
-50.9
 70
     8
  0
VERTEX
  8
ガラス
 10
-125.8
 20
-50.925
 70
     8
  0
VERTEX
  8
ガラス
 10
-125.8
 20
-50.95
 70
     8
  0
VERTEX
  8
ガラス
 10
-125.825
 20
-50.975
 70
     8
  0
VERTEX
  8
ガラス
 10
-125.825
 20
-51.0
 70
     8
  0
VERTEX
  8
ガラス
 10
-125.85
 20
-51.05
 70
     8
  0
VERTEX
  8
ガラス
 10
-125.85
 20
-51.075
 70
     8
  0
VERTEX
  8
ガラス
 10
-125.85
 20
-51.1
 70
     8
  0
VERTEX
  8
ガラス
 10
-125.875
 20
-51.125
 70
     8
  0
VERTEX
  8
ガラス
 10
-125.875
 20
-51.15
 70
     8
  0
VERTEX
  8
ガラス
 10
-125.875
 20
-51.175
 70
     8
  0
VERTEX
  8
ガラス
 10
-125.9
 20
-51.225
 70
     8
  0
VERTEX
  8
ガラス
 10
-125.9
 20
-51.25
 70
     8
  0
VERTEX
  8
ガラス
 10
-125.9
 20
-51.275
 70
     8
  0
VERTEX
  8
ガラス
 10
-125.9
 20
-51.3
 70
     8
  0
VERTEX
  8
ガラス
 10
-125.925
 20
-51.325
 70
     8
  0
VERTEX
  8
ガラス
 10
-125.925
 20
-51.375
 70
     8
  0
VERTEX
  8
ガラス
 10
-125.925
 20
-51.4
 70
     8
  0
VERTEX
  8
ガラス
 10
-125.925
 20
-51.425
 70
     8
  0
VERTEX
  8
ガラス
 10
-125.925
 20
-51.45
 70
     8
  0
VERTEX
  8
ガラス
 10
-125.925
 20
-51.475
 70
     8
  0
VERTEX
  8
ガラス
 10
-125.95
 20
-51.525
 70
     8
  0
VERTEX
  8
ガラス
 10
-125.95
 20
-51.55
 70
     8
  0
VERTEX
  8
ガラス
 10
-125.95
 20
-51.575
 70
     8
  0
VERTEX
  8
ガラス
 10
-125.95
 20
-51.6
 70
     8
  0
VERTEX
  8
ガラス
 10
-125.95
 20
-51.65
 70
     8
  0
VERTEX
  8
ガラス
 10
-125.95
 20
-51.675
 70
     8
  0
VERTEX
  8
ガラス
 10
-125.975
 20
-51.7
 70
     8
  0
VERTEX
  8
ガラス
 10
-125.975
 20
-51.725
 70
     8
  0
SEQEND
  0
ARC
  8
ガラス
  6
CONTINUOUS
 10
-126.428913
 20
-51.661958
 40
0.477567
 50
173.117443
 51
353.117443
  0
ENDBLK
  0
BLOCK
  2
*GRP_0013
 70
    65
 10
0.0
 20
0.0
  0
POLYLINE
  8
ガラス
  6
CONTINUOUS
 66
     1
 70
     4
  0
VERTEX
  8
ガラス
 10
-106.75
 20
-33.75
 70
     8
  0
VERTEX
  8
ガラス
 10
-106.775
 20
-33.725
 70
     8
  0
VERTEX
  8
ガラス
 10
-106.8
 20
-33.675
 70
     8
  0
VERTEX
  8
ガラス
 10
-106.8
 20
-33.625
 70
     8
  0
VERTEX
  8
ガラス
 10
-106.825
 20
-33.575
 70
     8
  0
VERTEX
  8
ガラス
 10
-106.85
 20
-33.55
 70
     8
  0
VERTEX
  8
ガラス
 10
-106.875
 20
-33.5
 70
     8
  0
VERTEX
  8
ガラス
 10
-106.875
 20
-33.45
 70
     8
  0
VERTEX
  8
ガラス
 10
-106.9
 20
-33.425
 70
     8
  0
VERTEX
  8
ガラス
 10
-106.925
 20
-33.375
 70
     8
  0
VERTEX
  8
ガラス
 10
-106.95
 20
-33.35
 70
     8
  0
VERTEX
  8
ガラス
 10
-106.975
 20
-33.3
 70
     8
  0
VERTEX
  8
ガラス
 10
-107.0
 20
-33.25
 70
     8
  0
VERTEX
  8
ガラス
 10
-107.025
 20
-33.225
 70
     8
  0
VERTEX
  8
ガラス
 10
-107.025
 20
-33.2
 70
     8
  0
VERTEX
  8
ガラス
 10
-107.05
 20
-33.15
 70
     8
  0
VERTEX
  8
ガラス
 10
-107.1
 20
-33.125
 70
     8
  0
VERTEX
  8
ガラス
 10
-107.125
 20
-33.1
 70
     8
  0
VERTEX
  8
ガラス
 10
-107.15
 20
-33.05
 70
     8
  0
VERTEX
  8
ガラス
 10
-107.175
 20
-33.025
 70
     8
  0
VERTEX
  8
ガラス
 10
-107.2
 20
-33.0
 70
     8
  0
VERTEX
  8
ガラス
 10
-107.225
 20
-32.975
 70
     8
  0
VERTEX
  8
ガラス
 10
-107.275
 20
-32.95
 70
     8
  0
VERTEX
  8
ガラス
 10
-107.3
 20
-32.925
 70
     8
  0
VERTEX
  8
ガラス
 10
-107.35
 20
-32.9
 70
     8
  0
VERTEX
  8
ガラス
 10
-107.375
 20
-32.875
 70
     8
  0
VERTEX
  8
ガラス
 10
-107.425
 20
-32.875
 70
     8
  0
VERTEX
  8
ガラス
 10
-107.45
 20
-32.85
 70
     8
  0
VERTEX
  8
ガラス
 10
-107.5
 20
-32.825
 70
     8
  0
VERTEX
  8
ガラス
 10
-107.525
 20
-32.825
 70
     8
  0
VERTEX
  8
ガラス
 10
-107.575
 20
-32.8
 70
     8
  0
VERTEX
  8
ガラス
 10
-107.625
 20
-32.8
 70
     8
  0
VERTEX
  8
ガラス
 10
-107.65
 20
-32.775
 70
     8
  0
VERTEX
  8
ガラス
 10
-107.7
 20
-32.775
 70
     8
  0
VERTEX
  8
ガラス
 10
-107.75
 20
-32.75
 70
     8
  0
VERTEX
  8
ガラス
 10
-107.8
 20
-32.75
 70
     8
  0
VERTEX
  8
ガラス
 10
-107.825
 20
-32.725
 70
     8
  0
VERTEX
  8
ガラス
 10
-107.875
 20
-32.725
 70
     8
  0
VERTEX
  8
ガラス
 10
-107.925
 20
-32.7
 70
     8
  0
VERTEX
  8
ガラス
 10
-107.975
 20
-32.7
 70
     8
  0
VERTEX
  8
ガラス
 10
-108.025
 20
-32.7
 70
     8
  0
SEQEND
  0
POLYLINE
  8
ガラス
  6
CONTINUOUS
 66
     1
 70
     4
  0
VERTEX
  8
ガラス
 10
-108.025
 20
-32.7
 70
     8
  0
VERTEX
  8
ガラス
 10
-108.0
 20
-32.725
 70
     8
  0
VERTEX
  8
ガラス
 10
-108.0
 20
-32.75
 70
     8
  0
VERTEX
  8
ガラス
 10
-107.975
 20
-32.775
 70
     8
  0
VERTEX
  8
ガラス
 10
-107.975
 20
-32.8
 70
     8
  0
VERTEX
  8
ガラス
 10
-107.95
 20
-32.825
 70
     8
  0
VERTEX
  8
ガラス
 10
-107.95
 20
-32.875
 70
     8
  0
VERTEX
  8
ガラス
 10
-107.925
 20
-32.9
 70
     8
  0
VERTEX
  8
ガラス
 10
-107.925
 20
-32.925
 70
     8
  0
VERTEX
  8
ガラス
 10
-107.9
 20
-32.95
 70
     8
  0
VERTEX
  8
ガラス
 10
-107.9
 20
-32.975
 70
     8
  0
VERTEX
  8
ガラス
 10
-107.9
 20
-33.0
 70
     8
  0
VERTEX
  8
ガラス
 10
-107.875
 20
-33.025
 70
     8
  0
VERTEX
  8
ガラス
 10
-107.875
 20
-33.075
 70
     8
  0
VERTEX
  8
ガラス
 10
-107.85
 20
-33.1
 70
     8
  0
VERTEX
  8
ガラス
 10
-107.85
 20
-33.125
 70
     8
  0
VERTEX
  8
ガラス
 10
-107.85
 20
-33.15
 70
     8
  0
VERTEX
  8
ガラス
 10
-107.825
 20
-33.175
 70
     8
  0
VERTEX
  8
ガラス
 10
-107.825
 20
-33.2
 70
     8
  0
VERTEX
  8
ガラス
 10
-107.8
 20
-33.25
 70
     8
  0
VERTEX
  8
ガラス
 10
-107.8
 20
-33.275
 70
     8
  0
VERTEX
  8
ガラス
 10
-107.8
 20
-33.3
 70
     8
  0
VERTEX
  8
ガラス
 10
-107.8
 20
-33.325
 70
     8
  0
VERTEX
  8
ガラス
 10
-107.775
 20
-33.35
 70
     8
  0
VERTEX
  8
ガラス
 10
-107.775
 20
-33.375
 70
     8
  0
VERTEX
  8
ガラス
 10
-107.775
 20
-33.425
 70
     8
  0
VERTEX
  8
ガラス
 10
-107.775
 20
-33.45
 70
     8
  0
VERTEX
  8
ガラス
 10
-107.75
 20
-33.475
 70
     8
  0
VERTEX
  8
ガラス
 10
-107.75
 20
-33.5
 70
     8
  0
VERTEX
  8
ガラス
 10
-107.75
 20
-33.525
 70
     8
  0
VERTEX
  8
ガラス
 10
-107.75
 20
-33.575
 70
     8
  0
VERTEX
  8
ガラス
 10
-107.725
 20
-33.6
 70
     8
  0
VERTEX
  8
ガラス
 10
-107.725
 20
-33.625
 70
     8
  0
VERTEX
  8
ガラス
 10
-107.725
 20
-33.65
 70
     8
  0
VERTEX
  8
ガラス
 10
-107.725
 20
-33.7
 70
     8
  0
VERTEX
  8
ガラス
 10
-107.725
 20
-33.725
 70
     8
  0
VERTEX
  8
ガラス
 10
-107.725
 20
-33.75
 70
     8
  0
VERTEX
  8
ガラス
 10
-107.725
 20
-33.775
 70
     8
  0
VERTEX
  8
ガラス
 10
-107.7
 20
-33.8
 70
     8
  0
VERTEX
  8
ガラス
 10
-107.7
 20
-33.85
 70
     8
  0
VERTEX
  8
ガラス
 10
-107.7
 20
-33.875
 70
     8
  0
SEQEND
  0
ARC
  8
ガラス
  6
CONTINUOUS
 10
-107.216628
 20
-33.802056
 40
0.477567
 50
186.882557
 51
366.882557
  0
ENDBLK
  0
BLOCK
  2
*GRP_0014
 70
    65
 10
0.0
 20
0.0
  0
POLYLINE
  8
ガラス
  6
CONTINUOUS
 66
     1
 70
     4
  0
VERTEX
  8
ガラス
 10
-120.75
 20
-43.475
 70
     8
  0
VERTEX
  8
ガラス
 10
-120.7
 20
-43.475
 70
     8
  0
VERTEX
  8
ガラス
 10
-120.65
 20
-43.475
 70
     8
  0
VERTEX
  8
ガラス
 10
-120.6
 20
-43.45
 70
     8
  0
VERTEX
  8
ガラス
 10
-120.55
 20
-43.45
 70
     8
  0
VERTEX
  8
ガラス
 10
-120.525
 20
-43.45
 70
     8
  0
VERTEX
  8
ガラス
 10
-120.475
 20
-43.45
 70
     8
  0
VERTEX
  8
ガラス
 10
-120.425
 20
-43.45
 70
     8
  0
VERTEX
  8
ガラス
 10
-120.375
 20
-43.45
 70
     8
  0
VERTEX
  8
ガラス
 10
-120.325
 20
-43.45
 70
     8
  0
VERTEX
  8
ガラス
 10
-120.275
 20
-43.425
 70
     8
  0
VERTEX
  8
ガラス
 10
-120.25
 20
-43.425
 70
     8
  0
VERTEX
  8
ガラス
 10
-120.2
 20
-43.45
 70
     8
  0
VERTEX
  8
ガラス
 10
-120.15
 20
-43.45
 70
     8
  0
VERTEX
  8
ガラス
 10
-120.1
 20
-43.45
 70
     8
  0
VERTEX
  8
ガラス
 10
-120.075
 20
-43.45
 70
     8
  0
VERTEX
  8
ガラス
 10
-120.025
 20
-43.45
 70
     8
  0
VERTEX
  8
ガラス
 10
-119.975
 20
-43.475
 70
     8
  0
VERTEX
  8
ガラス
 10
-119.95
 20
-43.475
 70
     8
  0
VERTEX
  8
ガラス
 10
-119.9
 20
-43.475
 70
     8
  0
VERTEX
  8
ガラス
 10
-119.875
 20
-43.5
 70
     8
  0
VERTEX
  8
ガラス
 10
-119.825
 20
-43.5
 70
     8
  0
VERTEX
  8
ガラス
 10
-119.8
 20
-43.525
 70
     8
  0
VERTEX
  8
ガラス
 10
-119.75
 20
-43.55
 70
     8
  0
VERTEX
  8
ガラス
 10
-119.725
 20
-43.575
 70
     8
  0
VERTEX
  8
ガラス
 10
-119.675
 20
-43.6
 70
     8
  0
VERTEX
  8
ガラス
 10
-119.65
 20
-43.625
 70
     8
  0
VERTEX
  8
ガラス
 10
-119.625
 20
-43.65
 70
     8
  0
VERTEX
  8
ガラス
 10
-119.575
 20
-43.675
 70
     8
  0
VERTEX
  8
ガラス
 10
-119.55
 20
-43.7
 70
     8
  0
VERTEX
  8
ガラス
 10
-119.525
 20
-43.725
 70
     8
  0
VERTEX
  8
ガラス
 10
-119.475
 20
-43.75
 70
     8
  0
VERTEX
  8
ガラス
 10
-119.45
 20
-43.775
 70
     8
  0
VERTEX
  8
ガラス
 10
-119.425
 20
-43.825
 70
     8
  0
VERTEX
  8
ガラス
 10
-119.375
 20
-43.85
 70
     8
  0
VERTEX
  8
ガラス
 10
-119.35
 20
-43.875
 70
     8
  0
VERTEX
  8
ガラス
 10
-119.325
 20
-43.925
 70
     8
  0
VERTEX
  8
ガラス
 10
-119.3
 20
-43.95
 70
     8
  0
VERTEX
  8
ガラス
 10
-119.25
 20
-44.0
 70
     8
  0
VERTEX
  8
ガラス
 10
-119.225
 20
-44.025
 70
     8
  0
VERTEX
  8
ガラス
 10
-119.2
 20
-44.05
 70
     8
  0
SEQEND
  0
POLYLINE
  8
ガラス
  6
CONTINUOUS
 66
     1
 70
     4
  0
VERTEX
  8
ガラス
 10
-119.2
 20
-44.05
 70
     8
  0
VERTEX
  8
ガラス
 10
-119.225
 20
-44.05
 70
     8
  0
VERTEX
  8
ガラス
 10
-119.25
 20
-44.075
 70
     8
  0
VERTEX
  8
ガラス
 10
-119.3
 20
-44.075
 70
     8
  0
VERTEX
  8
ガラス
 10
-119.325
 20
-44.075
 70
     8
  0
VERTEX
  8
ガラス
 10
-119.35
 20
-44.075
 70
     8
  0
VERTEX
  8
ガラス
 10
-119.375
 20
-44.075
 70
     8
  0
VERTEX
  8
ガラス
 10
-119.425
 20
-44.075
 70
     8
  0
VERTEX
  8
ガラス
 10
-119.45
 20
-44.075
 70
     8
  0
VERTEX
  8
ガラス
 10
-119.475
 20
-44.1
 70
     8
  0
VERTEX
  8
ガラス
 10
-119.5
 20
-44.1
 70
     8
  0
VERTEX
  8
ガラス
 10
-119.525
 20
-44.1
 70
     8
  0
VERTEX
  8
ガラス
 10
-119.575
 20
-44.1
 70
     8
  0
VERTEX
  8
ガラス
 10
-119.6
 20
-44.1
 70
     8
  0
VERTEX
  8
ガラス
 10
-119.625
 20
-44.125
 70
     8
  0
VERTEX
  8
ガラス
 10
-119.65
 20
-44.125
 70
     8
  0
VERTEX
  8
ガラス
 10
-119.675
 20
-44.125
 70
     8
  0
VERTEX
  8
ガラス
 10
-119.725
 20
-44.125
 70
     8
  0
VERTEX
  8
ガラス
 10
-119.75
 20
-44.15
 70
     8
  0
VERTEX
  8
ガラス
 10
-119.775
 20
-44.15
 70
     8
  0
VERTEX
  8
ガラス
 10
-119.8
 20
-44.15
 70
     8
  0
VERTEX
  8
ガラス
 10
-119.825
 20
-44.15
 70
     8
  0
VERTEX
  8
ガラス
 10
-119.875
 20
-44.175
 70
     8
  0
VERTEX
  8
ガラス
 10
-119.9
 20
-44.175
 70
     8
  0
VERTEX
  8
ガラス
 10
-119.925
 20
-44.175
 70
     8
  0
VERTEX
  8
ガラス
 10
-119.95
 20
-44.2
 70
     8
  0
VERTEX
  8
ガラス
 10
-119.975
 20
-44.2
 70
     8
  0
VERTEX
  8
ガラス
 10
-120.0
 20
-44.2
 70
     8
  0
VERTEX
  8
ガラス
 10
-120.05
 20
-44.225
 70
     8
  0
VERTEX
  8
ガラス
 10
-120.075
 20
-44.225
 70
     8
  0
VERTEX
  8
ガラス
 10
-120.1
 20
-44.25
 70
     8
  0
VERTEX
  8
ガラス
 10
-120.125
 20
-44.25
 70
     8
  0
VERTEX
  8
ガラス
 10
-120.15
 20
-44.275
 70
     8
  0
VERTEX
  8
ガラス
 10
-120.175
 20
-44.275
 70
     8
  0
VERTEX
  8
ガラス
 10
-120.2
 20
-44.3
 70
     8
  0
VERTEX
  8
ガラス
 10
-120.25
 20
-44.3
 70
     8
  0
VERTEX
  8
ガラス
 10
-120.275
 20
-44.3
 70
     8
  0
VERTEX
  8
ガラス
 10
-120.3
 20
-44.325
 70
     8
  0
VERTEX
  8
ガラス
 10
-120.325
 20
-44.325
 70
     8
  0
VERTEX
  8
ガラス
 10
-120.35
 20
-44.35
 70
     8
  0
VERTEX
  8
ガラス
 10
-120.375
 20
-44.35
 70
     8
  0
SEQEND
  0
ARC
  8
ガラス
  6
CONTINUOUS
 10
-120.551618
 20
-43.903729
 40
0.477567
 50
112.264588
 51
292.264588
  0
ENDBLK
  0
BLOCK
  2
*GRP_0015
 70
    65
 10
0.0
 20
0.0
  0
POLYLINE
  8
ガラス
  6
CONTINUOUS
 66
     1
 70
     4
  0
VERTEX
  8
ガラス
 10
-105.275
 20
-43.2
 70
     8
  0
VERTEX
  8
ガラス
 10
-105.25
 20
-43.2
 70
     8
  0
VERTEX
  8
ガラス
 10
-105.2
 20
-43.2
 70
     8
  0
VERTEX
  8
ガラス
 10
-105.15
 20
-43.175
 70
     8
  0
VERTEX
  8
ガラス
 10
-105.1
 20
-43.175
 70
     8
  0
VERTEX
  8
ガラス
 10
-105.05
 20
-43.175
 70
     8
  0
VERTEX
  8
ガラス
 10
-105.0
 20
-43.175
 70
     8
  0
VERTEX
  8
ガラス
 10
-104.975
 20
-43.175
 70
     8
  0
VERTEX
  8
ガラス
 10
-104.925
 20
-43.175
 70
     8
  0
VERTEX
  8
ガラス
 10
-104.875
 20
-43.175
 70
     8
  0
VERTEX
  8
ガラス
 10
-104.825
 20
-43.175
 70
     8
  0
VERTEX
  8
ガラス
 10
-104.775
 20
-43.175
 70
     8
  0
VERTEX
  8
ガラス
 10
-104.75
 20
-43.175
 70
     8
  0
VERTEX
  8
ガラス
 10
-104.7
 20
-43.175
 70
     8
  0
VERTEX
  8
ガラス
 10
-104.65
 20
-43.175
 70
     8
  0
VERTEX
  8
ガラス
 10
-104.6
 20
-43.175
 70
     8
  0
VERTEX
  8
ガラス
 10
-104.575
 20
-43.175
 70
     8
  0
VERTEX
  8
ガラス
 10
-104.525
 20
-43.2
 70
     8
  0
VERTEX
  8
ガラス
 10
-104.475
 20
-43.2
 70
     8
  0
VERTEX
  8
ガラス
 10
-104.45
 20
-43.2
 70
     8
  0
VERTEX
  8
ガラス
 10
-104.4
 20
-43.225
 70
     8
  0
VERTEX
  8
ガラス
 10
-104.375
 20
-43.25
 70
     8
  0
VERTEX
  8
ガラス
 10
-104.325
 20
-43.25
 70
     8
  0
VERTEX
  8
ガラス
 10
-104.3
 20
-43.275
 70
     8
  0
VERTEX
  8
ガラス
 10
-104.25
 20
-43.3
 70
     8
  0
VERTEX
  8
ガラス
 10
-104.225
 20
-43.325
 70
     8
  0
VERTEX
  8
ガラス
 10
-104.2
 20
-43.35
 70
     8
  0
VERTEX
  8
ガラス
 10
-104.15
 20
-43.375
 70
     8
  0
VERTEX
  8
ガラス
 10
-104.125
 20
-43.4
 70
     8
  0
VERTEX
  8
ガラス
 10
-104.075
 20
-43.425
 70
     8
  0
VERTEX
  8
ガラス
 10
-104.05
 20
-43.45
 70
     8
  0
VERTEX
  8
ガラス
 10
-104.025
 20
-43.475
 70
     8
  0
VERTEX
  8
ガラス
 10
-104.0
 20
-43.525
 70
     8
  0
VERTEX
  8
ガラス
 10
-103.95
 20
-43.55
 70
     8
  0
VERTEX
  8
ガラス
 10
-103.925
 20
-43.575
 70
     8
  0
VERTEX
  8
ガラス
 10
-103.9
 20
-43.6
 70
     8
  0
VERTEX
  8
ガラス
 10
-103.875
 20
-43.65
 70
     8
  0
VERTEX
  8
ガラス
 10
-103.825
 20
-43.675
 70
     8
  0
VERTEX
  8
ガラス
 10
-103.8
 20
-43.725
 70
     8
  0
VERTEX
  8
ガラス
 10
-103.775
 20
-43.75
 70
     8
  0
VERTEX
  8
ガラス
 10
-103.75
 20
-43.775
 70
     8
  0
SEQEND
  0
POLYLINE
  8
ガラス
  6
CONTINUOUS
 66
     1
 70
     4
  0
VERTEX
  8
ガラス
 10
-103.75
 20
-43.775
 70
     8
  0
VERTEX
  8
ガラス
 10
-103.775
 20
-43.8
 70
     8
  0
VERTEX
  8
ガラス
 10
-103.8
 20
-43.8
 70
     8
  0
VERTEX
  8
ガラス
 10
-103.825
 20
-43.8
 70
     8
  0
VERTEX
  8
ガラス
 10
-103.875
 20
-43.8
 70
     8
  0
VERTEX
  8
ガラス
 10
-103.9
 20
-43.8
 70
     8
  0
VERTEX
  8
ガラス
 10
-103.925
 20
-43.8
 70
     8
  0
VERTEX
  8
ガラス
 10
-103.95
 20
-43.8
 70
     8
  0
VERTEX
  8
ガラス
 10
-103.975
 20
-43.825
 70
     8
  0
VERTEX
  8
ガラス
 10
-104.025
 20
-43.825
 70
     8
  0
VERTEX
  8
ガラス
 10
-104.05
 20
-43.825
 70
     8
  0
VERTEX
  8
ガラス
 10
-104.075
 20
-43.825
 70
     8
  0
VERTEX
  8
ガラス
 10
-104.1
 20
-43.825
 70
     8
  0
VERTEX
  8
ガラス
 10
-104.15
 20
-43.825
 70
     8
  0
VERTEX
  8
ガラス
 10
-104.175
 20
-43.85
 70
     8
  0
VERTEX
  8
ガラス
 10
-104.2
 20
-43.85
 70
     8
  0
VERTEX
  8
ガラス
 10
-104.225
 20
-43.85
 70
     8
  0
VERTEX
  8
ガラス
 10
-104.25
 20
-43.85
 70
     8
  0
VERTEX
  8
ガラス
 10
-104.3
 20
-43.875
 70
     8
  0
VERTEX
  8
ガラス
 10
-104.325
 20
-43.875
 70
     8
  0
VERTEX
  8
ガラス
 10
-104.35
 20
-43.875
 70
     8
  0
VERTEX
  8
ガラス
 10
-104.375
 20
-43.875
 70
     8
  0
VERTEX
  8
ガラス
 10
-104.4
 20
-43.9
 70
     8
  0
VERTEX
  8
ガラス
 10
-104.425
 20
-43.9
 70
     8
  0
VERTEX
  8
ガラス
 10
-104.475
 20
-43.9
 70
     8
  0
VERTEX
  8
ガラス
 10
-104.5
 20
-43.925
 70
     8
  0
VERTEX
  8
ガラス
 10
-104.525
 20
-43.925
 70
     8
  0
VERTEX
  8
ガラス
 10
-104.55
 20
-43.95
 70
     8
  0
VERTEX
  8
ガラス
 10
-104.575
 20
-43.95
 70
     8
  0
VERTEX
  8
ガラス
 10
-104.6
 20
-43.95
 70
     8
  0
VERTEX
  8
ガラス
 10
-104.65
 20
-43.975
 70
     8
  0
VERTEX
  8
ガラス
 10
-104.675
 20
-43.975
 70
     8
  0
VERTEX
  8
ガラス
 10
-104.7
 20
-44.0
 70
     8
  0
VERTEX
  8
ガラス
 10
-104.725
 20
-44.0
 70
     8
  0
VERTEX
  8
ガラス
 10
-104.75
 20
-44.025
 70
     8
  0
VERTEX
  8
ガラス
 10
-104.775
 20
-44.025
 70
     8
  0
VERTEX
  8
ガラス
 10
-104.8
 20
-44.025
 70
     8
  0
VERTEX
  8
ガラス
 10
-104.85
 20
-44.05
 70
     8
  0
VERTEX
  8
ガラス
 10
-104.875
 20
-44.05
 70
     8
  0
VERTEX
  8
ガラス
 10
-104.9
 20
-44.075
 70
     8
  0
VERTEX
  8
ガラス
 10
-104.925
 20
-44.075
 70
     8
  0
SEQEND
  0
ARC
  8
ガラス
  6
CONTINUOUS
 10
-105.09321
 20
-43.629399
 40
0.477567
 50
112.264588
 51
292.264588
  0
ENDBLK
  0
BLOCK
  2
*GRP_0016
 70
    65
 10
0.0
 20
0.0
  0
POLYLINE
  8
ガラス
  6
CONTINUOUS
 66
     1
 70
     4
  0
VERTEX
  8
ガラス
 10
-113.375
 20
-43.2
 70
     8
  0
VERTEX
  8
ガラス
 10
-113.325
 20
-43.2
 70
     8
  0
VERTEX
  8
ガラス
 10
-113.275
 20
-43.2
 70
     8
  0
VERTEX
  8
ガラス
 10
-113.225
 20
-43.175
 70
     8
  0
VERTEX
  8
ガラス
 10
-113.2
 20
-43.175
 70
     8
  0
VERTEX
  8
ガラス
 10
-113.15
 20
-43.175
 70
     8
  0
VERTEX
  8
ガラス
 10
-113.1
 20
-43.175
 70
     8
  0
VERTEX
  8
ガラス
 10
-113.05
 20
-43.175
 70
     8
  0
VERTEX
  8
ガラス
 10
-113.0
 20
-43.175
 70
     8
  0
VERTEX
  8
ガラス
 10
-112.975
 20
-43.175
 70
     8
  0
VERTEX
  8
ガラス
 10
-112.925
 20
-43.175
 70
     8
  0
VERTEX
  8
ガラス
 10
-112.875
 20
-43.175
 70
     8
  0
VERTEX
  8
ガラス
 10
-112.825
 20
-43.175
 70
     8
  0
VERTEX
  8
ガラス
 10
-112.775
 20
-43.175
 70
     8
  0
VERTEX
  8
ガラス
 10
-112.75
 20
-43.175
 70
     8
  0
VERTEX
  8
ガラス
 10
-112.7
 20
-43.175
 70
     8
  0
VERTEX
  8
ガラス
 10
-112.65
 20
-43.175
 70
     8
  0
VERTEX
  8
ガラス
 10
-112.625
 20
-43.2
 70
     8
  0
VERTEX
  8
ガラス
 10
-112.575
 20
-43.2
 70
     8
  0
VERTEX
  8
ガラス
 10
-112.525
 20
-43.2
 70
     8
  0
VERTEX
  8
ガラス
 10
-112.5
 20
-43.225
 70
     8
  0
VERTEX
  8
ガラス
 10
-112.45
 20
-43.25
 70
     8
  0
VERTEX
  8
ガラス
 10
-112.425
 20
-43.25
 70
     8
  0
VERTEX
  8
ガラス
 10
-112.375
 20
-43.275
 70
     8
  0
VERTEX
  8
ガラス
 10
-112.35
 20
-43.3
 70
     8
  0
VERTEX
  8
ガラス
 10
-112.325
 20
-43.325
 70
     8
  0
VERTEX
  8
ガラス
 10
-112.275
 20
-43.35
 70
     8
  0
VERTEX
  8
ガラス
 10
-112.25
 20
-43.375
 70
     8
  0
VERTEX
  8
ガラス
 10
-112.2
 20
-43.4
 70
     8
  0
VERTEX
  8
ガラス
 10
-112.175
 20
-43.425
 70
     8
  0
VERTEX
  8
ガラス
 10
-112.15
 20
-43.45
 70
     8
  0
VERTEX
  8
ガラス
 10
-112.1
 20
-43.475
 70
     8
  0
VERTEX
  8
ガラス
 10
-112.075
 20
-43.525
 70
     8
  0
VERTEX
  8
ガラス
 10
-112.05
 20
-43.55
 70
     8
  0
VERTEX
  8
ガラス
 10
-112.025
 20
-43.575
 70
     8
  0
VERTEX
  8
ガラス
 10
-111.975
 20
-43.6
 70
     8
  0
VERTEX
  8
ガラス
 10
-111.95
 20
-43.65
 70
     8
  0
VERTEX
  8
ガラス
 10
-111.925
 20
-43.675
 70
     8
  0
VERTEX
  8
ガラス
 10
-111.9
 20
-43.725
 70
     8
  0
VERTEX
  8
ガラス
 10
-111.85
 20
-43.75
 70
     8
  0
VERTEX
  8
ガラス
 10
-111.825
 20
-43.775
 70
     8
  0
SEQEND
  0
POLYLINE
  8
ガラス
  6
CONTINUOUS
 66
     1
 70
     4
  0
VERTEX
  8
ガラス
 10
-111.825
 20
-43.775
 70
     8
  0
VERTEX
  8
ガラス
 10
-111.85
 20
-43.8
 70
     8
  0
VERTEX
  8
ガラス
 10
-111.9
 20
-43.8
 70
     8
  0
VERTEX
  8
ガラス
 10
-111.925
 20
-43.8
 70
     8
  0
VERTEX
  8
ガラス
 10
-111.95
 20
-43.8
 70
     8
  0
VERTEX
  8
ガラス
 10
-111.975
 20
-43.8
 70
     8
  0
VERTEX
  8
ガラス
 10
-112.025
 20
-43.8
 70
     8
  0
VERTEX
  8
ガラス
 10
-112.05
 20
-43.8
 70
     8
  0
VERTEX
  8
ガラス
 10
-112.075
 20
-43.825
 70
     8
  0
VERTEX
  8
ガラス
 10
-112.1
 20
-43.825
 70
     8
  0
VERTEX
  8
ガラス
 10
-112.125
 20
-43.825
 70
     8
  0
VERTEX
  8
ガラス
 10
-112.175
 20
-43.825
 70
     8
  0
VERTEX
  8
ガラス
 10
-112.2
 20
-43.825
 70
     8
  0
VERTEX
  8
ガラス
 10
-112.225
 20
-43.825
 70
     8
  0
VERTEX
  8
ガラス
 10
-112.25
 20
-43.85
 70
     8
  0
VERTEX
  8
ガラス
 10
-112.3
 20
-43.85
 70
     8
  0
VERTEX
  8
ガラス
 10
-112.325
 20
-43.85
 70
     8
  0
VERTEX
  8
ガラス
 10
-112.35
 20
-43.85
 70
     8
  0
VERTEX
  8
ガラス
 10
-112.375
 20
-43.875
 70
     8
  0
VERTEX
  8
ガラス
 10
-112.4
 20
-43.875
 70
     8
  0
VERTEX
  8
ガラス
 10
-112.45
 20
-43.875
 70
     8
  0
VERTEX
  8
ガラス
 10
-112.475
 20
-43.875
 70
     8
  0
VERTEX
  8
ガラス
 10
-112.5
 20
-43.9
 70
     8
  0
VERTEX
  8
ガラス
 10
-112.525
 20
-43.9
 70
     8
  0
VERTEX
  8
ガラス
 10
-112.55
 20
-43.9
 70
     8
  0
VERTEX
  8
ガラス
 10
-112.575
 20
-43.925
 70
     8
  0
VERTEX
  8
ガラス
 10
-112.625
 20
-43.925
 70
     8
  0
VERTEX
  8
ガラス
 10
-112.65
 20
-43.95
 70
     8
  0
VERTEX
  8
ガラス
 10
-112.675
 20
-43.95
 70
     8
  0
VERTEX
  8
ガラス
 10
-112.7
 20
-43.95
 70
     8
  0
VERTEX
  8
ガラス
 10
-112.725
 20
-43.975
 70
     8
  0
VERTEX
  8
ガラス
 10
-112.75
 20
-43.975
 70
     8
  0
VERTEX
  8
ガラス
 10
-112.775
 20
-44.0
 70
     8
  0
VERTEX
  8
ガラス
 10
-112.825
 20
-44.0
 70
     8
  0
VERTEX
  8
ガラス
 10
-112.85
 20
-44.025
 70
     8
  0
VERTEX
  8
ガラス
 10
-112.875
 20
-44.025
 70
     8
  0
VERTEX
  8
ガラス
 10
-112.9
 20
-44.025
 70
     8
  0
VERTEX
  8
ガラス
 10
-112.925
 20
-44.05
 70
     8
  0
VERTEX
  8
ガラス
 10
-112.95
 20
-44.05
 70
     8
  0
VERTEX
  8
ガラス
 10
-112.975
 20
-44.075
 70
     8
  0
VERTEX
  8
ガラス
 10
-113.025
 20
-44.075
 70
     8
  0
SEQEND
  0
ARC
  8
ガラス
  6
CONTINUOUS
 10
-113.183157
 20
-43.629399
 40
0.477567
 50
112.264588
 51
292.264588
  0
ENDBLK
  0
BLOCK
  2
*GRP_0017
 70
    65
 10
0.0
 20
0.0
  0
POLYLINE
  8
ガラス
  6
CONTINUOUS
 66
     1
 70
     4
  0
VERTEX
  8
ガラス
 10
-104.65
 20
-35.4
 70
     8
  0
VERTEX
  8
ガラス
 10
-104.625
 20
-35.35
 70
     8
  0
VERTEX
  8
ガラス
 10
-104.6
 20
-35.3
 70
     8
  0
VERTEX
  8
ガラス
 10
-104.575
 20
-35.275
 70
     8
  0
VERTEX
  8
ガラス
 10
-104.575
 20
-35.225
 70
     8
  0
VERTEX
  8
ガラス
 10
-104.55
 20
-35.175
 70
     8
  0
VERTEX
  8
ガラス
 10
-104.525
 20
-35.125
 70
     8
  0
VERTEX
  8
ガラス
 10
-104.5
 20
-35.1
 70
     8
  0
VERTEX
  8
ガラス
 10
-104.5
 20
-35.05
 70
     8
  0
VERTEX
  8
ガラス
 10
-104.475
 20
-35.025
 70
     8
  0
VERTEX
  8
ガラス
 10
-104.45
 20
-34.975
 70
     8
  0
VERTEX
  8
ガラス
 10
-104.425
 20
-34.925
 70
     8
  0
VERTEX
  8
ガラス
 10
-104.4
 20
-34.9
 70
     8
  0
VERTEX
  8
ガラス
 10
-104.375
 20
-34.85
 70
     8
  0
VERTEX
  8
ガラス
 10
-104.35
 20
-34.825
 70
     8
  0
VERTEX
  8
ガラス
 10
-104.325
 20
-34.8
 70
     8
  0
VERTEX
  8
ガラス
 10
-104.3
 20
-34.75
 70
     8
  0
VERTEX
  8
ガラス
 10
-104.275
 20
-34.725
 70
     8
  0
VERTEX
  8
ガラス
 10
-104.25
 20
-34.7
 70
     8
  0
VERTEX
  8
ガラス
 10
-104.225
 20
-34.675
 70
     8
  0
VERTEX
  8
ガラス
 10
-104.2
 20
-34.625
 70
     8
  0
VERTEX
  8
ガラス
 10
-104.15
 20
-34.6
 70
     8
  0
VERTEX
  8
ガラス
 10
-104.125
 20
-34.575
 70
     8
  0
VERTEX
  8
ガラス
 10
-104.1
 20
-34.575
 70
     8
  0
VERTEX
  8
ガラス
 10
-104.05
 20
-34.55
 70
     8
  0
VERTEX
  8
ガラス
 10
-104.025
 20
-34.525
 70
     8
  0
VERTEX
  8
ガラス
 10
-103.975
 20
-34.5
 70
     8
  0
VERTEX
  8
ガラス
 10
-103.95
 20
-34.475
 70
     8
  0
VERTEX
  8
ガラス
 10
-103.9
 20
-34.475
 70
     8
  0
VERTEX
  8
ガラス
 10
-103.85
 20
-34.45
 70
     8
  0
VERTEX
  8
ガラス
 10
-103.825
 20
-34.45
 70
     8
  0
VERTEX
  8
ガラス
 10
-103.775
 20
-34.425
 70
     8
  0
VERTEX
  8
ガラス
 10
-103.725
 20
-34.4
 70
     8
  0
VERTEX
  8
ガラス
 10
-103.7
 20
-34.4
 70
     8
  0
VERTEX
  8
ガラス
 10
-103.65
 20
-34.4
 70
     8
  0
VERTEX
  8
ガラス
 10
-103.6
 20
-34.375
 70
     8
  0
VERTEX
  8
ガラス
 10
-103.55
 20
-34.375
 70
     8
  0
VERTEX
  8
ガラス
 10
-103.525
 20
-34.35
 70
     8
  0
VERTEX
  8
ガラス
 10
-103.475
 20
-34.35
 70
     8
  0
VERTEX
  8
ガラス
 10
-103.425
 20
-34.35
 70
     8
  0
VERTEX
  8
ガラス
 10
-103.375
 20
-34.325
 70
     8
  0
SEQEND
  0
POLYLINE
  8
ガラス
  6
CONTINUOUS
 66
     1
 70
     4
  0
VERTEX
  8
ガラス
 10
-103.375
 20
-34.325
 70
     8
  0
VERTEX
  8
ガラス
 10
-103.4
 20
-34.35
 70
     8
  0
VERTEX
  8
ガラス
 10
-103.4
 20
-34.375
 70
     8
  0
VERTEX
  8
ガラス
 10
-103.425
 20
-34.425
 70
     8
  0
VERTEX
  8
ガラス
 10
-103.425
 20
-34.45
 70
     8
  0
VERTEX
  8
ガラス
 10
-103.425
 20
-34.475
 70
     8
  0
VERTEX
  8
ガラス
 10
-103.45
 20
-34.5
 70
     8
  0
VERTEX
  8
ガラス
 10
-103.45
 20
-34.525
 70
     8
  0
VERTEX
  8
ガラス
 10
-103.475
 20
-34.55
 70
     8
  0
VERTEX
  8
ガラス
 10
-103.475
 20
-34.575
 70
     8
  0
VERTEX
  8
ガラス
 10
-103.5
 20
-34.625
 70
     8
  0
VERTEX
  8
ガラス
 10
-103.5
 20
-34.65
 70
     8
  0
VERTEX
  8
ガラス
 10
-103.525
 20
-34.675
 70
     8
  0
VERTEX
  8
ガラス
 10
-103.525
 20
-34.7
 70
     8
  0
VERTEX
  8
ガラス
 10
-103.525
 20
-34.725
 70
     8
  0
VERTEX
  8
ガラス
 10
-103.55
 20
-34.75
 70
     8
  0
VERTEX
  8
ガラス
 10
-103.55
 20
-34.775
 70
     8
  0
VERTEX
  8
ガラス
 10
-103.575
 20
-34.825
 70
     8
  0
VERTEX
  8
ガラス
 10
-103.575
 20
-34.85
 70
     8
  0
VERTEX
  8
ガラス
 10
-103.575
 20
-34.875
 70
     8
  0
VERTEX
  8
ガラス
 10
-103.6
 20
-34.9
 70
     8
  0
VERTEX
  8
ガラス
 10
-103.6
 20
-34.925
 70
     8
  0
VERTEX
  8
ガラス
 10
-103.6
 20
-34.95
 70
     8
  0
VERTEX
  8
ガラス
 10
-103.625
 20
-35.0
 70
     8
  0
VERTEX
  8
ガラス
 10
-103.625
 20
-35.025
 70
     8
  0
VERTEX
  8
ガラス
 10
-103.625
 20
-35.05
 70
     8
  0
VERTEX
  8
ガラス
 10
-103.625
 20
-35.075
 70
     8
  0
VERTEX
  8
ガラス
 10
-103.625
 20
-35.1
 70
     8
  0
VERTEX
  8
ガラス
 10
-103.65
 20
-35.15
 70
     8
  0
VERTEX
  8
ガラス
 10
-103.65
 20
-35.175
 70
     8
  0
VERTEX
  8
ガラス
 10
-103.65
 20
-35.2
 70
     8
  0
VERTEX
  8
ガラス
 10
-103.65
 20
-35.225
 70
     8
  0
VERTEX
  8
ガラス
 10
-103.65
 20
-35.275
 70
     8
  0
VERTEX
  8
ガラス
 10
-103.675
 20
-35.3
 70
     8
  0
VERTEX
  8
ガラス
 10
-103.675
 20
-35.325
 70
     8
  0
VERTEX
  8
ガラス
 10
-103.675
 20
-35.35
 70
     8
  0
VERTEX
  8
ガラス
 10
-103.675
 20
-35.375
 70
     8
  0
VERTEX
  8
ガラス
 10
-103.675
 20
-35.425
 70
     8
  0
VERTEX
  8
ガラス
 10
-103.675
 20
-35.45
 70
     8
  0
VERTEX
  8
ガラス
 10
-103.7
 20
-35.475
 70
     8
  0
VERTEX
  8
ガラス
 10
-103.7
 20
-35.5
 70
     8
  0
SEQEND
  0
ARC
  8
ガラス
  6
CONTINUOUS
 10
-104.152691
 20
-35.437377
 40
0.477567
 50
173.117443
 51
353.117443
  0
ENDBLK
  0
BLOCK
  2
*GRP_0018
 70
    65
 10
0.0
 20
0.0
  0
POLYLINE
  8
ガラス
  6
CONTINUOUS
 66
     1
 70
     4
  0
VERTEX
  8
ガラス
 10
-104.65
 20
-40.875
 70
     8
  0
VERTEX
  8
ガラス
 10
-104.625
 20
-40.825
 70
     8
  0
VERTEX
  8
ガラス
 10
-104.6
 20
-40.775
 70
     8
  0
VERTEX
  8
ガラス
 10
-104.575
 20
-40.725
 70
     8
  0
VERTEX
  8
ガラス
 10
-104.575
 20
-40.7
 70
     8
  0
VERTEX
  8
ガラス
 10
-104.55
 20
-40.65
 70
     8
  0
VERTEX
  8
ガラス
 10
-104.525
 20
-40.6
 70
     8
  0
VERTEX
  8
ガラス
 10
-104.5
 20
-40.575
 70
     8
  0
VERTEX
  8
ガラス
 10
-104.5
 20
-40.525
 70
     8
  0
VERTEX
  8
ガラス
 10
-104.475
 20
-40.475
 70
     8
  0
VERTEX
  8
ガラス
 10
-104.45
 20
-40.45
 70
     8
  0
VERTEX
  8
ガラス
 10
-104.425
 20
-40.4
 70
     8
  0
VERTEX
  8
ガラス
 10
-104.4
 20
-40.375
 70
     8
  0
VERTEX
  8
ガラス
 10
-104.375
 20
-40.325
 70
     8
  0
VERTEX
  8
ガラス
 10
-104.35
 20
-40.3
 70
     8
  0
VERTEX
  8
ガラス
 10
-104.325
 20
-40.25
 70
     8
  0
VERTEX
  8
ガラス
 10
-104.3
 20
-40.225
 70
     8
  0
VERTEX
  8
ガラス
 10
-104.275
 20
-40.2
 70
     8
  0
VERTEX
  8
ガラス
 10
-104.25
 20
-40.175
 70
     8
  0
VERTEX
  8
ガラス
 10
-104.225
 20
-40.125
 70
     8
  0
VERTEX
  8
ガラス
 10
-104.2
 20
-40.1
 70
     8
  0
VERTEX
  8
ガラス
 10
-104.15
 20
-40.075
 70
     8
  0
VERTEX
  8
ガラス
 10
-104.125
 20
-40.05
 70
     8
  0
VERTEX
  8
ガラス
 10
-104.1
 20
-40.025
 70
     8
  0
VERTEX
  8
ガラス
 10
-104.05
 20
-40.0
 70
     8
  0
VERTEX
  8
ガラス
 10
-104.025
 20
-40.0
 70
     8
  0
VERTEX
  8
ガラス
 10
-103.975
 20
-39.975
 70
     8
  0
VERTEX
  8
ガラス
 10
-103.95
 20
-39.95
 70
     8
  0
VERTEX
  8
ガラス
 10
-103.9
 20
-39.95
 70
     8
  0
VERTEX
  8
ガラス
 10
-103.85
 20
-39.925
 70
     8
  0
VERTEX
  8
ガラス
 10
-103.825
 20
-39.9
 70
     8
  0
VERTEX
  8
ガラス
 10
-103.775
 20
-39.9
 70
     8
  0
VERTEX
  8
ガラス
 10
-103.725
 20
-39.875
 70
     8
  0
VERTEX
  8
ガラス
 10
-103.7
 20
-39.875
 70
     8
  0
VERTEX
  8
ガラス
 10
-103.65
 20
-39.85
 70
     8
  0
VERTEX
  8
ガラス
 10
-103.6
 20
-39.85
 70
     8
  0
VERTEX
  8
ガラス
 10
-103.55
 20
-39.85
 70
     8
  0
VERTEX
  8
ガラス
 10
-103.525
 20
-39.825
 70
     8
  0
VERTEX
  8
ガラス
 10
-103.475
 20
-39.825
 70
     8
  0
VERTEX
  8
ガラス
 10
-103.425
 20
-39.8
 70
     8
  0
VERTEX
  8
ガラス
 10
-103.375
 20
-39.8
 70
     8
  0
SEQEND
  0
POLYLINE
  8
ガラス
  6
CONTINUOUS
 66
     1
 70
     4
  0
VERTEX
  8
ガラス
 10
-103.375
 20
-39.8
 70
     8
  0
VERTEX
  8
ガラス
 10
-103.4
 20
-39.825
 70
     8
  0
VERTEX
  8
ガラス
 10
-103.4
 20
-39.85
 70
     8
  0
VERTEX
  8
ガラス
 10
-103.425
 20
-39.875
 70
     8
  0
VERTEX
  8
ガラス
 10
-103.425
 20
-39.925
 70
     8
  0
VERTEX
  8
ガラス
 10
-103.425
 20
-39.95
 70
     8
  0
VERTEX
  8
ガラス
 10
-103.45
 20
-39.975
 70
     8
  0
VERTEX
  8
ガラス
 10
-103.45
 20
-40.0
 70
     8
  0
VERTEX
  8
ガラス
 10
-103.475
 20
-40.025
 70
     8
  0
VERTEX
  8
ガラス
 10
-103.475
 20
-40.05
 70
     8
  0
VERTEX
  8
ガラス
 10
-103.5
 20
-40.075
 70
     8
  0
VERTEX
  8
ガラス
 10
-103.5
 20
-40.1
 70
     8
  0
VERTEX
  8
ガラス
 10
-103.525
 20
-40.15
 70
     8
  0
VERTEX
  8
ガラス
 10
-103.525
 20
-40.175
 70
     8
  0
VERTEX
  8
ガラス
 10
-103.525
 20
-40.2
 70
     8
  0
VERTEX
  8
ガラス
 10
-103.55
 20
-40.225
 70
     8
  0
VERTEX
  8
ガラス
 10
-103.55
 20
-40.25
 70
     8
  0
VERTEX
  8
ガラス
 10
-103.575
 20
-40.275
 70
     8
  0
VERTEX
  8
ガラス
 10
-103.575
 20
-40.325
 70
     8
  0
VERTEX
  8
ガラス
 10
-103.575
 20
-40.35
 70
     8
  0
VERTEX
  8
ガラス
 10
-103.6
 20
-40.375
 70
     8
  0
VERTEX
  8
ガラス
 10
-103.6
 20
-40.4
 70
     8
  0
VERTEX
  8
ガラス
 10
-103.6
 20
-40.425
 70
     8
  0
VERTEX
  8
ガラス
 10
-103.625
 20
-40.475
 70
     8
  0
VERTEX
  8
ガラス
 10
-103.625
 20
-40.5
 70
     8
  0
VERTEX
  8
ガラス
 10
-103.625
 20
-40.525
 70
     8
  0
VERTEX
  8
ガラス
 10
-103.625
 20
-40.55
 70
     8
  0
VERTEX
  8
ガラス
 10
-103.625
 20
-40.575
 70
     8
  0
VERTEX
  8
ガラス
 10
-103.65
 20
-40.6
 70
     8
  0
VERTEX
  8
ガラス
 10
-103.65
 20
-40.65
 70
     8
  0
VERTEX
  8
ガラス
 10
-103.65
 20
-40.675
 70
     8
  0
VERTEX
  8
ガラス
 10
-103.65
 20
-40.7
 70
     8
  0
VERTEX
  8
ガラス
 10
-103.65
 20
-40.725
 70
     8
  0
VERTEX
  8
ガラス
 10
-103.675
 20
-40.775
 70
     8
  0
VERTEX
  8
ガラス
 10
-103.675
 20
-40.8
 70
     8
  0
VERTEX
  8
ガラス
 10
-103.675
 20
-40.825
 70
     8
  0
VERTEX
  8
ガラス
 10
-103.675
 20
-40.85
 70
     8
  0
VERTEX
  8
ガラス
 10
-103.675
 20
-40.875
 70
     8
  0
VERTEX
  8
ガラス
 10
-103.675
 20
-40.925
 70
     8
  0
VERTEX
  8
ガラス
 10
-103.7
 20
-40.95
 70
     8
  0
VERTEX
  8
ガラス
 10
-103.7
 20
-40.975
 70
     8
  0
SEQEND
  0
ARC
  8
ガラス
  6
CONTINUOUS
 10
-104.152691
 20
-40.908276
 40
0.477567
 50
173.117443
 51
353.117443
  0
ENDBLK
  0
BLOCK
  2
*GRP_0019
 70
    65
 10
0.0
 20
0.0
  0
POLYLINE
  8
ガラス
  6
CONTINUOUS
 66
     1
 70
     4
  0
VERTEX
  8
ガラス
 10
-109.0
 20
-31.15
 70
     8
  0
VERTEX
  8
ガラス
 10
-109.025
 20
-31.1
 70
     8
  0
VERTEX
  8
ガラス
 10
-109.05
 20
-31.05
 70
     8
  0
VERTEX
  8
ガラス
 10
-109.05
 20
-31.025
 70
     8
  0
VERTEX
  8
ガラス
 10
-109.075
 20
-30.975
 70
     8
  0
VERTEX
  8
ガラス
 10
-109.1
 20
-30.925
 70
     8
  0
VERTEX
  8
ガラス
 10
-109.125
 20
-30.9
 70
     8
  0
VERTEX
  8
ガラス
 10
-109.125
 20
-30.85
 70
     8
  0
VERTEX
  8
ガラス
 10
-109.15
 20
-30.8
 70
     8
  0
VERTEX
  8
ガラス
 10
-109.175
 20
-30.775
 70
     8
  0
VERTEX
  8
ガラス
 10
-109.2
 20
-30.725
 70
     8
  0
VERTEX
  8
ガラス
 10
-109.225
 20
-30.7
 70
     8
  0
VERTEX
  8
ガラス
 10
-109.25
 20
-30.65
 70
     8
  0
VERTEX
  8
ガラス
 10
-109.25
 20
-30.625
 70
     8
  0
VERTEX
  8
ガラス
 10
-109.275
 20
-30.575
 70
     8
  0
VERTEX
  8
ガラス
 10
-109.3
 20
-30.55
 70
     8
  0
VERTEX
  8
ガラス
 10
-109.325
 20
-30.5
 70
     8
  0
VERTEX
  8
ガラス
 10
-109.375
 20
-30.475
 70
     8
  0
VERTEX
  8
ガラス
 10
-109.4
 20
-30.45
 70
     8
  0
VERTEX
  8
ガラス
 10
-109.425
 20
-30.425
 70
     8
  0
VERTEX
  8
ガラス
 10
-109.45
 20
-30.4
 70
     8
  0
VERTEX
  8
ガラス
 10
-109.475
 20
-30.375
 70
     8
  0
VERTEX
  8
ガラス
 10
-109.525
 20
-30.35
 70
     8
  0
VERTEX
  8
ガラス
 10
-109.55
 20
-30.325
 70
     8
  0
VERTEX
  8
ガラス
 10
-109.575
 20
-30.3
 70
     8
  0
VERTEX
  8
ガラス
 10
-109.625
 20
-30.275
 70
     8
  0
VERTEX
  8
ガラス
 10
-109.65
 20
-30.25
 70
     8
  0
VERTEX
  8
ガラス
 10
-109.7
 20
-30.25
 70
     8
  0
VERTEX
  8
ガラス
 10
-109.75
 20
-30.225
 70
     8
  0
VERTEX
  8
ガラス
 10
-109.775
 20
-30.2
 70
     8
  0
VERTEX
  8
ガラス
 10
-109.825
 20
-30.2
 70
     8
  0
VERTEX
  8
ガラス
 10
-109.875
 20
-30.175
 70
     8
  0
VERTEX
  8
ガラス
 10
-109.9
 20
-30.175
 70
     8
  0
VERTEX
  8
ガラス
 10
-109.95
 20
-30.15
 70
     8
  0
VERTEX
  8
ガラス
 10
-110.0
 20
-30.15
 70
     8
  0
VERTEX
  8
ガラス
 10
-110.05
 20
-30.125
 70
     8
  0
VERTEX
  8
ガラス
 10
-110.075
 20
-30.125
 70
     8
  0
VERTEX
  8
ガラス
 10
-110.125
 20
-30.1
 70
     8
  0
VERTEX
  8
ガラス
 10
-110.175
 20
-30.1
 70
     8
  0
VERTEX
  8
ガラス
 10
-110.225
 20
-30.1
 70
     8
  0
VERTEX
  8
ガラス
 10
-110.275
 20
-30.075
 70
     8
  0
SEQEND
  0
POLYLINE
  8
ガラス
  6
CONTINUOUS
 66
     1
 70
     4
  0
VERTEX
  8
ガラス
 10
-110.275
 20
-30.075
 70
     8
  0
VERTEX
  8
ガラス
 10
-110.25
 20
-30.1
 70
     8
  0
VERTEX
  8
ガラス
 10
-110.25
 20
-30.15
 70
     8
  0
VERTEX
  8
ガラス
 10
-110.225
 20
-30.175
 70
     8
  0
VERTEX
  8
ガラス
 10
-110.225
 20
-30.2
 70
     8
  0
VERTEX
  8
ガラス
 10
-110.2
 20
-30.225
 70
     8
  0
VERTEX
  8
ガラス
 10
-110.2
 20
-30.25
 70
     8
  0
VERTEX
  8
ガラス
 10
-110.175
 20
-30.275
 70
     8
  0
VERTEX
  8
ガラス
 10
-110.175
 20
-30.3
 70
     8
  0
VERTEX
  8
ガラス
 10
-110.15
 20
-30.35
 70
     8
  0
VERTEX
  8
ガラス
 10
-110.15
 20
-30.375
 70
     8
  0
VERTEX
  8
ガラス
 10
-110.15
 20
-30.4
 70
     8
  0
VERTEX
  8
ガラス
 10
-110.125
 20
-30.425
 70
     8
  0
VERTEX
  8
ガラス
 10
-110.125
 20
-30.45
 70
     8
  0
VERTEX
  8
ガラス
 10
-110.1
 20
-30.475
 70
     8
  0
VERTEX
  8
ガラス
 10
-110.1
 20
-30.5
 70
     8
  0
VERTEX
  8
ガラス
 10
-110.075
 20
-30.55
 70
     8
  0
VERTEX
  8
ガラス
 10
-110.075
 20
-30.575
 70
     8
  0
VERTEX
  8
ガラス
 10
-110.075
 20
-30.6
 70
     8
  0
VERTEX
  8
ガラス
 10
-110.05
 20
-30.625
 70
     8
  0
VERTEX
  8
ガラス
 10
-110.05
 20
-30.65
 70
     8
  0
VERTEX
  8
ガラス
 10
-110.05
 20
-30.675
 70
     8
  0
VERTEX
  8
ガラス
 10
-110.025
 20
-30.725
 70
     8
  0
VERTEX
  8
ガラス
 10
-110.025
 20
-30.75
 70
     8
  0
VERTEX
  8
ガラス
 10
-110.025
 20
-30.775
 70
     8
  0
VERTEX
  8
ガラス
 10
-110.025
 20
-30.8
 70
     8
  0
VERTEX
  8
ガラス
 10
-110.0
 20
-30.825
 70
     8
  0
VERTEX
  8
ガラス
 10
-110.0
 20
-30.875
 70
     8
  0
VERTEX
  8
ガラス
 10
-110.0
 20
-30.9
 70
     8
  0
VERTEX
  8
ガラス
 10
-110.0
 20
-30.925
 70
     8
  0
VERTEX
  8
ガラス
 10
-110.0
 20
-30.95
 70
     8
  0
VERTEX
  8
ガラス
 10
-109.975
 20
-30.975
 70
     8
  0
VERTEX
  8
ガラス
 10
-109.975
 20
-31.025
 70
     8
  0
VERTEX
  8
ガラス
 10
-109.975
 20
-31.05
 70
     8
  0
VERTEX
  8
ガラス
 10
-109.975
 20
-31.075
 70
     8
  0
VERTEX
  8
ガラス
 10
-109.975
 20
-31.1
 70
     8
  0
VERTEX
  8
ガラス
 10
-109.975
 20
-31.15
 70
     8
  0
VERTEX
  8
ガラス
 10
-109.95
 20
-31.175
 70
     8
  0
VERTEX
  8
ガラス
 10
-109.95
 20
-31.2
 70
     8
  0
VERTEX
  8
ガラス
 10
-109.95
 20
-31.225
 70
     8
  0
VERTEX
  8
ガラス
 10
-109.95
 20
-31.25
 70
     8
  0
SEQEND
  0
ARC
  8
ガラス
  6
CONTINUOUS
 10
-109.465113
 20
-31.191522
 40
0.477567
 50
186.882557
 51
366.882557
  0
ENDBLK
  0
BLOCK
  2
*GRP_0020
 70
    65
 10
0.0
 20
0.0
  0
LINE
  8
ゴム等
  6
DOT
 10
-120.05633
 20
-25.24782
 11
-121.824095
 21
-23.480055
  0
LINE
  8
ゴム等
  6
DOT
 10
-118.995668
 20
-20.65163
 11
-110.156835
 21
-29.490465
  0
LINE
  8
ゴム等
  6
DOT
 10
-120.05633
 20
-25.24782
 11
-122.531205
 21
-27.722697
  0
LINE
  8
ゴム等
  6
DOT
 10
-117.581452
 20
-32.672443
 11
-113.338813
 21
-32.672443
  0
LINE
  8
ゴム等
  6
DOT
 10
-110.156835
 20
-29.490465
 11
-113.338813
 21
-32.672443
  0
LINE
  8
ゴム等
  6
DOT
 10
-118.995668
 20
-20.65163
 11
-115.990463
 21
-32.672443
  0
LINE
  8
ゴム等
  6
DOT
 10
-118.995668
 20
-20.65163
 11
-121.824095
 21
-23.480055
  0
LINE
  8
ゴム等
  6
DOT
 10
-117.581458
 20
-32.672443
 11
-122.531205
 21
-27.722697
  0
ENDBLK
  0
BLOCK
  2
*GRP_0021
 70
    65
 10
0.0
 20
0.0
  0
LINE
  8
ボルト／ビス
  6
CONTINUOUS
 62
    64
 10
-110.5184
 20
-51.161932
 11
-110.56425
 21
-51.686015
  0
ARC
  8
ボルト／ビス
  6
CONTINUOUS
 62
    64
 10
-111.411013
 20
-51.61193
 40
0.85
 50
270.0
 51
355.000011
  0
LINE
  8
ボルト／ビス
  6
CONTINUOUS
 62
    64
 10
-111.411015
 20
-52.461935
 11
-112.268397
 21
-52.461935
  0
LINE
  8
ボルト／ビス
  6
CONTINUOUS
 62
    64
 10
-114.018397
 20
-51.161932
 11
-113.972548
 21
-51.686015
  0
ARC
  8
ボルト／ビス
  6
CONTINUOUS
 62
    64
 10
-113.12578
 20
-51.61193
 40
0.85
 50
184.999989
 51
270.0
  0
LINE
  8
ボルト／ビス
  6
CONTINUOUS
 62
    64
 10
-113.125782
 20
-52.461935
 11
-112.268397
 21
-52.461935
  0
LINE
  8
ボルト／ビス
  6
CONTINUOUS
 62
    64
 10
-111.070078
 20
-52.26948
 11
-111.070078
 21
-52.39056
  0
LINE
  8
ボルト／ビス
  6
CONTINUOUS
 62
    64
 10
-111.918398
 20
-51.94444
 11
-112.268397
 21
-51.94444
  0
LINE
  8
ボルト／ビス
  6
CONTINUOUS
 62
    64
 10
-111.7184
 20
-52.26948
 11
-111.070078
 21
-52.26948
  0
LINE
  8
ボルト／ビス
  6
CONTINUOUS
 62
    64
 10
-111.918398
 20
-51.94444
 11
-111.918398
 21
-52.069482
  0
ARC
  8
ボルト／ビス
  6
CONTINUOUS
 62
    64
 10
-111.718397
 20
-52.069477
 40
0.2
 50
180.0
 51
270.0
  0
LINE
  8
ボルト／ビス
  6
CONTINUOUS
 62
    64
 10
-113.466717
 20
-52.26948
 11
-113.466717
 21
-52.39056
  0
LINE
  8
ボルト／ビス
  6
CONTINUOUS
 62
    64
 10
-112.6184
 20
-51.94444
 11
-112.268397
 21
-51.94444
  0
LINE
  8
ボルト／ビス
  6
CONTINUOUS
 62
    64
 10
-112.818397
 20
-52.26948
 11
-113.466717
 21
-52.26948
  0
LINE
  8
ボルト／ビス
  6
CONTINUOUS
 62
    64
 10
-112.6184
 20
-51.94444
 11
-112.6184
 21
-52.069482
  0
ARC
  8
ボルト／ビス
  6
CONTINUOUS
 62
    64
 10
-112.818397
 20
-52.069477
 40
0.2
 50
270.0
 51
360.0
  0
LINE
  8
ボルト／ビス
  6
CONTINUOUS
 62
    64
 10
-110.5184
 20
-51.161932
 11
-114.018397
 21
-51.161932
  0
LINE
  8
ボルト／ビス
  6
CONTINUOUS
 62
    64
 10
-111.2684
 20
-47.411932
 11
-111.518397
 21
-47.161932
  0
LINE
  8
ボルト／ビス
  6
CONTINUOUS
 62
    64
 10
-113.268397
 20
-47.411932
 11
-113.018397
 21
-47.161932
  0
LINE
  8
ボルト／ビス
  6
CONTINUOUS
 62
    64
 10
-111.518397
 20
-51.161932
 11
-111.518397
 21
-47.161932
  0
LINE
  8
ボルト／ビス
  6
CONTINUOUS
 62
    64
 10
-111.2684
 20
-51.161932
 11
-111.2684
 21
-47.411932
  0
LINE
  8
ボルト／ビス
  6
CONTINUOUS
 62
    64
 10
-113.018397
 20
-51.161932
 11
-113.018397
 21
-47.161932
  0
LINE
  8
ボルト／ビス
  6
CONTINUOUS
 62
    64
 10
-113.268397
 20
-51.161932
 11
-113.268397
 21
-47.411932
  0
LINE
  8
ボルト／ビス
  6
CONTINUOUS
 62
    64
 10
-111.2684
 20
-47.411932
 11
-113.268397
 21
-47.411932
  0
LINE
  8
ボルト／ビス
  6
CONTINUOUS
 62
    64
 10
-111.518397
 20
-47.161932
 11
-113.018397
 21
-47.161932
  0
LINE
  8
ボルト／ビス
  6
CONTINUOUS
 62
    64
 10
-112.268397
 20
-53.447625
 11
-112.268397
 21
-46.036685
  0
ENDBLK
  0
BLOCK
  2
*GRP_0022
 70
    65
 10
0.0
 20
0.0
  0
LINE
  8
ボルト／ビス
  6
CONTINUOUS
 62
    64
 10
-113.093393
 20
-70.28925
 11
-112.865745
 21
-70.914713
  0
ARC
  8
ボルト／ビス
  6
CONTINUOUS
 62
    64
 10
-111.046306
 20
-69.97652
 40
2.047085
 50
152.722034
 51
180.0
  0
LINE
  8
ボルト／ビス
  6
CONTINUOUS
 62
    64
 10
-113.093393
 20
-64.034623
 11
-112.865745
 21
-63.40916
  0
ARC
  8
ボルト／ビス
  6
CONTINUOUS
 62
    64
 10
-111.046306
 20
-64.347352
 40
2.047085
 50
180.0
 51
207.277966
  0
ARC
  8
ボルト／ビス
  6
CONTINUOUS
 62
    64
 10
-105.246524
 20
-67.161936
 40
7.846866
 50
166.165046
 51
193.834954
  0
LINE
  8
ボルト／ビス
  6
CONTINUOUS
 62
    64
 10
-110.518393
 20
-70.914713
 11
-112.865745
 21
-70.914713
  0
LINE
  8
ボルト／ビス
  6
CONTINUOUS
 62
    64
 10
-110.518393
 20
-63.40916
 11
-112.865745
 21
-63.40916
  0
LINE
  8
ボルト／ビス
  6
CONTINUOUS
 62
    64
 10
-113.093393
 20
-64.034623
 11
-113.093393
 21
-70.28925
  0
LINE
  8
ボルト／ビス
  6
CONTINUOUS
 62
    64
 10
-112.865745
 20
-65.285548
 11
-110.518393
 21
-65.285548
  0
LINE
  8
ボルト／ビス
  6
CONTINUOUS
 62
    64
 10
-112.865745
 20
-69.038328
 11
-110.518393
 21
-69.038328
  0
LINE
  8
ボルト／ビス
  6
CONTINUOUS
 62
    64
 10
-110.518393
 20
-63.40916
 11
-110.518393
 21
-70.914713
  0
LINE
  8
ボルト／ビス
  6
CONTINUOUS
 62
    64
 10
-109.618393
 20
-71.536938
 11
-109.118393
 21
-71.536938
  0
LINE
  8
ボルト／ビス
  6
CONTINUOUS
 62
    64
 10
-109.618393
 20
-62.786938
 11
-109.118393
 21
-62.786938
  0
LINE
  8
ボルト／ビス
  6
CONTINUOUS
 62
    64
 10
-109.618393
 20
-71.536938
 11
-109.618393
 21
-62.786938
  0
LINE
  8
ボルト／ビス
  6
CONTINUOUS
 62
    64
 10
-109.118393
 20
-71.536938
 11
-109.118393
 21
-62.786938
  0
LINE
  8
ボルト／ビス
  6
CONTINUOUS
 62
    64
 10
-110.518393
 20
-67.161935
 11
-109.618393
 21
-67.161935
  0
LINE
  8
ボルト／ビス
  6
CONTINUOUS
 62
    64
 10
-110.518393
 20
-63.211938
 11
-109.618393
 21
-63.211938
  0
LINE
  8
ボルト／ビス
  6
CONTINUOUS
 62
    64
 10
-110.518393
 20
-71.111938
 11
-109.618393
 21
-71.111938
  0
LINE
  8
ボルト／ビス
  6
CONTINUOUS
 62
    64
 10
-110.518393
 20
-63.211938
 11
-110.518393
 21
-71.111938
  0
LINE
  8
ボルト／ビス
  6
CONTINUOUS
 62
    64
 10
-115.593395
 20
-67.161935
 11
-95.518393
 21
-67.161935
  0
LINE
  8
ボルト／ビス
  6
CONTINUOUS
 62
    64
 10
-98.018393
 20
-65.561938
 11
-98.018393
 21
-68.761938
  0
LINE
  8
ボルト／ビス
  6
CONTINUOUS
 62
    64
 10
-98.618393
 20
-65.161938
 11
-98.018393
 21
-65.561938
  0
LINE
  8
ボルト／ビス
  6
CONTINUOUS
 62
    64
 10
-98.618393
 20
-69.161938
 11
-98.018393
 21
-68.761938
  0
LINE
  8
ボルト／ビス
  6
CONTINUOUS
 62
    64
 10
-98.018393
 20
-65.561938
 11
-98.018393
 21
-68.761938
  0
LINE
  8
ボルト／ビス
  6
CONTINUOUS
 62
    64
 10
-98.618393
 20
-65.161938
 11
-98.618393
 21
-69.161938
  0
LINE
  8
ボルト／ビス
  6
CONTINUOUS
 62
    64
 10
-109.118393
 20
-65.161938
 11
-98.618393
 21
-65.161938
  0
LINE
  8
ボルト／ビス
  6
CONTINUOUS
 62
    64
 10
-109.118393
 20
-69.161938
 11
-98.618393
 21
-69.161938
  0
LINE
  8
ボルト／ビス
  6
CONTINUOUS
 62
    64
 10
-109.118393
 20
-65.561938
 11
-98.018393
 21
-65.561938
  0
LINE
  8
ボルト／ビス
  6
CONTINUOUS
 62
    64
 10
-109.118393
 20
-68.761938
 11
-98.018393
 21
-68.761938
  0
ENDBLK
  0
BLOCK
  2
*GRP_0023
 70
    65
 10
0.0
 20
0.0
  0
LINE
  8
ボルト／ビス
  6
CONTINUOUS
 62
    64
 10
-101.94339
 20
-70.289247
 11
-102.171037
 21
-70.91471
  0
ARC
  8
ボルト／ビス
  6
CONTINUOUS
 62
    64
 10
-103.990474
 20
-69.976518
 40
2.047085
 50
0.0
 51
27.277966
  0
LINE
  8
ボルト／ビス
  6
CONTINUOUS
 62
    64
 10
-101.94339
 20
-64.034617
 11
-102.171037
 21
-63.409155
  0
ARC
  8
ボルト／ビス
  6
CONTINUOUS
 62
    64
 10
-103.990474
 20
-64.34735
 40
2.047085
 50
332.722034
 51
360.0
  0
ARC
  8
ボルト／ビス
  6
CONTINUOUS
 62
    64
 10
-109.790255
 20
-67.161934
 40
7.846866
 50
346.165046
 51
373.834954
  0
LINE
  8
ボルト／ビス
  6
CONTINUOUS
 62
    64
 10
-104.518387
 20
-70.91471
 11
-102.171037
 21
-70.91471
  0
LINE
  8
ボルト／ビス
  6
CONTINUOUS
 62
    64
 10
-104.518387
 20
-63.409155
 11
-102.171037
 21
-63.409155
  0
LINE
  8
ボルト／ビス
  6
CONTINUOUS
 62
    64
 10
-101.94339
 20
-64.034617
 11
-101.94339
 21
-70.289247
  0
LINE
  8
ボルト／ビス
  6
CONTINUOUS
 62
    64
 10
-102.171037
 20
-65.285542
 11
-104.518387
 21
-65.285542
  0
LINE
  8
ボルト／ビス
  6
CONTINUOUS
 62
    64
 10
-102.171037
 20
-69.038322
 11
-104.518387
 21
-69.038322
  0
LINE
  8
ボルト／ビス
  6
CONTINUOUS
 62
    64
 10
-104.518387
 20
-63.409155
 11
-104.518387
 21
-70.91471
  0
LINE
  8
ボルト／ビス
  6
CONTINUOUS
 62
    64
 10
-105.418387
 20
-71.536932
 11
-105.91839
 21
-71.536932
  0
LINE
  8
ボルト／ビス
  6
CONTINUOUS
 62
    64
 10
-105.418387
 20
-62.786932
 11
-105.91839
 21
-62.786932
  0
LINE
  8
ボルト／ビス
  6
CONTINUOUS
 62
    64
 10
-105.418387
 20
-71.536932
 11
-105.418387
 21
-62.786932
  0
LINE
  8
ボルト／ビス
  6
CONTINUOUS
 62
    64
 10
-105.91839
 20
-71.536932
 11
-105.91839
 21
-62.786932
  0
LINE
  8
ボルト／ビス
  6
CONTINUOUS
 62
    64
 10
-104.518387
 20
-67.16193
 11
-105.418387
 21
-67.16193
  0
LINE
  8
ボルト／ビス
  6
CONTINUOUS
 62
    64
 10
-104.518387
 20
-63.211932
 11
-105.418387
 21
-63.211932
  0
LINE
  8
ボルト／ビス
  6
CONTINUOUS
 62
    64
 10
-104.518387
 20
-71.111932
 11
-105.418387
 21
-71.111932
  0
LINE
  8
ボルト／ビス
  6
CONTINUOUS
 62
    64
 10
-104.518387
 20
-63.211932
 11
-104.518387
 21
-71.111932
  0
ENDBLK
  0
BLOCK
  2
*GRP_0024
 70
    65
 10
0.0
 20
0.0
  0
LINE
  8
ボルト／ビス
  6
CONTINUOUS
 62
    64
 10
-116.668393
 20
-52.22832
 11
-117.192472
 21
-52.18247
  0
ARC
  8
ボルト／ビス
  6
CONTINUOUS
 62
    64
 10
-117.118388
 20
-51.335708
 40
0.85
 50
180.0
 51
265.000011
  0
LINE
  8
ボルト／ビス
  6
CONTINUOUS
 62
    64
 10
-117.968393
 20
-51.335705
 11
-117.968393
 21
-50.47832
  0
LINE
  8
ボルト／ビス
  6
CONTINUOUS
 62
    64
 10
-116.668393
 20
-48.728323
 11
-117.192472
 21
-48.774172
  0
ARC
  8
ボルト／ビス
  6
CONTINUOUS
 62
    64
 10
-117.118388
 20
-49.620941
 40
0.85
 50
94.999989
 51
180.0
  0
LINE
  8
ボルト／ビス
  6
CONTINUOUS
 62
    64
 10
-117.968393
 20
-49.620938
 11
-117.968393
 21
-50.47832
  0
LINE
  8
ボルト／ビス
  6
CONTINUOUS
 62
    64
 10
-117.77594
 20
-51.67664
 11
-117.89702
 21
-51.67664
  0
LINE
  8
ボルト／ビス
  6
CONTINUOUS
 62
    64
 10
-117.450897
 20
-50.828323
 11
-117.450897
 21
-50.47832
  0
LINE
  8
ボルト／ビス
  6
CONTINUOUS
 62
    64
 10
-117.77594
 20
-51.02832
 11
-117.77594
 21
-51.67664
  0
LINE
  8
ボルト／ビス
  6
CONTINUOUS
 62
    64
 10
-117.450897
 20
-50.828323
 11
-117.57594
 21
-50.828323
  0
ARC
  8
ボルト／ビス
  6
CONTINUOUS
 62
    64
 10
-117.575936
 20
-51.028325
 40
0.2
 50
90.0
 51
180.0
  0
LINE
  8
ボルト／ビス
  6
CONTINUOUS
 62
    64
 10
-117.77594
 20
-49.28
 11
-117.89702
 21
-49.28
  0
LINE
  8
ボルト／ビス
  6
CONTINUOUS
 62
    64
 10
-117.450897
 20
-50.12832
 11
-117.450897
 21
-50.47832
  0
LINE
  8
ボルト／ビス
  6
CONTINUOUS
 62
    64
 10
-117.77594
 20
-49.928323
 11
-117.77594
 21
-49.28
  0
LINE
  8
ボルト／ビス
  6
CONTINUOUS
 62
    64
 10
-117.450897
 20
-50.12832
 11
-117.57594
 21
-50.12832
  0
ARC
  8
ボルト／ビス
  6
CONTINUOUS
 62
    64
 10
-117.575936
 20
-49.928325
 40
0.2
 50
180.0
 51
270.0
  0
LINE
  8
ボルト／ビス
  6
CONTINUOUS
 62
    64
 10
-116.668393
 20
-52.22832
 11
-116.668393
 21
-48.728323
  0
LINE
  8
ボルト／ビス
  6
CONTINUOUS
 62
    64
 10
-112.918393
 20
-51.47832
 11
-112.66839
 21
-51.22832
  0
LINE
  8
ボルト／ビス
  6
CONTINUOUS
 62
    64
 10
-112.918393
 20
-49.478323
 11
-112.66839
 21
-49.72832
  0
LINE
  8
ボルト／ビス
  6
CONTINUOUS
 62
    64
 10
-116.668393
 20
-51.22832
 11
-112.66839
 21
-51.22832
  0
LINE
  8
ボルト／ビス
  6
CONTINUOUS
 62
    64
 10
-116.668393
 20
-51.47832
 11
-112.918393
 21
-51.47832
  0
LINE
  8
ボルト／ビス
  6
CONTINUOUS
 62
    64
 10
-116.668393
 20
-49.72832
 11
-112.66839
 21
-49.72832
  0
LINE
  8
ボルト／ビス
  6
CONTINUOUS
 62
    64
 10
-116.668393
 20
-49.478323
 11
-112.918393
 21
-49.478323
  0
LINE
  8
ボルト／ビス
  6
CONTINUOUS
 62
    64
 10
-112.918393
 20
-51.47832
 11
-112.918393
 21
-49.478323
  0
LINE
  8
ボルト／ビス
  6
CONTINUOUS
 62
    64
 10
-112.66839
 20
-51.22832
 11
-112.66839
 21
-49.72832
  0
LINE
  8
ボルト／ビス
  6
CONTINUOUS
 62
    64
 10
-118.954085
 20
-50.47832
 11
-111.543142
 21
-50.47832
  0
ENDBLK
  0
BLOCK
  2
*GRP_0025
 70
    65
 10
0.0
 20
0.0
  0
LINE
  8
ボルト／ビス
  6
CONTINUOUS
 62
    64
 10
-82.268393
 20
-51.161932
 11
-82.314243
 21
-51.686015
  0
ARC
  8
ボルト／ビス
  6
CONTINUOUS
 62
    64
 10
-83.161006
 20
-51.61193
 40
0.85
 50
270.0
 51
355.000011
  0
LINE
  8
ボルト／ビス
  6
CONTINUOUS
 62
    64
 10
-83.161007
 20
-52.461935
 11
-84.01839
 21
-52.461935
  0
LINE
  8
ボルト／ビス
  6
CONTINUOUS
 62
    64
 10
-85.76839
 20
-51.161932
 11
-85.72254
 21
-51.686015
  0
ARC
  8
ボルト／ビス
  6
CONTINUOUS
 62
    64
 10
-84.875772
 20
-51.61193
 40
0.85
 50
184.999989
 51
270.0
  0
LINE
  8
ボルト／ビス
  6
CONTINUOUS
 62
    64
 10
-84.875775
 20
-52.461935
 11
-84.01839
 21
-52.461935
  0
LINE
  8
ボルト／ビス
  6
CONTINUOUS
 62
    64
 10
-82.82007
 20
-52.26948
 11
-82.82007
 21
-52.39056
  0
LINE
  8
ボルト／ビス
  6
CONTINUOUS
 62
    64
 10
-83.66839
 20
-51.94444
 11
-84.01839
 21
-51.94444
  0
LINE
  8
ボルト／ビス
  6
CONTINUOUS
 62
    64
 10
-83.468393
 20
-52.26948
 11
-82.82007
 21
-52.26948
  0
LINE
  8
ボルト／ビス
  6
CONTINUOUS
 62
    64
 10
-83.66839
 20
-51.94444
 11
-83.66839
 21
-52.069482
  0
ARC
  8
ボルト／ビス
  6
CONTINUOUS
 62
    64
 10
-83.468389
 20
-52.069477
 40
0.2
 50
180.0
 51
270.0
  0
LINE
  8
ボルト／ビス
  6
CONTINUOUS
 62
    64
 10
-85.21671
 20
-52.26948
 11
-85.21671
 21
-52.39056
  0
LINE
  8
ボルト／ビス
  6
CONTINUOUS
 62
    64
 10
-84.368393
 20
-51.94444
 11
-84.01839
 21
-51.94444
  0
LINE
  8
ボルト／ビス
  6
CONTINUOUS
 62
    64
 10
-84.56839
 20
-52.26948
 11
-85.21671
 21
-52.26948
  0
LINE
  8
ボルト／ビス
  6
CONTINUOUS
 62
    64
 10
-84.368393
 20
-51.94444
 11
-84.368393
 21
-52.069482
  0
ARC
  8
ボルト／ビス
  6
CONTINUOUS
 62
    64
 10
-84.568389
 20
-52.069477
 40
0.2
 50
270.0
 51
360.0
  0
LINE
  8
ボルト／ビス
  6
CONTINUOUS
 62
    64
 10
-82.268393
 20
-51.161932
 11
-85.76839
 21
-51.161932
  0
LINE
  8
ボルト／ビス
  6
CONTINUOUS
 62
    64
 10
-83.018393
 20
-47.411932
 11
-83.26839
 21
-47.161932
  0
LINE
  8
ボルト／ビス
  6
CONTINUOUS
 62
    64
 10
-85.01839
 20
-47.411932
 11
-84.76839
 21
-47.161932
  0
LINE
  8
ボルト／ビス
  6
CONTINUOUS
 62
    64
 10
-83.26839
 20
-51.161932
 11
-83.26839
 21
-47.161932
  0
LINE
  8
ボルト／ビス
  6
CONTINUOUS
 62
    64
 10
-83.018393
 20
-51.161932
 11
-83.018393
 21
-47.411932
  0
LINE
  8
ボルト／ビス
  6
CONTINUOUS
 62
    64
 10
-84.76839
 20
-51.161932
 11
-84.76839
 21
-47.161932
  0
LINE
  8
ボルト／ビス
  6
CONTINUOUS
 62
    64
 10
-85.01839
 20
-51.161932
 11
-85.01839
 21
-47.411932
  0
LINE
  8
ボルト／ビス
  6
CONTINUOUS
 62
    64
 10
-83.018393
 20
-47.411932
 11
-85.01839
 21
-47.411932
  0
LINE
  8
ボルト／ビス
  6
CONTINUOUS
 62
    64
 10
-83.26839
 20
-47.161932
 11
-84.76839
 21
-47.161932
  0
LINE
  8
ボルト／ビス
  6
CONTINUOUS
 62
    64
 10
-84.01839
 20
-53.447625
 11
-84.01839
 21
-46.036685
  0
ENDBLK
  0
BLOCK
  2
*GRP_0026
 70
    65
 10
0.0
 20
0.0
  0
LINE
  8
St
  6
CONTINUOUS
 10
-81.268393
 20
-51.161932
 11
-115.018393
 21
-51.161932
  0
LINE
  8
St
  6
CONTINUOUS
 10
-115.018393
 20
-49.561932
 11
-115.018393
 21
-51.161932
  0
LINE
  8
St
  6
CONTINUOUS
 10
-81.268393
 20
-49.561932
 11
-81.268393
 21
-51.161932
  0
ARC
  8
St
  6
CONTINUOUS
 10
-105.918391
 20
-51.161929
 40
1.6
 50
90.0
 51
180.0
  0
LINE
  8
St
  6
CONTINUOUS
 10
-81.268393
 20
-49.561932
 11
-115.018393
 21
-49.561932
  0
LINE
  8
St
  6
CONTINUOUS
 10
-105.91839
 20
-51.161932
 11
-105.91839
 21
-73.561932
  0
LINE
  8
St
  6
CONTINUOUS
 10
-105.91839
 20
-73.561932
 11
-107.518393
 21
-73.561932
  0
LINE
  8
St
  6
CONTINUOUS
 10
-107.518393
 20
-51.161932
 11
-107.518393
 21
-73.561932
  0
LINE
  8
St
  6
DOT
 10
-107.518393
 20
-64.661932
 11
-105.91839
 21
-64.661932
  0
LINE
  8
St
  6
DOT
 10
-107.518393
 20
-69.661938
 11
-105.91839
 21
-69.661938
  0
LINE
  8
St
  6
DOT
 10
-107.11839
 20
-69.661938
 11
-107.11839
 21
-64.661932
  0
LINE
  8
St
  6
DOT
 10
-106.71839
 20
-69.661938
 11
-106.71839
 21
-64.661932
  0
LINE
  8
St
  6
DOT
 10
-106.318393
 20
-69.661938
 11
-106.318393
 21
-64.661932
  0
LINE
  8
St
  6
CONTINUOUS
 10
-89.312405
 20
-49.561932
 11
-90.912405
 21
-51.161932
  0
LINE
  8
St
  6
CONTINUOUS
 10
-88.958855
 20
-49.561932
 11
-90.558855
 21
-51.161932
  0
LINE
  8
St
  6
CONTINUOUS
 10
-108.383097
 20
-49.561932
 11
-109.983097
 21
-51.161932
  0
LINE
  8
St
  6
CONTINUOUS
 10
-108.029547
 20
-49.561932
 11
-109.629547
 21
-51.161932
  0
LINE
  8
St
  6
CONTINUOUS
 10
-105.91839
 20
-60.983152
 11
-107.518393
 21
-62.583155
  0
LINE
  8
St
  6
CONTINUOUS
 10
-105.91839
 20
-61.336702
 11
-107.518393
 21
-62.936705
  0
LINE
  8
St
  6
DOT
 10
-111.88839
 20
-49.561932
 11
-111.88839
 21
-51.161932
  0
LINE
  8
St
  6
DOT
 10
-114.13839
 20
-49.561932
 11
-114.13839
 21
-51.161932
  0
LINE
  8
St
  6
DOT
 10
-114.13839
 20
-49.96193
 11
-111.88839
 21
-49.96193
  0
LINE
  8
St
  6
DOT
 10
-114.13839
 20
-50.36193
 11
-111.88839
 21
-50.36193
  0
LINE
  8
St
  6
DOT
 10
-114.13839
 20
-50.761932
 11
-111.88839
 21
-50.761932
  0
LINE
  8
St
  6
DOT
 10
-82.888388
 20
-49.561932
 11
-82.888388
 21
-51.161932
  0
LINE
  8
St
  6
DOT
 10
-85.138388
 20
-49.561932
 11
-85.138388
 21
-51.161932
  0
LINE
  8
St
  6
DOT
 10
-85.138388
 20
-49.96193
 11
-82.888388
 21
-49.96193
  0
LINE
  8
St
  6
DOT
 10
-85.138388
 20
-50.36193
 11
-82.888388
 21
-50.36193
  0
LINE
  8
St
  6
DOT
 10
-85.138388
 20
-50.761932
 11
-82.888388
 21
-50.761932
  0
LINE
  8
St
  6
CONTINUOUS
 10
-110.50428
 20
-67.161935
 11
-103.369107
 21
-67.161935
  0
LINE
  8
St
  6
DOT
 10
-84.01839
 20
-49.561932
 11
-84.01839
 21
-51.161932
  0
LINE
  8
St
  6
DOT
 10
-113.018393
 20
-51.161932
 11
-113.018393
 21
-49.561932
  0
ENDBLK
  0
BLOCK
  2
*GRP_0027
 70
    65
 10
0.0
 20
0.0
  0
LINE
  8
型材断面
  6
CONTINUOUS
 10
-116.518393
 20
-50.47832
 11
-116.668393
 21
-50.32832
  0
LINE
  8
型材断面
  6
CONTINUOUS
 10
-116.518393
 20
-50.47832
 11
-116.668393
 21
-50.62832
  0
LINE
  8
型材断面
  6
CONTINUOUS
 62
    47
 10
-180.768455
 20
-92.29941
 11
-179.868455
 21
-92.29941
  0
LINE
  8
型材断面
  6
CONTINUOUS
 10
-179.868448
 20
-88.29941
 11
-179.868455
 21
-92.29941
  0
LINE
  8
型材断面
  6
CONTINUOUS
 10
-179.868443
 20
-87.54941
 11
-179.868395
 21
-63.085253
  0
LINE
  8
型材断面
  6
CONTINUOUS
 62
    47
 10
-180.768455
 20
-92.29941
 11
-180.768395
 21
-62.29941
  0
LINE
  8
型材断面
  6
CONTINUOUS
 10
-174.304725
 20
-62.32829
 11
-179.868395
 21
-63.085253
  0
LINE
  8
型材断面
  6
CONTINUOUS
 10
-144.32151
 20
-58.248942
 11
-173.56157
 21
-62.227182
  0
LINE
  8
型材断面
  6
CONTINUOUS
 10
-143.578355
 20
-58.147835
 11
-116.518393
 21
-54.466205
  0
LINE
  8
型材断面
  6
CONTINUOUS
 10
-180.768395
 20
-62.29941
 11
-116.668393
 21
-53.57832
  0
LINE
  8
型材断面
  6
CONTINUOUS
 10
-115.768393
 20
-47.72832
 11
-116.668393
 21
-47.72832
  0
LINE
  8
型材断面
  6
CONTINUOUS
 10
-116.668393
 20
-53.57832
 11
-116.668393
 21
-50.62832
  0
LINE
  8
型材断面
  6
CONTINUOUS
 10
-116.668393
 20
-50.32832
 11
-116.668393
 21
-47.72832
  0
LINE
  8
型材断面
  6
CONTINUOUS
 10
-173.437752
 20
-63.11863
 11
-171.555092
 21
-62.862485
  0
LINE
  8
型材断面
  6
CONTINUOUS
 10
-171.555092
 20
-62.862485
 11
-171.45191
 21
-63.60536
  0
LINE
  8
型材断面
  6
CONTINUOUS
 10
-171.45191
 20
-63.60536
 11
-174.07773
 21
-63.962615
  0
LINE
  8
型材断面
  6
CONTINUOUS
 10
-144.203218
 20
-59.14113
 11
-146.085883
 21
-59.397275
  0
LINE
  8
型材断面
  6
CONTINUOUS
 10
-146.085883
 20
-59.397275
 11
-145.98684
 21
-60.140712
  0
LINE
  8
型材断面
  6
CONTINUOUS
 10
-145.98684
 20
-60.140712
 11
-143.36102
 21
-59.783457
  0
LINE
  8
型材断面
  6
CONTINUOUS
 10
-173.436928
 20
-63.118517
 11
-173.56074
 21
-62.22707
  0
LINE
  8
型材断面
  6
CONTINUOUS
 10
-174.076902
 20
-63.962503
 11
-174.303898
 21
-62.328178
  0
LINE
  8
型材断面
  6
CONTINUOUS
 10
-144.203218
 20
-59.14113
 11
-144.322062
 21
-58.249017
  0
LINE
  8
型材断面
  6
CONTINUOUS
 10
-143.36102
 20
-59.783457
 11
-143.57891
 21
-58.14791
  0
LINE
  8
型材断面
  6
CONTINUOUS
 10
-118.408095
 20
-56.388515
 11
-118.509207
 21
-55.645357
  0
LINE
  8
型材断面
  6
CONTINUOUS
 62
    47
 10
-115.768393
 20
-47.72832
 11
-115.768393
 21
-56.02937
  0
LINE
  8
型材断面
  6
CONTINUOUS
 10
-118.408095
 20
-56.388515
 11
-115.768393
 21
-56.02937
  0
LINE
  8
型材断面
  6
CONTINUOUS
 10
-118.509207
 20
-55.645357
 11
-116.518393
 21
-55.3745
  0
LINE
  8
型材断面
  6
CONTINUOUS
 10
-116.518393
 20
-54.466205
 11
-116.518393
 21
-55.3745
  0
LINE
  8
型材断面
  6
CONTINUOUS
 10
-178.21844
 20
-86.29941
 11
-178.96844
 21
-86.29941
  0
LINE
  8
型材断面
  6
CONTINUOUS
 10
-178.96844
 20
-87.54941
 11
-178.96844
 21
-86.29941
  0
LINE
  8
型材断面
  6
CONTINUOUS
 10
-178.21844
 20
-87.79941
 11
-178.21844
 21
-86.29941
  0
ARC
  8
型材断面
  6
CONTINUOUS
 10
-178.718446
 20
-87.799411
 40
0.5
 50
-90.0
 51
0.0
  0
LINE
  8
型材断面
  6
CONTINUOUS
 10
-178.96844
 20
-87.54941
 11
-179.868443
 21
-87.54941
  0
LINE
  8
型材断面
  6
CONTINUOUS
 10
-178.718443
 20
-88.29941
 11
-179.868448
 21
-88.29941
  0
ENDBLK
  0
BLOCK
  2
*DIM_0028
 70
    65
 10
0.0
 20
0.0
  0
LINE
  8
寸法
  6
CONTINUOUS
 10
-59.768393
 20
-45.31193
 11
-32.484548
 21
-45.31193
  0
LINE
  8
寸法
  6
CONTINUOUS
 10
-76.268393
 20
-49.561932
 11
-32.484548
 21
-49.561932
  0
LINE
  8
寸法
  6
CONTINUOUS
 10
-32.484548
 20
-45.31193
 11
-32.484548
 21
-49.561932
  0
POINT
  8
寸法
 10
-32.484548
 20
-45.31193
  0
POINT
  8
寸法
 10
-32.484548
 20
-49.561932
  0
TEXT
  7
TextStyle03
  8
寸法
  6
CONTINUOUS
 10
-28.375
 20
-50.7
  1
8.5
 40
4.0
 50
90.0
 72
     5
 11
-28.375
 21
-44.2
  0
ENDBLK
  0
BLOCK
  2
*DIM_0029
 70
    65
 10
0.0
 20
0.0
  0
LINE
  8
寸法
  6
CONTINUOUS
 10
-82.26839
 20
-79.561932
 11
-32.484548
 21
-79.561932
  0
LINE
  8
寸法
  6
CONTINUOUS
 10
-32.484548
 20
-49.561932
 11
-32.484548
 21
-79.561932
  0
POINT
  8
寸法
 10
-32.484548
 20
-49.561932
  0
POINT
  8
寸法
 10
-32.484548
 20
-79.561932
  0
TEXT
  7
TextStyle03
  8
寸法
  6
CONTINUOUS
 10
-32.875
 20
-66.7
  1
60
 40
4.0
 50
90.0
 72
     5
 11
-32.875
 21
-62.45
  0
ENDBLK
  0
BLOCK
  2
*DIM_0030
 70
    65
 10
0.0
 20
0.0
  0
LINE
  8
寸法
  6
CONTINUOUS
 10
-59.768393
 20
-29.311932
 11
-32.484548
 21
-29.311932
  0
LINE
  8
寸法
  6
CONTINUOUS
 10
-32.484548
 20
-45.31193
 11
-32.484548
 21
-29.311932
  0
POINT
  8
寸法
 10
-32.484548
 20
-45.31193
  0
POINT
  8
寸法
 10
-32.484548
 20
-29.311932
  0
TEXT
  7
TextStyle03
  8
寸法
  6
CONTINUOUS
 10
-32.875
 20
-39.45
  1
32
 40
4.0
 50
90.0
 72
     5
 11
-32.875
 21
-35.2
  0
ENDBLK
  0
BLOCK
  2
*DIM_0031
 70
    65
 10
0.0
 20
0.0
  0
LINE
  8
寸法
  6
CONTINUOUS
 10
-64.768393
 20
-24.311932
 11
-64.768393
 21
89.463587
  0
LINE
  8
寸法
  6
CONTINUOUS
 10
-75.30014
 20
89.463587
 11
-64.768393
 21
89.463587
  0
POINT
  8
寸法
 10
-75.30014
 20
89.463587
  0
POINT
  8
寸法
 10
-64.768393
 20
89.463587
  0
TEXT
  7
TextStyle03
  8
寸法
  6
CONTINUOUS
 10
-74.425
 20
89.825
  1
21.1
 40
4.0
 72
     5
 11
-65.675
 21
89.825
  0
ENDBLK
  0
BLOCK
  2
*DIM_0032
 70
    65
 10
0.0
 20
0.0
  0
LINE
  8
寸法
  6
CONTINUOUS
 10
-130.76709
 20
-22.47493
 11
-130.76709
 21
96.593288
  0
LINE
  8
寸法
  6
CONTINUOUS
 10
-64.768393
 20
-24.311932
 11
-64.768393
 21
96.593288
  0
LINE
  8
寸法
  6
CONTINUOUS
 10
-130.76709
 20
96.593288
 11
-64.768393
 21
96.593288
  0
POINT
  8
寸法
 10
-130.76709
 20
96.593288
  0
POINT
  8
寸法
 10
-64.768393
 20
96.593288
  0
TEXT
  7
TextStyle03
  8
寸法
  6
CONTINUOUS
 10
-101.025
 20
96.95
  1
132
 40
4.0
 72
     5
 11
-94.525
 21
96.95
  0
ENDBLK
  0
BLOCK
  2
*DIM_0033
 70
    65
 10
0.0
 20
0.0
  0
LINE
  8
寸法
  6
CONTINUOUS
 10
-130.76709
 20
-22.47493
 11
-130.76709
 21
103.303955
  0
LINE
  8
寸法
  6
CONTINUOUS
 10
-75.30014
 20
103.303955
 11
-130.76709
 21
103.303955
  0
POINT
  8
寸法
 10
-75.30014
 20
103.303955
  0
POINT
  8
寸法
 10
-130.76709
 20
103.303955
  0
TEXT
  7
TextStyle03
  8
寸法
  6
CONTINUOUS
 10
-108.55
 20
103.675
  1
110.9
 40
4.0
 72
     5
 11
-97.55
 21
103.675
  0
ENDBLK
  0
BLOCK
  2
*GRP_0034
 70
    65
 10
0.0
 20
0.0
  0
LINE
  8
型材断面
  6
CONTINUOUS
 10
95.227297
 20
-50.47832
 11
95.377297
 21
-50.32832
  0
LINE
  8
型材断面
  6
CONTINUOUS
 10
95.227297
 20
-50.47832
 11
95.377297
 21
-50.62832
  0
LINE
  8
型材断面
  6
CONTINUOUS
 62
    47
 10
159.47736
 20
-92.29941
 11
158.57736
 21
-92.29941
  0
LINE
  8
型材断面
  6
CONTINUOUS
 10
158.577353
 20
-88.29941
 11
158.57736
 21
-92.29941
  0
LINE
  8
型材断面
  6
CONTINUOUS
 10
158.577348
 20
-87.54941
 11
158.5773
 21
-63.085253
  0
LINE
  8
型材断面
  6
CONTINUOUS
 62
    47
 10
159.47736
 20
-92.29941
 11
159.4773
 21
-62.29941
  0
LINE
  8
型材断面
  6
CONTINUOUS
 10
153.01363
 20
-62.32829
 11
158.5773
 21
-63.085253
  0
LINE
  8
型材断面
  6
CONTINUOUS
 10
123.030415
 20
-58.248942
 11
152.270475
 21
-62.227182
  0
LINE
  8
型材断面
  6
CONTINUOUS
 10
122.28726
 20
-58.147835
 11
95.227297
 21
-54.466205
  0
LINE
  8
型材断面
  6
CONTINUOUS
 10
159.4773
 20
-62.29941
 11
95.377297
 21
-53.57832
  0
LINE
  8
型材断面
  6
CONTINUOUS
 10
94.477297
 20
-47.72832
 11
95.377297
 21
-47.72832
  0
LINE
  8
型材断面
  6
CONTINUOUS
 10
95.377297
 20
-53.57832
 11
95.377297
 21
-50.62832
  0
LINE
  8
型材断面
  6
CONTINUOUS
 10
95.377297
 20
-50.32832
 11
95.377297
 21
-47.72832
  0
LINE
  8
型材断面
  6
CONTINUOUS
 10
152.146658
 20
-63.11863
 11
150.263998
 21
-62.862485
  0
LINE
  8
型材断面
  6
CONTINUOUS
 10
150.263998
 20
-62.862485
 11
150.160815
 21
-63.60536
  0
LINE
  8
型材断面
  6
CONTINUOUS
 10
150.160815
 20
-63.60536
 11
152.786635
 21
-63.962615
  0
LINE
  8
型材断面
  6
CONTINUOUS
 10
122.912123
 20
-59.14113
 11
124.794787
 21
-59.397275
  0
LINE
  8
型材断面
  6
CONTINUOUS
 10
124.794787
 20
-59.397275
 11
124.695745
 21
-60.140712
  0
LINE
  8
型材断面
  6
CONTINUOUS
 10
124.695745
 20
-60.140712
 11
122.069925
 21
-59.783457
  0
LINE
  8
型材断面
  6
CONTINUOUS
 10
152.145832
 20
-63.118517
 11
152.269645
 21
-62.22707
  0
LINE
  8
型材断面
  6
CONTINUOUS
 10
152.785808
 20
-63.962503
 11
153.012802
 21
-62.328178
  0
LINE
  8
型材断面
  6
CONTINUOUS
 10
122.912123
 20
-59.14113
 11
123.030968
 21
-58.249017
  0
LINE
  8
型材断面
  6
CONTINUOUS
 10
122.069925
 20
-59.783457
 11
122.287815
 21
-58.14791
  0
LINE
  8
型材断面
  6
CONTINUOUS
 10
97.117
 20
-56.388515
 11
97.218112
 21
-55.645357
  0
LINE
  8
型材断面
  6
CONTINUOUS
 62
    47
 10
94.477297
 20
-47.72832
 11
94.477297
 21
-56.02937
  0
LINE
  8
型材断面
  6
CONTINUOUS
 10
97.117
 20
-56.388515
 11
94.477297
 21
-56.02937
  0
LINE
  8
型材断面
  6
CONTINUOUS
 10
97.218112
 20
-55.645357
 11
95.227297
 21
-55.3745
  0
LINE
  8
型材断面
  6
CONTINUOUS
 10
95.227297
 20
-54.466205
 11
95.227297
 21
-55.3745
  0
LINE
  8
型材断面
  6
CONTINUOUS
 10
156.927345
 20
-86.29941
 11
157.677345
 21
-86.29941
  0
LINE
  8
型材断面
  6
CONTINUOUS
 10
157.677345
 20
-87.54941
 11
157.677345
 21
-86.29941
  0
LINE
  8
型材断面
  6
CONTINUOUS
 10
156.927345
 20
-87.79941
 11
156.927345
 21
-86.29941
  0
ARC
  8
型材断面
  6
CONTINUOUS
 10
157.427351
 20
-87.799411
 40
0.5
 50
180.0
 51
270.0
  0
LINE
  8
型材断面
  6
CONTINUOUS
 10
157.677345
 20
-87.54941
 11
158.577348
 21
-87.54941
  0
LINE
  8
型材断面
  6
CONTINUOUS
 10
157.427348
 20
-88.29941
 11
158.577353
 21
-88.29941
  0
ENDBLK
  0
BLOCK
  2
*GRP_0035
 70
    65
 10
0.0
 20
0.0
  0
LINE
  8
ボルト／ビス
  6
CONTINUOUS
 62
    64
 10
91.802297
 20
-70.28925
 11
91.57465
 21
-70.914713
  0
ARC
  8
ボルト／ビス
  6
CONTINUOUS
 62
    64
 10
89.755211
 20
-69.97652
 40
2.047085
 50
0.0
 51
27.277966
  0
LINE
  8
ボルト／ビス
  6
CONTINUOUS
 62
    64
 10
91.802297
 20
-64.034623
 11
91.57465
 21
-63.40916
  0
ARC
  8
ボルト／ビス
  6
CONTINUOUS
 62
    64
 10
89.755211
 20
-64.347352
 40
2.047085
 50
332.722034
 51
360.0
  0
ARC
  8
ボルト／ビス
  6
CONTINUOUS
 62
    64
 10
83.955429
 20
-67.161936
 40
7.846866
 50
346.165046
 51
373.834954
  0
LINE
  8
ボルト／ビス
  6
CONTINUOUS
 62
    64
 10
89.227297
 20
-70.914713
 11
91.57465
 21
-70.914713
  0
LINE
  8
ボルト／ビス
  6
CONTINUOUS
 62
    64
 10
89.227297
 20
-63.40916
 11
91.57465
 21
-63.40916
  0
LINE
  8
ボルト／ビス
  6
CONTINUOUS
 62
    64
 10
91.802297
 20
-64.034623
 11
91.802297
 21
-70.28925
  0
LINE
  8
ボルト／ビス
  6
CONTINUOUS
 62
    64
 10
91.57465
 20
-65.285548
 11
89.227297
 21
-65.285548
  0
LINE
  8
ボルト／ビス
  6
CONTINUOUS
 62
    64
 10
91.57465
 20
-69.038328
 11
89.227297
 21
-69.038328
  0
LINE
  8
ボルト／ビス
  6
CONTINUOUS
 62
    64
 10
89.227297
 20
-63.40916
 11
89.227297
 21
-70.914713
  0
LINE
  8
ボルト／ビス
  6
CONTINUOUS
 62
    64
 10
88.327297
 20
-71.536938
 11
87.827297
 21
-71.536938
  0
LINE
  8
ボルト／ビス
  6
CONTINUOUS
 62
    64
 10
88.327297
 20
-62.786938
 11
87.827297
 21
-62.786938
  0
LINE
  8
ボルト／ビス
  6
CONTINUOUS
 62
    64
 10
88.327297
 20
-71.536938
 11
88.327297
 21
-62.786938
  0
LINE
  8
ボルト／ビス
  6
CONTINUOUS
 62
    64
 10
87.827297
 20
-71.536938
 11
87.827297
 21
-62.786938
  0
LINE
  8
ボルト／ビス
  6
CONTINUOUS
 62
    64
 10
89.227297
 20
-67.161935
 11
88.327297
 21
-67.161935
  0
LINE
  8
ボルト／ビス
  6
CONTINUOUS
 62
    64
 10
89.227297
 20
-63.211938
 11
88.327297
 21
-63.211938
  0
LINE
  8
ボルト／ビス
  6
CONTINUOUS
 62
    64
 10
89.227297
 20
-71.111938
 11
88.327297
 21
-71.111938
  0
LINE
  8
ボルト／ビス
  6
CONTINUOUS
 62
    64
 10
89.227297
 20
-63.211938
 11
89.227297
 21
-71.111938
  0
LINE
  8
ボルト／ビス
  6
CONTINUOUS
 62
    64
 10
94.3023
 20
-67.161935
 11
74.227297
 21
-67.161935
  0
LINE
  8
ボルト／ビス
  6
CONTINUOUS
 62
    64
 10
76.727297
 20
-65.561938
 11
76.727297
 21
-68.761938
  0
LINE
  8
ボルト／ビス
  6
CONTINUOUS
 62
    64
 10
77.327297
 20
-65.161938
 11
76.727297
 21
-65.561938
  0
LINE
  8
ボルト／ビス
  6
CONTINUOUS
 62
    64
 10
77.327297
 20
-69.161938
 11
76.727297
 21
-68.761938
  0
LINE
  8
ボルト／ビス
  6
CONTINUOUS
 62
    64
 10
76.727297
 20
-65.561938
 11
76.727297
 21
-68.761938
  0
LINE
  8
ボルト／ビス
  6
CONTINUOUS
 62
    64
 10
77.327297
 20
-65.161938
 11
77.327297
 21
-69.161938
  0
LINE
  8
ボルト／ビス
  6
CONTINUOUS
 62
    64
 10
87.827297
 20
-65.161938
 11
77.327297
 21
-65.161938
  0
LINE
  8
ボルト／ビス
  6
CONTINUOUS
 62
    64
 10
87.827297
 20
-69.161938
 11
77.327297
 21
-69.161938
  0
LINE
  8
ボルト／ビス
  6
CONTINUOUS
 62
    64
 10
87.827297
 20
-65.561938
 11
76.727297
 21
-65.561938
  0
LINE
  8
ボルト／ビス
  6
CONTINUOUS
 62
    64
 10
87.827297
 20
-68.761938
 11
76.727297
 21
-68.761938
  0
ENDBLK
  0
BLOCK
  2
*GRP_0036
 70
    65
 10
0.0
 20
0.0
  0
LINE
  8
ボルト／ビス
  6
CONTINUOUS
 62
    64
 10
80.652295
 20
-70.289247
 11
80.879942
 21
-70.91471
  0
ARC
  8
ボルト／ビス
  6
CONTINUOUS
 62
    64
 10
82.699379
 20
-69.976518
 40
2.047085
 50
152.722034
 51
180.0
  0
LINE
  8
ボルト／ビス
  6
CONTINUOUS
 62
    64
 10
80.652295
 20
-64.034617
 11
80.879942
 21
-63.409155
  0
ARC
  8
ボルト／ビス
  6
CONTINUOUS
 62
    64
 10
82.699379
 20
-64.34735
 40
2.047085
 50
180.0
 51
207.277966
  0
ARC
  8
ボルト／ビス
  6
CONTINUOUS
 62
    64
 10
88.49916
 20
-67.161934
 40
7.846866
 50
166.165046
 51
193.834954
  0
LINE
  8
ボルト／ビス
  6
CONTINUOUS
 62
    64
 10
83.227292
 20
-70.91471
 11
80.879942
 21
-70.91471
  0
LINE
  8
ボルト／ビス
  6
CONTINUOUS
 62
    64
 10
83.227292
 20
-63.409155
 11
80.879942
 21
-63.409155
  0
LINE
  8
ボルト／ビス
  6
CONTINUOUS
 62
    64
 10
80.652295
 20
-64.034617
 11
80.652295
 21
-70.289247
  0
LINE
  8
ボルト／ビス
  6
CONTINUOUS
 62
    64
 10
80.879942
 20
-65.285542
 11
83.227292
 21
-65.285542
  0
LINE
  8
ボルト／ビス
  6
CONTINUOUS
 62
    64
 10
80.879942
 20
-69.038322
 11
83.227292
 21
-69.038322
  0
LINE
  8
ボルト／ビス
  6
CONTINUOUS
 62
    64
 10
83.227292
 20
-63.409155
 11
83.227292
 21
-70.91471
  0
LINE
  8
ボルト／ビス
  6
CONTINUOUS
 62
    64
 10
84.127292
 20
-71.536932
 11
84.627295
 21
-71.536932
  0
LINE
  8
ボルト／ビス
  6
CONTINUOUS
 62
    64
 10
84.127292
 20
-62.786932
 11
84.627295
 21
-62.786932
  0
LINE
  8
ボルト／ビス
  6
CONTINUOUS
 62
    64
 10
84.127292
 20
-71.536932
 11
84.127292
 21
-62.786932
  0
LINE
  8
ボルト／ビス
  6
CONTINUOUS
 62
    64
 10
84.627295
 20
-71.536932
 11
84.627295
 21
-62.786932
  0
LINE
  8
ボルト／ビス
  6
CONTINUOUS
 62
    64
 10
83.227292
 20
-67.16193
 11
84.127292
 21
-67.16193
  0
LINE
  8
ボルト／ビス
  6
CONTINUOUS
 62
    64
 10
83.227292
 20
-63.211932
 11
84.127292
 21
-63.211932
  0
LINE
  8
ボルト／ビス
  6
CONTINUOUS
 62
    64
 10
83.227292
 20
-71.111932
 11
84.127292
 21
-71.111932
  0
LINE
  8
ボルト／ビス
  6
CONTINUOUS
 62
    64
 10
83.227292
 20
-63.211932
 11
83.227292
 21
-71.111932
  0
ENDBLK
  0
BLOCK
  2
*GRP_0037
 70
    65
 10
0.0
 20
0.0
  0
LINE
  8
St
  6
CONTINUOUS
 10
59.977297
 20
-51.161932
 11
93.727297
 21
-51.161932
  0
LINE
  8
St
  6
CONTINUOUS
 10
93.727297
 20
-49.561932
 11
93.727297
 21
-51.161932
  0
LINE
  8
St
  6
CONTINUOUS
 10
59.977297
 20
-49.561932
 11
59.977297
 21
-51.161932
  0
ARC
  8
St
  6
CONTINUOUS
 10
84.627296
 20
-51.161929
 40
1.6
 50
0.0
 51
90.0
  0
LINE
  8
St
  6
CONTINUOUS
 10
59.977297
 20
-49.561932
 11
93.727297
 21
-49.561932
  0
LINE
  8
St
  6
CONTINUOUS
 10
84.627295
 20
-51.161932
 11
84.627295
 21
-73.561932
  0
LINE
  8
St
  6
CONTINUOUS
 10
84.627295
 20
-73.561932
 11
86.227297
 21
-73.561932
  0
LINE
  8
St
  6
CONTINUOUS
 10
86.227297
 20
-51.161932
 11
86.227297
 21
-73.561932
  0
LINE
  8
St
  6
DOT
 10
86.227297
 20
-64.661932
 11
84.627295
 21
-64.661932
  0
LINE
  8
St
  6
DOT
 10
86.227297
 20
-69.661938
 11
84.627295
 21
-69.661938
  0
LINE
  8
St
  6
DOT
 10
85.827295
 20
-69.661938
 11
85.827295
 21
-64.661932
  0
LINE
  8
St
  6
DOT
 10
85.427295
 20
-69.661938
 11
85.427295
 21
-64.661932
  0
LINE
  8
St
  6
DOT
 10
85.027297
 20
-69.661938
 11
85.027297
 21
-64.661932
  0
LINE
  8
St
  6
CONTINUOUS
 10
68.02131
 20
-49.561932
 11
69.62131
 21
-51.161932
  0
LINE
  8
St
  6
CONTINUOUS
 10
67.66776
 20
-49.561932
 11
69.26776
 21
-51.161932
  0
LINE
  8
St
  6
CONTINUOUS
 10
87.092002
 20
-49.561932
 11
88.692002
 21
-51.161932
  0
LINE
  8
St
  6
CONTINUOUS
 10
86.738452
 20
-49.561932
 11
88.338452
 21
-51.161932
  0
LINE
  8
St
  6
CONTINUOUS
 10
84.627295
 20
-60.983152
 11
86.227297
 21
-62.583155
  0
LINE
  8
St
  6
CONTINUOUS
 10
84.627295
 20
-61.336702
 11
86.227297
 21
-62.936705
  0
LINE
  8
St
  6
DOT
 10
90.597295
 20
-49.561932
 11
90.597295
 21
-51.161932
  0
LINE
  8
St
  6
DOT
 10
92.847295
 20
-49.561932
 11
92.847295
 21
-51.161932
  0
LINE
  8
St
  6
DOT
 10
92.847295
 20
-49.96193
 11
90.597295
 21
-49.96193
  0
LINE
  8
St
  6
DOT
 10
92.847295
 20
-50.36193
 11
90.597295
 21
-50.36193
  0
LINE
  8
St
  6
DOT
 10
92.847295
 20
-50.761932
 11
90.597295
 21
-50.761932
  0
LINE
  8
St
  6
DOT
 10
61.597293
 20
-49.561932
 11
61.597293
 21
-51.161932
  0
LINE
  8
St
  6
DOT
 10
63.847293
 20
-49.561932
 11
63.847293
 21
-51.161932
  0
LINE
  8
St
  6
DOT
 10
63.847293
 20
-49.96193
 11
61.597293
 21
-49.96193
  0
LINE
  8
St
  6
DOT
 10
63.847293
 20
-50.36193
 11
61.597293
 21
-50.36193
  0
LINE
  8
St
  6
DOT
 10
63.847293
 20
-50.761932
 11
61.597293
 21
-50.761932
  0
LINE
  8
St
  6
CONTINUOUS
 10
89.213185
 20
-67.161935
 11
82.078012
 21
-67.161935
  0
LINE
  8
St
  6
DOT
 10
62.727295
 20
-49.561932
 11
62.727295
 21
-51.161932
  0
LINE
  8
St
  6
DOT
 10
91.727297
 20
-51.161932
 11
91.727297
 21
-49.561932
  0
ENDBLK
  0
BLOCK
  2
*DIM_0038
 70
    65
 10
0.0
 20
0.0
  0
LINE
  8
寸法
  6
CONTINUOUS
 10
38.477297
 20
-29.311932
 11
11.193453
 21
-29.311932
  0
LINE
  8
寸法
  6
CONTINUOUS
 10
38.477297
 20
-45.31193
 11
11.193453
 21
-45.31193
  0
LINE
  8
寸法
  6
CONTINUOUS
 10
11.193453
 20
-29.311932
 11
11.193453
 21
-45.31193
  0
POINT
  8
寸法
 10
11.193453
 20
-29.311932
  0
POINT
  8
寸法
 10
11.193453
 20
-45.31193
  0
TEXT
  7
TextStyle03
  8
寸法
  6
CONTINUOUS
 10
10.8
 20
-39.45
  1
32
 40
4.0
 50
90.0
 72
     5
 11
10.8
 21
-35.2
  0
ENDBLK
  0
BLOCK
  2
*DIM_0039
 70
    65
 10
0.0
 20
0.0
  0
LINE
  8
寸法
  6
CONTINUOUS
 10
54.977297
 20
-49.561932
 11
11.193453
 21
-49.561932
  0
LINE
  8
寸法
  6
CONTINUOUS
 10
11.193453
 20
-45.31193
 11
11.193453
 21
-49.561932
  0
POINT
  8
寸法
 10
11.193453
 20
-45.31193
  0
POINT
  8
寸法
 10
11.193453
 20
-49.561932
  0
TEXT
  7
TextStyle03
  8
寸法
  6
CONTINUOUS
 10
10.8
 20
-50.7
  1
8.5
 40
4.0
 50
90.0
 72
     5
 11
10.8
 21
-44.2
  0
ENDBLK
  0
BLOCK
  2
*DIM_0040
 70
    65
 10
0.0
 20
0.0
  0
LINE
  8
寸法
  6
CONTINUOUS
 10
60.977295
 20
-79.561932
 11
11.193453
 21
-79.561932
  0
LINE
  8
寸法
  6
CONTINUOUS
 10
11.193453
 20
-49.561932
 11
11.193453
 21
-79.561932
  0
POINT
  8
寸法
 10
11.193453
 20
-79.561932
  0
TEXT
  7
TextStyle03
  8
寸法
  6
CONTINUOUS
 10
10.8
 20
-66.7
  1
60
 40
4.0
 50
90.0
 72
     5
 11
10.8
 21
-62.45
  0
ENDBLK
  0
BLOCK
  2
*GRP_0041
 70
    65
 10
0.0
 20
0.0
  0
POLYLINE
  8
ガラス
  6
CONTINUOUS
 66
     1
 70
     4
  0
VERTEX
  8
ガラス
 10
103.725
 20
-47.3
 70
     8
  0
VERTEX
  8
ガラス
 10
103.725
 20
-47.275
 70
     8
  0
VERTEX
  8
ガラス
 10
103.7
 20
-47.225
 70
     8
  0
VERTEX
  8
ガラス
 10
103.675
 20
-47.175
 70
     8
  0
VERTEX
  8
ガラス
 10
103.675
 20
-47.15
 70
     8
  0
VERTEX
  8
ガラス
 10
103.65
 20
-47.1
 70
     8
  0
VERTEX
  8
ガラス
 10
103.625
 20
-47.05
 70
     8
  0
VERTEX
  8
ガラス
 10
103.6
 20
-47.025
 70
     8
  0
VERTEX
  8
ガラス
 10
103.575
 20
-46.975
 70
     8
  0
VERTEX
  8
ガラス
 10
103.575
 20
-46.925
 70
     8
  0
VERTEX
  8
ガラス
 10
103.55
 20
-46.9
 70
     8
  0
VERTEX
  8
ガラス
 10
103.525
 20
-46.85
 70
     8
  0
VERTEX
  8
ガラス
 10
103.5
 20
-46.825
 70
     8
  0
VERTEX
  8
ガラス
 10
103.475
 20
-46.775
 70
     8
  0
VERTEX
  8
ガラス
 10
103.45
 20
-46.75
 70
     8
  0
VERTEX
  8
ガラス
 10
103.425
 20
-46.7
 70
     8
  0
VERTEX
  8
ガラス
 10
103.4
 20
-46.675
 70
     8
  0
VERTEX
  8
ガラス
 10
103.375
 20
-46.65
 70
     8
  0
VERTEX
  8
ガラス
 10
103.35
 20
-46.6
 70
     8
  0
VERTEX
  8
ガラス
 10
103.325
 20
-46.575
 70
     8
  0
VERTEX
  8
ガラス
 10
103.3
 20
-46.55
 70
     8
  0
VERTEX
  8
ガラス
 10
103.25
 20
-46.525
 70
     8
  0
VERTEX
  8
ガラス
 10
103.225
 20
-46.5
 70
     8
  0
VERTEX
  8
ガラス
 10
103.2
 20
-46.475
 70
     8
  0
VERTEX
  8
ガラス
 10
103.15
 20
-46.45
 70
     8
  0
VERTEX
  8
ガラス
 10
103.125
 20
-46.45
 70
     8
  0
VERTEX
  8
ガラス
 10
103.075
 20
-46.425
 70
     8
  0
VERTEX
  8
ガラス
 10
103.05
 20
-46.4
 70
     8
  0
VERTEX
  8
ガラス
 10
103.0
 20
-46.375
 70
     8
  0
VERTEX
  8
ガラス
 10
102.95
 20
-46.375
 70
     8
  0
VERTEX
  8
ガラス
 10
102.925
 20
-46.35
 70
     8
  0
VERTEX
  8
ガラス
 10
102.875
 20
-46.35
 70
     8
  0
VERTEX
  8
ガラス
 10
102.825
 20
-46.325
 70
     8
  0
VERTEX
  8
ガラス
 10
102.8
 20
-46.325
 70
     8
  0
VERTEX
  8
ガラス
 10
102.75
 20
-46.3
 70
     8
  0
VERTEX
  8
ガラス
 10
102.7
 20
-46.3
 70
     8
  0
VERTEX
  8
ガラス
 10
102.65
 20
-46.275
 70
     8
  0
VERTEX
  8
ガラス
 10
102.6
 20
-46.275
 70
     8
  0
VERTEX
  8
ガラス
 10
102.575
 20
-46.275
 70
     8
  0
VERTEX
  8
ガラス
 10
102.525
 20
-46.25
 70
     8
  0
VERTEX
  8
ガラス
 10
102.475
 20
-46.25
 70
     8
  0
SEQEND
  0
POLYLINE
  8
ガラス
  6
CONTINUOUS
 66
     1
 70
     4
  0
VERTEX
  8
ガラス
 10
102.475
 20
-46.25
 70
     8
  0
VERTEX
  8
ガラス
 10
102.475
 20
-46.275
 70
     8
  0
VERTEX
  8
ガラス
 10
102.5
 20
-46.3
 70
     8
  0
VERTEX
  8
ガラス
 10
102.5
 20
-46.325
 70
     8
  0
VERTEX
  8
ガラス
 10
102.525
 20
-46.35
 70
     8
  0
VERTEX
  8
ガラス
 10
102.525
 20
-46.4
 70
     8
  0
VERTEX
  8
ガラス
 10
102.55
 20
-46.425
 70
     8
  0
VERTEX
  8
ガラス
 10
102.55
 20
-46.45
 70
     8
  0
VERTEX
  8
ガラス
 10
102.575
 20
-46.475
 70
     8
  0
VERTEX
  8
ガラス
 10
102.575
 20
-46.5
 70
     8
  0
VERTEX
  8
ガラス
 10
102.6
 20
-46.525
 70
     8
  0
VERTEX
  8
ガラス
 10
102.6
 20
-46.55
 70
     8
  0
VERTEX
  8
ガラス
 10
102.625
 20
-46.6
 70
     8
  0
VERTEX
  8
ガラス
 10
102.625
 20
-46.625
 70
     8
  0
VERTEX
  8
ガラス
 10
102.625
 20
-46.65
 70
     8
  0
VERTEX
  8
ガラス
 10
102.65
 20
-46.675
 70
     8
  0
VERTEX
  8
ガラス
 10
102.65
 20
-46.7
 70
     8
  0
VERTEX
  8
ガラス
 10
102.65
 20
-46.725
 70
     8
  0
VERTEX
  8
ガラス
 10
102.675
 20
-46.75
 70
     8
  0
VERTEX
  8
ガラス
 10
102.675
 20
-46.8
 70
     8
  0
VERTEX
  8
ガラス
 10
102.7
 20
-46.825
 70
     8
  0
VERTEX
  8
ガラス
 10
102.7
 20
-46.85
 70
     8
  0
VERTEX
  8
ガラス
 10
102.7
 20
-46.875
 70
     8
  0
VERTEX
  8
ガラス
 10
102.7
 20
-46.9
 70
     8
  0
VERTEX
  8
ガラス
 10
102.725
 20
-46.95
 70
     8
  0
VERTEX
  8
ガラス
 10
102.725
 20
-46.975
 70
     8
  0
VERTEX
  8
ガラス
 10
102.725
 20
-47.0
 70
     8
  0
VERTEX
  8
ガラス
 10
102.725
 20
-47.025
 70
     8
  0
VERTEX
  8
ガラス
 10
102.75
 20
-47.05
 70
     8
  0
VERTEX
  8
ガラス
 10
102.75
 20
-47.1
 70
     8
  0
VERTEX
  8
ガラス
 10
102.75
 20
-47.125
 70
     8
  0
VERTEX
  8
ガラス
 10
102.75
 20
-47.15
 70
     8
  0
VERTEX
  8
ガラス
 10
102.75
 20
-47.175
 70
     8
  0
VERTEX
  8
ガラス
 10
102.775
 20
-47.2
 70
     8
  0
VERTEX
  8
ガラス
 10
102.775
 20
-47.25
 70
     8
  0
VERTEX
  8
ガラス
 10
102.775
 20
-47.275
 70
     8
  0
VERTEX
  8
ガラス
 10
102.775
 20
-47.3
 70
     8
  0
VERTEX
  8
ガラス
 10
102.775
 20
-47.325
 70
     8
  0
VERTEX
  8
ガラス
 10
102.775
 20
-47.375
 70
     8
  0
VERTEX
  8
ガラス
 10
102.775
 20
-47.4
 70
     8
  0
VERTEX
  8
ガラス
 10
102.8
 20
-47.425
 70
     8
  0
SEQEND
  0
ARC
  8
ガラス
  6
CONTINUOUS
 10
103.275384
 20
-47.35508
 40
0.477567
 50
186.882557
 51
366.882557
  0
ENDBLK
  0
BLOCK
  2
*GRP_0042
 70
    65
 10
0.0
 20
0.0
  0
POLYLINE
  8
ガラス
  6
CONTINUOUS
 66
     1
 70
     4
  0
VERTEX
  8
ガラス
 10
105.6
 20
-51.625
 70
     8
  0
VERTEX
  8
ガラス
 10
105.575
 20
-51.575
 70
     8
  0
VERTEX
  8
ガラス
 10
105.575
 20
-51.525
 70
     8
  0
VERTEX
  8
ガラス
 10
105.55
 20
-51.5
 70
     8
  0
VERTEX
  8
ガラス
 10
105.525
 20
-51.45
 70
     8
  0
VERTEX
  8
ガラス
 10
105.5
 20
-51.4
 70
     8
  0
VERTEX
  8
ガラス
 10
105.5
 20
-51.35
 70
     8
  0
VERTEX
  8
ガラス
 10
105.475
 20
-51.325
 70
     8
  0
VERTEX
  8
ガラス
 10
105.45
 20
-51.275
 70
     8
  0
VERTEX
  8
ガラス
 10
105.425
 20
-51.25
 70
     8
  0
VERTEX
  8
ガラス
 10
105.4
 20
-51.2
 70
     8
  0
VERTEX
  8
ガラス
 10
105.375
 20
-51.15
 70
     8
  0
VERTEX
  8
ガラス
 10
105.375
 20
-51.125
 70
     8
  0
VERTEX
  8
ガラス
 10
105.35
 20
-51.075
 70
     8
  0
VERTEX
  8
ガラス
 10
105.325
 20
-51.05
 70
     8
  0
VERTEX
  8
ガラス
 10
105.3
 20
-51.025
 70
     8
  0
VERTEX
  8
ガラス
 10
105.275
 20
-50.975
 70
     8
  0
VERTEX
  8
ガラス
 10
105.25
 20
-50.95
 70
     8
  0
VERTEX
  8
ガラス
 10
105.2
 20
-50.925
 70
     8
  0
VERTEX
  8
ガラス
 10
105.175
 20
-50.9
 70
     8
  0
VERTEX
  8
ガラス
 10
105.15
 20
-50.85
 70
     8
  0
VERTEX
  8
ガラス
 10
105.125
 20
-50.825
 70
     8
  0
VERTEX
  8
ガラス
 10
105.075
 20
-50.8
 70
     8
  0
VERTEX
  8
ガラス
 10
105.05
 20
-50.775
 70
     8
  0
VERTEX
  8
ガラス
 10
105.025
 20
-50.775
 70
     8
  0
VERTEX
  8
ガラス
 10
104.975
 20
-50.75
 70
     8
  0
VERTEX
  8
ガラス
 10
104.95
 20
-50.725
 70
     8
  0
VERTEX
  8
ガラス
 10
104.9
 20
-50.7
 70
     8
  0
VERTEX
  8
ガラス
 10
104.85
 20
-50.7
 70
     8
  0
VERTEX
  8
ガラス
 10
104.825
 20
-50.675
 70
     8
  0
VERTEX
  8
ガラス
 10
104.775
 20
-50.675
 70
     8
  0
VERTEX
  8
ガラス
 10
104.75
 20
-50.65
 70
     8
  0
VERTEX
  8
ガラス
 10
104.7
 20
-50.625
 70
     8
  0
VERTEX
  8
ガラス
 10
104.65
 20
-50.625
 70
     8
  0
VERTEX
  8
ガラス
 10
104.6
 20
-50.625
 70
     8
  0
VERTEX
  8
ガラス
 10
104.575
 20
-50.6
 70
     8
  0
VERTEX
  8
ガラス
 10
104.525
 20
-50.6
 70
     8
  0
VERTEX
  8
ガラス
 10
104.475
 20
-50.575
 70
     8
  0
VERTEX
  8
ガラス
 10
104.425
 20
-50.575
 70
     8
  0
VERTEX
  8
ガラス
 10
104.375
 20
-50.55
 70
     8
  0
VERTEX
  8
ガラス
 10
104.325
 20
-50.55
 70
     8
  0
SEQEND
  0
POLYLINE
  8
ガラス
  6
CONTINUOUS
 66
     1
 70
     4
  0
VERTEX
  8
ガラス
 10
104.325
 20
-50.55
 70
     8
  0
VERTEX
  8
ガラス
 10
104.35
 20
-50.575
 70
     8
  0
VERTEX
  8
ガラス
 10
104.35
 20
-50.6
 70
     8
  0
VERTEX
  8
ガラス
 10
104.375
 20
-50.65
 70
     8
  0
VERTEX
  8
ガラス
 10
104.375
 20
-50.675
 70
     8
  0
VERTEX
  8
ガラス
 10
104.4
 20
-50.7
 70
     8
  0
VERTEX
  8
ガラス
 10
104.4
 20
-50.725
 70
     8
  0
VERTEX
  8
ガラス
 10
104.425
 20
-50.75
 70
     8
  0
VERTEX
  8
ガラス
 10
104.425
 20
-50.775
 70
     8
  0
VERTEX
  8
ガラス
 10
104.45
 20
-50.8
 70
     8
  0
VERTEX
  8
ガラス
 10
104.45
 20
-50.825
 70
     8
  0
VERTEX
  8
ガラス
 10
104.475
 20
-50.875
 70
     8
  0
VERTEX
  8
ガラス
 10
104.475
 20
-50.9
 70
     8
  0
VERTEX
  8
ガラス
 10
104.475
 20
-50.925
 70
     8
  0
VERTEX
  8
ガラス
 10
104.5
 20
-50.95
 70
     8
  0
VERTEX
  8
ガラス
 10
104.5
 20
-50.975
 70
     8
  0
VERTEX
  8
ガラス
 10
104.525
 20
-51.0
 70
     8
  0
VERTEX
  8
ガラス
 10
104.525
 20
-51.05
 70
     8
  0
VERTEX
  8
ガラス
 10
104.525
 20
-51.075
 70
     8
  0
VERTEX
  8
ガラス
 10
104.55
 20
-51.1
 70
     8
  0
VERTEX
  8
ガラス
 10
104.55
 20
-51.125
 70
     8
  0
VERTEX
  8
ガラス
 10
104.55
 20
-51.15
 70
     8
  0
VERTEX
  8
ガラス
 10
104.575
 20
-51.175
 70
     8
  0
VERTEX
  8
ガラス
 10
104.575
 20
-51.225
 70
     8
  0
VERTEX
  8
ガラス
 10
104.575
 20
-51.25
 70
     8
  0
VERTEX
  8
ガラス
 10
104.575
 20
-51.275
 70
     8
  0
VERTEX
  8
ガラス
 10
104.6
 20
-51.3
 70
     8
  0
VERTEX
  8
ガラス
 10
104.6
 20
-51.325
 70
     8
  0
VERTEX
  8
ガラス
 10
104.6
 20
-51.375
 70
     8
  0
VERTEX
  8
ガラス
 10
104.6
 20
-51.4
 70
     8
  0
VERTEX
  8
ガラス
 10
104.6
 20
-51.425
 70
     8
  0
VERTEX
  8
ガラス
 10
104.625
 20
-51.45
 70
     8
  0
VERTEX
  8
ガラス
 10
104.625
 20
-51.475
 70
     8
  0
VERTEX
  8
ガラス
 10
104.625
 20
-51.525
 70
     8
  0
VERTEX
  8
ガラス
 10
104.625
 20
-51.55
 70
     8
  0
VERTEX
  8
ガラス
 10
104.625
 20
-51.575
 70
     8
  0
VERTEX
  8
ガラス
 10
104.625
 20
-51.6
 70
     8
  0
VERTEX
  8
ガラス
 10
104.65
 20
-51.65
 70
     8
  0
VERTEX
  8
ガラス
 10
104.65
 20
-51.675
 70
     8
  0
VERTEX
  8
ガラス
 10
104.65
 20
-51.7
 70
     8
  0
VERTEX
  8
ガラス
 10
104.65
 20
-51.725
 70
     8
  0
SEQEND
  0
ARC
  8
ガラス
  6
CONTINUOUS
 10
105.137818
 20
-51.661958
 40
0.477567
 50
186.882557
 51
366.882557
  0
ENDBLK
  0
BLOCK
  2
*GRP_0043
 70
    65
 10
0.0
 20
0.0
  0
POLYLINE
  8
ガラス
  6
CONTINUOUS
 66
     1
 70
     4
  0
VERTEX
  8
ガラス
 10
85.45
 20
-33.75
 70
     8
  0
VERTEX
  8
ガラス
 10
85.45
 20
-33.725
 70
     8
  0
VERTEX
  8
ガラス
 10
85.475
 20
-33.675
 70
     8
  0
VERTEX
  8
ガラス
 10
85.5
 20
-33.625
 70
     8
  0
VERTEX
  8
ガラス
 10
85.5
 20
-33.575
 70
     8
  0
VERTEX
  8
ガラス
 10
85.525
 20
-33.55
 70
     8
  0
VERTEX
  8
ガラス
 10
85.55
 20
-33.5
 70
     8
  0
VERTEX
  8
ガラス
 10
85.575
 20
-33.45
 70
     8
  0
VERTEX
  8
ガラス
 10
85.6
 20
-33.425
 70
     8
  0
VERTEX
  8
ガラス
 10
85.6
 20
-33.375
 70
     8
  0
VERTEX
  8
ガラス
 10
85.625
 20
-33.35
 70
     8
  0
VERTEX
  8
ガラス
 10
85.65
 20
-33.3
 70
     8
  0
VERTEX
  8
ガラス
 10
85.675
 20
-33.25
 70
     8
  0
VERTEX
  8
ガラス
 10
85.7
 20
-33.225
 70
     8
  0
VERTEX
  8
ガラス
 10
85.725
 20
-33.2
 70
     8
  0
VERTEX
  8
ガラス
 10
85.75
 20
-33.15
 70
     8
  0
VERTEX
  8
ガラス
 10
85.775
 20
-33.125
 70
     8
  0
VERTEX
  8
ガラス
 10
85.8
 20
-33.1
 70
     8
  0
VERTEX
  8
ガラス
 10
85.825
 20
-33.05
 70
     8
  0
VERTEX
  8
ガラス
 10
85.85
 20
-33.025
 70
     8
  0
VERTEX
  8
ガラス
 10
85.875
 20
-33.0
 70
     8
  0
VERTEX
  8
ガラス
 10
85.925
 20
-32.975
 70
     8
  0
VERTEX
  8
ガラス
 10
85.95
 20
-32.95
 70
     8
  0
VERTEX
  8
ガラス
 10
85.975
 20
-32.925
 70
     8
  0
VERTEX
  8
ガラス
 10
86.025
 20
-32.9
 70
     8
  0
VERTEX
  8
ガラス
 10
86.05
 20
-32.875
 70
     8
  0
VERTEX
  8
ガラス
 10
86.1
 20
-32.875
 70
     8
  0
VERTEX
  8
ガラス
 10
86.125
 20
-32.85
 70
     8
  0
VERTEX
  8
ガラス
 10
86.175
 20
-32.825
 70
     8
  0
VERTEX
  8
ガラス
 10
86.225
 20
-32.825
 70
     8
  0
VERTEX
  8
ガラス
 10
86.25
 20
-32.8
 70
     8
  0
VERTEX
  8
ガラス
 10
86.3
 20
-32.8
 70
     8
  0
VERTEX
  8
ガラス
 10
86.35
 20
-32.775
 70
     8
  0
VERTEX
  8
ガラス
 10
86.375
 20
-32.775
 70
     8
  0
VERTEX
  8
ガラス
 10
86.425
 20
-32.75
 70
     8
  0
VERTEX
  8
ガラス
 10
86.475
 20
-32.75
 70
     8
  0
VERTEX
  8
ガラス
 10
86.525
 20
-32.725
 70
     8
  0
VERTEX
  8
ガラス
 10
86.575
 20
-32.725
 70
     8
  0
VERTEX
  8
ガラス
 10
86.6
 20
-32.7
 70
     8
  0
VERTEX
  8
ガラス
 10
86.65
 20
-32.7
 70
     8
  0
VERTEX
  8
ガラス
 10
86.7
 20
-32.7
 70
     8
  0
SEQEND
  0
POLYLINE
  8
ガラス
  6
CONTINUOUS
 66
     1
 70
     4
  0
VERTEX
  8
ガラス
 10
86.7
 20
-32.7
 70
     8
  0
VERTEX
  8
ガラス
 10
86.7
 20
-32.725
 70
     8
  0
VERTEX
  8
ガラス
 10
86.675
 20
-32.75
 70
     8
  0
VERTEX
  8
ガラス
 10
86.675
 20
-32.775
 70
     8
  0
VERTEX
  8
ガラス
 10
86.65
 20
-32.8
 70
     8
  0
VERTEX
  8
ガラス
 10
86.65
 20
-32.825
 70
     8
  0
VERTEX
  8
ガラス
 10
86.625
 20
-32.875
 70
     8
  0
VERTEX
  8
ガラス
 10
86.625
 20
-32.9
 70
     8
  0
VERTEX
  8
ガラス
 10
86.6
 20
-32.925
 70
     8
  0
VERTEX
  8
ガラス
 10
86.6
 20
-32.95
 70
     8
  0
VERTEX
  8
ガラス
 10
86.575
 20
-32.975
 70
     8
  0
VERTEX
  8
ガラス
 10
86.575
 20
-33.0
 70
     8
  0
VERTEX
  8
ガラス
 10
86.575
 20
-33.025
 70
     8
  0
VERTEX
  8
ガラス
 10
86.55
 20
-33.075
 70
     8
  0
VERTEX
  8
ガラス
 10
86.55
 20
-33.1
 70
     8
  0
VERTEX
  8
ガラス
 10
86.525
 20
-33.125
 70
     8
  0
VERTEX
  8
ガラス
 10
86.525
 20
-33.15
 70
     8
  0
VERTEX
  8
ガラス
 10
86.525
 20
-33.175
 70
     8
  0
VERTEX
  8
ガラス
 10
86.5
 20
-33.2
 70
     8
  0
VERTEX
  8
ガラス
 10
86.5
 20
-33.25
 70
     8
  0
VERTEX
  8
ガラス
 10
86.5
 20
-33.275
 70
     8
  0
VERTEX
  8
ガラス
 10
86.475
 20
-33.3
 70
     8
  0
VERTEX
  8
ガラス
 10
86.475
 20
-33.325
 70
     8
  0
VERTEX
  8
ガラス
 10
86.475
 20
-33.35
 70
     8
  0
VERTEX
  8
ガラス
 10
86.45
 20
-33.375
 70
     8
  0
VERTEX
  8
ガラス
 10
86.45
 20
-33.425
 70
     8
  0
VERTEX
  8
ガラス
 10
86.45
 20
-33.45
 70
     8
  0
VERTEX
  8
ガラス
 10
86.45
 20
-33.475
 70
     8
  0
VERTEX
  8
ガラス
 10
86.425
 20
-33.5
 70
     8
  0
VERTEX
  8
ガラス
 10
86.425
 20
-33.525
 70
     8
  0
VERTEX
  8
ガラス
 10
86.425
 20
-33.575
 70
     8
  0
VERTEX
  8
ガラス
 10
86.425
 20
-33.6
 70
     8
  0
VERTEX
  8
ガラス
 10
86.425
 20
-33.625
 70
     8
  0
VERTEX
  8
ガラス
 10
86.425
 20
-33.65
 70
     8
  0
VERTEX
  8
ガラス
 10
86.4
 20
-33.7
 70
     8
  0
VERTEX
  8
ガラス
 10
86.4
 20
-33.725
 70
     8
  0
VERTEX
  8
ガラス
 10
86.4
 20
-33.75
 70
     8
  0
VERTEX
  8
ガラス
 10
86.4
 20
-33.775
 70
     8
  0
VERTEX
  8
ガラス
 10
86.4
 20
-33.8
 70
     8
  0
VERTEX
  8
ガラス
 10
86.4
 20
-33.85
 70
     8
  0
VERTEX
  8
ガラス
 10
86.375
 20
-33.875
 70
     8
  0
SEQEND
  0
ARC
  8
ガラス
  6
CONTINUOUS
 10
85.925533
 20
-33.802056
 40
0.477567
 50
173.117443
 51
353.117443
  0
ENDBLK
  0
BLOCK
  2
*GRP_0044
 70
    65
 10
0.0
 20
0.0
  0
POLYLINE
  8
ガラス
  6
CONTINUOUS
 66
     1
 70
     4
  0
VERTEX
  8
ガラス
 10
99.425
 20
-43.475
 70
     8
  0
VERTEX
  8
ガラス
 10
99.375
 20
-43.475
 70
     8
  0
VERTEX
  8
ガラス
 10
99.325
 20
-43.475
 70
     8
  0
VERTEX
  8
ガラス
 10
99.3
 20
-43.45
 70
     8
  0
VERTEX
  8
ガラス
 10
99.25
 20
-43.45
 70
     8
  0
VERTEX
  8
ガラス
 10
99.2
 20
-43.45
 70
     8
  0
VERTEX
  8
ガラス
 10
99.15
 20
-43.45
 70
     8
  0
VERTEX
  8
ガラス
 10
99.1
 20
-43.45
 70
     8
  0
VERTEX
  8
ガラス
 10
99.05
 20
-43.45
 70
     8
  0
VERTEX
  8
ガラス
 10
99.025
 20
-43.45
 70
     8
  0
VERTEX
  8
ガラス
 10
98.975
 20
-43.425
 70
     8
  0
VERTEX
  8
ガラス
 10
98.925
 20
-43.425
 70
     8
  0
VERTEX
  8
ガラス
 10
98.875
 20
-43.45
 70
     8
  0
VERTEX
  8
ガラス
 10
98.85
 20
-43.45
 70
     8
  0
VERTEX
  8
ガラス
 10
98.8
 20
-43.45
 70
     8
  0
VERTEX
  8
ガラス
 10
98.75
 20
-43.45
 70
     8
  0
VERTEX
  8
ガラス
 10
98.7
 20
-43.45
 70
     8
  0
VERTEX
  8
ガラス
 10
98.675
 20
-43.475
 70
     8
  0
VERTEX
  8
ガラス
 10
98.625
 20
-43.475
 70
     8
  0
VERTEX
  8
ガラス
 10
98.6
 20
-43.475
 70
     8
  0
VERTEX
  8
ガラス
 10
98.55
 20
-43.5
 70
     8
  0
VERTEX
  8
ガラス
 10
98.5
 20
-43.5
 70
     8
  0
VERTEX
  8
ガラス
 10
98.475
 20
-43.525
 70
     8
  0
VERTEX
  8
ガラス
 10
98.425
 20
-43.55
 70
     8
  0
VERTEX
  8
ガラス
 10
98.4
 20
-43.575
 70
     8
  0
VERTEX
  8
ガラス
 10
98.375
 20
-43.6
 70
     8
  0
VERTEX
  8
ガラス
 10
98.325
 20
-43.625
 70
     8
  0
VERTEX
  8
ガラス
 10
98.3
 20
-43.65
 70
     8
  0
VERTEX
  8
ガラス
 10
98.275
 20
-43.675
 70
     8
  0
VERTEX
  8
ガラス
 10
98.225
 20
-43.7
 70
     8
  0
VERTEX
  8
ガラス
 10
98.2
 20
-43.725
 70
     8
  0
VERTEX
  8
ガラス
 10
98.175
 20
-43.75
 70
     8
  0
VERTEX
  8
ガラス
 10
98.125
 20
-43.775
 70
     8
  0
VERTEX
  8
ガラス
 10
98.1
 20
-43.825
 70
     8
  0
VERTEX
  8
ガラス
 10
98.075
 20
-43.85
 70
     8
  0
VERTEX
  8
ガラス
 10
98.05
 20
-43.875
 70
     8
  0
VERTEX
  8
ガラス
 10
98.0
 20
-43.925
 70
     8
  0
VERTEX
  8
ガラス
 10
97.975
 20
-43.95
 70
     8
  0
VERTEX
  8
ガラス
 10
97.95
 20
-44.0
 70
     8
  0
VERTEX
  8
ガラス
 10
97.925
 20
-44.025
 70
     8
  0
VERTEX
  8
ガラス
 10
97.875
 20
-44.05
 70
     8
  0
SEQEND
  0
POLYLINE
  8
ガラス
  6
CONTINUOUS
 66
     1
 70
     4
  0
VERTEX
  8
ガラス
 10
97.875
 20
-44.05
 70
     8
  0
VERTEX
  8
ガラス
 10
97.925
 20
-44.05
 70
     8
  0
VERTEX
  8
ガラス
 10
97.95
 20
-44.075
 70
     8
  0
VERTEX
  8
ガラス
 10
97.975
 20
-44.075
 70
     8
  0
VERTEX
  8
ガラス
 10
98.0
 20
-44.075
 70
     8
  0
VERTEX
  8
ガラス
 10
98.025
 20
-44.075
 70
     8
  0
VERTEX
  8
ガラス
 10
98.075
 20
-44.075
 70
     8
  0
VERTEX
  8
ガラス
 10
98.1
 20
-44.075
 70
     8
  0
VERTEX
  8
ガラス
 10
98.125
 20
-44.075
 70
     8
  0
VERTEX
  8
ガラス
 10
98.15
 20
-44.1
 70
     8
  0
VERTEX
  8
ガラス
 10
98.2
 20
-44.1
 70
     8
  0
VERTEX
  8
ガラス
 10
98.225
 20
-44.1
 70
     8
  0
VERTEX
  8
ガラス
 10
98.25
 20
-44.1
 70
     8
  0
VERTEX
  8
ガラス
 10
98.275
 20
-44.1
 70
     8
  0
VERTEX
  8
ガラス
 10
98.3
 20
-44.125
 70
     8
  0
VERTEX
  8
ガラス
 10
98.35
 20
-44.125
 70
     8
  0
VERTEX
  8
ガラス
 10
98.375
 20
-44.125
 70
     8
  0
VERTEX
  8
ガラス
 10
98.4
 20
-44.125
 70
     8
  0
VERTEX
  8
ガラス
 10
98.425
 20
-44.15
 70
     8
  0
VERTEX
  8
ガラス
 10
98.45
 20
-44.15
 70
     8
  0
VERTEX
  8
ガラス
 10
98.5
 20
-44.15
 70
     8
  0
VERTEX
  8
ガラス
 10
98.525
 20
-44.15
 70
     8
  0
VERTEX
  8
ガラス
 10
98.55
 20
-44.175
 70
     8
  0
VERTEX
  8
ガラス
 10
98.575
 20
-44.175
 70
     8
  0
VERTEX
  8
ガラス
 10
98.6
 20
-44.175
 70
     8
  0
VERTEX
  8
ガラス
 10
98.625
 20
-44.2
 70
     8
  0
VERTEX
  8
ガラス
 10
98.675
 20
-44.2
 70
     8
  0
VERTEX
  8
ガラス
 10
98.7
 20
-44.2
 70
     8
  0
VERTEX
  8
ガラス
 10
98.725
 20
-44.225
 70
     8
  0
VERTEX
  8
ガラス
 10
98.75
 20
-44.225
 70
     8
  0
VERTEX
  8
ガラス
 10
98.775
 20
-44.25
 70
     8
  0
VERTEX
  8
ガラス
 10
98.8
 20
-44.25
 70
     8
  0
VERTEX
  8
ガラス
 10
98.85
 20
-44.275
 70
     8
  0
VERTEX
  8
ガラス
 10
98.875
 20
-44.275
 70
     8
  0
VERTEX
  8
ガラス
 10
98.9
 20
-44.3
 70
     8
  0
VERTEX
  8
ガラス
 10
98.925
 20
-44.3
 70
     8
  0
VERTEX
  8
ガラス
 10
98.95
 20
-44.3
 70
     8
  0
VERTEX
  8
ガラス
 10
98.975
 20
-44.325
 70
     8
  0
VERTEX
  8
ガラス
 10
99.0
 20
-44.325
 70
     8
  0
VERTEX
  8
ガラス
 10
99.05
 20
-44.35
 70
     8
  0
VERTEX
  8
ガラス
 10
99.075
 20
-44.35
 70
     8
  0
SEQEND
  0
ARC
  8
ガラス
  6
CONTINUOUS
 10
99.260523
 20
-43.903729
 40
0.477567
 50
247.735412
 51
427.735412
  0
ENDBLK
  0
BLOCK
  2
*GRP_0045
 70
    65
 10
0.0
 20
0.0
  0
POLYLINE
  8
ガラス
  6
CONTINUOUS
 66
     1
 70
     4
  0
VERTEX
  8
ガラス
 10
83.975
 20
-43.2
 70
     8
  0
VERTEX
  8
ガラス
 10
83.925
 20
-43.2
 70
     8
  0
VERTEX
  8
ガラス
 10
83.875
 20
-43.2
 70
     8
  0
VERTEX
  8
ガラス
 10
83.825
 20
-43.175
 70
     8
  0
VERTEX
  8
ガラス
 10
83.775
 20
-43.175
 70
     8
  0
VERTEX
  8
ガラス
 10
83.75
 20
-43.175
 70
     8
  0
VERTEX
  8
ガラス
 10
83.7
 20
-43.175
 70
     8
  0
VERTEX
  8
ガラス
 10
83.65
 20
-43.175
 70
     8
  0
VERTEX
  8
ガラス
 10
83.6
 20
-43.175
 70
     8
  0
VERTEX
  8
ガラス
 10
83.55
 20
-43.175
 70
     8
  0
VERTEX
  8
ガラス
 10
83.5
 20
-43.175
 70
     8
  0
VERTEX
  8
ガラス
 10
83.475
 20
-43.175
 70
     8
  0
VERTEX
  8
ガラス
 10
83.425
 20
-43.175
 70
     8
  0
VERTEX
  8
ガラス
 10
83.375
 20
-43.175
 70
     8
  0
VERTEX
  8
ガラス
 10
83.325
 20
-43.175
 70
     8
  0
VERTEX
  8
ガラス
 10
83.3
 20
-43.175
 70
     8
  0
VERTEX
  8
ガラス
 10
83.25
 20
-43.175
 70
     8
  0
VERTEX
  8
ガラス
 10
83.2
 20
-43.2
 70
     8
  0
VERTEX
  8
ガラス
 10
83.175
 20
-43.2
 70
     8
  0
VERTEX
  8
ガラス
 10
83.125
 20
-43.2
 70
     8
  0
VERTEX
  8
ガラス
 10
83.1
 20
-43.225
 70
     8
  0
VERTEX
  8
ガラス
 10
83.05
 20
-43.25
 70
     8
  0
VERTEX
  8
ガラス
 10
83.025
 20
-43.25
 70
     8
  0
VERTEX
  8
ガラス
 10
82.975
 20
-43.275
 70
     8
  0
VERTEX
  8
ガラス
 10
82.95
 20
-43.3
 70
     8
  0
VERTEX
  8
ガラス
 10
82.9
 20
-43.325
 70
     8
  0
VERTEX
  8
ガラス
 10
82.875
 20
-43.35
 70
     8
  0
VERTEX
  8
ガラス
 10
82.85
 20
-43.375
 70
     8
  0
VERTEX
  8
ガラス
 10
82.8
 20
-43.4
 70
     8
  0
VERTEX
  8
ガラス
 10
82.775
 20
-43.425
 70
     8
  0
VERTEX
  8
ガラス
 10
82.75
 20
-43.45
 70
     8
  0
VERTEX
  8
ガラス
 10
82.7
 20
-43.475
 70
     8
  0
VERTEX
  8
ガラス
 10
82.675
 20
-43.525
 70
     8
  0
VERTEX
  8
ガラス
 10
82.65
 20
-43.55
 70
     8
  0
VERTEX
  8
ガラス
 10
82.6
 20
-43.575
 70
     8
  0
VERTEX
  8
ガラス
 10
82.575
 20
-43.6
 70
     8
  0
VERTEX
  8
ガラス
 10
82.55
 20
-43.65
 70
     8
  0
VERTEX
  8
ガラス
 10
82.525
 20
-43.675
 70
     8
  0
VERTEX
  8
ガラス
 10
82.475
 20
-43.725
 70
     8
  0
VERTEX
  8
ガラス
 10
82.45
 20
-43.75
 70
     8
  0
VERTEX
  8
ガラス
 10
82.425
 20
-43.775
 70
     8
  0
SEQEND
  0
POLYLINE
  8
ガラス
  6
CONTINUOUS
 66
     1
 70
     4
  0
VERTEX
  8
ガラス
 10
82.425
 20
-43.775
 70
     8
  0
VERTEX
  8
ガラス
 10
82.45
 20
-43.8
 70
     8
  0
VERTEX
  8
ガラス
 10
82.475
 20
-43.8
 70
     8
  0
VERTEX
  8
ガラス
 10
82.525
 20
-43.8
 70
     8
  0
VERTEX
  8
ガラス
 10
82.55
 20
-43.8
 70
     8
  0
VERTEX
  8
ガラス
 10
82.575
 20
-43.8
 70
     8
  0
VERTEX
  8
ガラス
 10
82.6
 20
-43.8
 70
     8
  0
VERTEX
  8
ガラス
 10
82.65
 20
-43.8
 70
     8
  0
VERTEX
  8
ガラス
 10
82.675
 20
-43.825
 70
     8
  0
VERTEX
  8
ガラス
 10
82.7
 20
-43.825
 70
     8
  0
VERTEX
  8
ガラス
 10
82.725
 20
-43.825
 70
     8
  0
VERTEX
  8
ガラス
 10
82.75
 20
-43.825
 70
     8
  0
VERTEX
  8
ガラス
 10
82.8
 20
-43.825
 70
     8
  0
VERTEX
  8
ガラス
 10
82.825
 20
-43.825
 70
     8
  0
VERTEX
  8
ガラス
 10
82.85
 20
-43.85
 70
     8
  0
VERTEX
  8
ガラス
 10
82.875
 20
-43.85
 70
     8
  0
VERTEX
  8
ガラス
 10
82.925
 20
-43.85
 70
     8
  0
VERTEX
  8
ガラス
 10
82.95
 20
-43.85
 70
     8
  0
VERTEX
  8
ガラス
 10
82.975
 20
-43.875
 70
     8
  0
VERTEX
  8
ガラス
 10
83.0
 20
-43.875
 70
     8
  0
VERTEX
  8
ガラス
 10
83.025
 20
-43.875
 70
     8
  0
VERTEX
  8
ガラス
 10
83.05
 20
-43.875
 70
     8
  0
VERTEX
  8
ガラス
 10
83.1
 20
-43.9
 70
     8
  0
VERTEX
  8
ガラス
 10
83.125
 20
-43.9
 70
     8
  0
VERTEX
  8
ガラス
 10
83.15
 20
-43.9
 70
     8
  0
VERTEX
  8
ガラス
 10
83.175
 20
-43.925
 70
     8
  0
VERTEX
  8
ガラス
 10
83.2
 20
-43.925
 70
     8
  0
VERTEX
  8
ガラス
 10
83.225
 20
-43.95
 70
     8
  0
VERTEX
  8
ガラス
 10
83.275
 20
-43.95
 70
     8
  0
VERTEX
  8
ガラス
 10
83.3
 20
-43.95
 70
     8
  0
VERTEX
  8
ガラス
 10
83.325
 20
-43.975
 70
     8
  0
VERTEX
  8
ガラス
 10
83.35
 20
-43.975
 70
     8
  0
VERTEX
  8
ガラス
 10
83.375
 20
-44.0
 70
     8
  0
VERTEX
  8
ガラス
 10
83.4
 20
-44.0
 70
     8
  0
VERTEX
  8
ガラス
 10
83.45
 20
-44.025
 70
     8
  0
VERTEX
  8
ガラス
 10
83.475
 20
-44.025
 70
     8
  0
VERTEX
  8
ガラス
 10
83.5
 20
-44.025
 70
     8
  0
VERTEX
  8
ガラス
 10
83.525
 20
-44.05
 70
     8
  0
VERTEX
  8
ガラス
 10
83.55
 20
-44.05
 70
     8
  0
VERTEX
  8
ガラス
 10
83.575
 20
-44.075
 70
     8
  0
VERTEX
  8
ガラス
 10
83.6
 20
-44.075
 70
     8
  0
SEQEND
  0
ARC
  8
ガラス
  6
CONTINUOUS
 10
83.802115
 20
-43.629399
 40
0.477567
 50
247.735412
 51
427.735412
  0
ENDBLK
  0
BLOCK
  2
*GRP_0046
 70
    65
 10
0.0
 20
0.0
  0
POLYLINE
  8
ガラス
  6
CONTINUOUS
 66
     1
 70
     4
  0
VERTEX
  8
ガラス
 10
92.05
 20
-43.2
 70
     8
  0
VERTEX
  8
ガラス
 10
92.025
 20
-43.2
 70
     8
  0
VERTEX
  8
ガラス
 10
91.975
 20
-43.2
 70
     8
  0
VERTEX
  8
ガラス
 10
91.925
 20
-43.175
 70
     8
  0
VERTEX
  8
ガラス
 10
91.875
 20
-43.175
 70
     8
  0
VERTEX
  8
ガラス
 10
91.825
 20
-43.175
 70
     8
  0
VERTEX
  8
ガラス
 10
91.775
 20
-43.175
 70
     8
  0
VERTEX
  8
ガラス
 10
91.725
 20
-43.175
 70
     8
  0
VERTEX
  8
ガラス
 10
91.7
 20
-43.175
 70
     8
  0
VERTEX
  8
ガラス
 10
91.65
 20
-43.175
 70
     8
  0
VERTEX
  8
ガラス
 10
91.6
 20
-43.175
 70
     8
  0
VERTEX
  8
ガラス
 10
91.55
 20
-43.175
 70
     8
  0
VERTEX
  8
ガラス
 10
91.525
 20
-43.175
 70
     8
  0
VERTEX
  8
ガラス
 10
91.475
 20
-43.175
 70
     8
  0
VERTEX
  8
ガラス
 10
91.425
 20
-43.175
 70
     8
  0
VERTEX
  8
ガラス
 10
91.375
 20
-43.175
 70
     8
  0
VERTEX
  8
ガラス
 10
91.35
 20
-43.175
 70
     8
  0
VERTEX
  8
ガラス
 10
91.3
 20
-43.2
 70
     8
  0
VERTEX
  8
ガラス
 10
91.25
 20
-43.2
 70
     8
  0
VERTEX
  8
ガラス
 10
91.225
 20
-43.2
 70
     8
  0
VERTEX
  8
ガラス
 10
91.175
 20
-43.225
 70
     8
  0
VERTEX
  8
ガラス
 10
91.15
 20
-43.25
 70
     8
  0
VERTEX
  8
ガラス
 10
91.1
 20
-43.25
 70
     8
  0
VERTEX
  8
ガラス
 10
91.075
 20
-43.275
 70
     8
  0
VERTEX
  8
ガラス
 10
91.025
 20
-43.3
 70
     8
  0
VERTEX
  8
ガラス
 10
91.0
 20
-43.325
 70
     8
  0
VERTEX
  8
ガラス
 10
90.95
 20
-43.35
 70
     8
  0
VERTEX
  8
ガラス
 10
90.925
 20
-43.375
 70
     8
  0
VERTEX
  8
ガラス
 10
90.9
 20
-43.4
 70
     8
  0
VERTEX
  8
ガラス
 10
90.85
 20
-43.425
 70
     8
  0
VERTEX
  8
ガラス
 10
90.825
 20
-43.45
 70
     8
  0
VERTEX
  8
ガラス
 10
90.8
 20
-43.475
 70
     8
  0
VERTEX
  8
ガラス
 10
90.775
 20
-43.525
 70
     8
  0
VERTEX
  8
ガラス
 10
90.725
 20
-43.55
 70
     8
  0
VERTEX
  8
ガラス
 10
90.7
 20
-43.575
 70
     8
  0
VERTEX
  8
ガラス
 10
90.675
 20
-43.6
 70
     8
  0
VERTEX
  8
ガラス
 10
90.65
 20
-43.65
 70
     8
  0
VERTEX
  8
ガラス
 10
90.6
 20
-43.675
 70
     8
  0
VERTEX
  8
ガラス
 10
90.575
 20
-43.725
 70
     8
  0
VERTEX
  8
ガラス
 10
90.55
 20
-43.75
 70
     8
  0
VERTEX
  8
ガラス
 10
90.525
 20
-43.775
 70
     8
  0
SEQEND
  0
POLYLINE
  8
ガラス
  6
CONTINUOUS
 66
     1
 70
     4
  0
VERTEX
  8
ガラス
 10
90.525
 20
-43.775
 70
     8
  0
VERTEX
  8
ガラス
 10
90.55
 20
-43.8
 70
     8
  0
VERTEX
  8
ガラス
 10
90.575
 20
-43.8
 70
     8
  0
VERTEX
  8
ガラス
 10
90.6
 20
-43.8
 70
     8
  0
VERTEX
  8
ガラス
 10
90.65
 20
-43.8
 70
     8
  0
VERTEX
  8
ガラス
 10
90.675
 20
-43.8
 70
     8
  0
VERTEX
  8
ガラス
 10
90.7
 20
-43.8
 70
     8
  0
VERTEX
  8
ガラス
 10
90.725
 20
-43.8
 70
     8
  0
VERTEX
  8
ガラス
 10
90.75
 20
-43.825
 70
     8
  0
VERTEX
  8
ガラス
 10
90.8
 20
-43.825
 70
     8
  0
VERTEX
  8
ガラス
 10
90.825
 20
-43.825
 70
     8
  0
VERTEX
  8
ガラス
 10
90.85
 20
-43.825
 70
     8
  0
VERTEX
  8
ガラス
 10
90.875
 20
-43.825
 70
     8
  0
VERTEX
  8
ガラス
 10
90.9
 20
-43.825
 70
     8
  0
VERTEX
  8
ガラス
 10
90.95
 20
-43.85
 70
     8
  0
VERTEX
  8
ガラス
 10
90.975
 20
-43.85
 70
     8
  0
VERTEX
  8
ガラス
 10
91.0
 20
-43.85
 70
     8
  0
VERTEX
  8
ガラス
 10
91.025
 20
-43.85
 70
     8
  0
VERTEX
  8
ガラス
 10
91.05
 20
-43.875
 70
     8
  0
VERTEX
  8
ガラス
 10
91.1
 20
-43.875
 70
     8
  0
VERTEX
  8
ガラス
 10
91.125
 20
-43.875
 70
     8
  0
VERTEX
  8
ガラス
 10
91.15
 20
-43.875
 70
     8
  0
VERTEX
  8
ガラス
 10
91.175
 20
-43.9
 70
     8
  0
VERTEX
  8
ガラス
 10
91.2
 20
-43.9
 70
     8
  0
VERTEX
  8
ガラス
 10
91.25
 20
-43.9
 70
     8
  0
VERTEX
  8
ガラス
 10
91.275
 20
-43.925
 70
     8
  0
VERTEX
  8
ガラス
 10
91.3
 20
-43.925
 70
     8
  0
VERTEX
  8
ガラス
 10
91.325
 20
-43.95
 70
     8
  0
VERTEX
  8
ガラス
 10
91.35
 20
-43.95
 70
     8
  0
VERTEX
  8
ガラス
 10
91.375
 20
-43.95
 70
     8
  0
VERTEX
  8
ガラス
 10
91.425
 20
-43.975
 70
     8
  0
VERTEX
  8
ガラス
 10
91.45
 20
-43.975
 70
     8
  0
VERTEX
  8
ガラス
 10
91.475
 20
-44.0
 70
     8
  0
VERTEX
  8
ガラス
 10
91.5
 20
-44.0
 70
     8
  0
VERTEX
  8
ガラス
 10
91.525
 20
-44.025
 70
     8
  0
VERTEX
  8
ガラス
 10
91.55
 20
-44.025
 70
     8
  0
VERTEX
  8
ガラス
 10
91.575
 20
-44.025
 70
     8
  0
VERTEX
  8
ガラス
 10
91.625
 20
-44.05
 70
     8
  0
VERTEX
  8
ガラス
 10
91.65
 20
-44.05
 70
     8
  0
VERTEX
  8
ガラス
 10
91.675
 20
-44.075
 70
     8
  0
VERTEX
  8
ガラス
 10
91.7
 20
-44.075
 70
     8
  0
SEQEND
  0
ARC
  8
ガラス
  6
CONTINUOUS
 10
91.892062
 20
-43.629399
 40
0.477567
 50
247.735412
 51
427.735412
  0
ENDBLK
  0
BLOCK
  2
*GRP_0047
 70
    65
 10
0.0
 20
0.0
  0
POLYLINE
  8
ガラス
  6
CONTINUOUS
 66
     1
 70
     4
  0
VERTEX
  8
ガラス
 10
83.325
 20
-35.4
 70
     8
  0
VERTEX
  8
ガラス
 10
83.3
 20
-35.35
 70
     8
  0
VERTEX
  8
ガラス
 10
83.275
 20
-35.3
 70
     8
  0
VERTEX
  8
ガラス
 10
83.275
 20
-35.275
 70
     8
  0
VERTEX
  8
ガラス
 10
83.25
 20
-35.225
 70
     8
  0
VERTEX
  8
ガラス
 10
83.225
 20
-35.175
 70
     8
  0
VERTEX
  8
ガラス
 10
83.225
 20
-35.125
 70
     8
  0
VERTEX
  8
ガラス
 10
83.2
 20
-35.1
 70
     8
  0
VERTEX
  8
ガラス
 10
83.175
 20
-35.05
 70
     8
  0
VERTEX
  8
ガラス
 10
83.15
 20
-35.025
 70
     8
  0
VERTEX
  8
ガラス
 10
83.125
 20
-34.975
 70
     8
  0
VERTEX
  8
ガラス
 10
83.1
 20
-34.925
 70
     8
  0
VERTEX
  8
ガラス
 10
83.1
 20
-34.9
 70
     8
  0
VERTEX
  8
ガラス
 10
83.075
 20
-34.85
 70
     8
  0
VERTEX
  8
ガラス
 10
83.05
 20
-34.825
 70
     8
  0
VERTEX
  8
ガラス
 10
83.025
 20
-34.8
 70
     8
  0
VERTEX
  8
ガラス
 10
83.0
 20
-34.75
 70
     8
  0
VERTEX
  8
ガラス
 10
82.975
 20
-34.725
 70
     8
  0
VERTEX
  8
ガラス
 10
82.925
 20
-34.7
 70
     8
  0
VERTEX
  8
ガラス
 10
82.9
 20
-34.675
 70
     8
  0
VERTEX
  8
ガラス
 10
82.875
 20
-34.625
 70
     8
  0
VERTEX
  8
ガラス
 10
82.85
 20
-34.6
 70
     8
  0
VERTEX
  8
ガラス
 10
82.8
 20
-34.575
 70
     8
  0
VERTEX
  8
ガラス
 10
82.775
 20
-34.575
 70
     8
  0
VERTEX
  8
ガラス
 10
82.75
 20
-34.55
 70
     8
  0
VERTEX
  8
ガラス
 10
82.7
 20
-34.525
 70
     8
  0
VERTEX
  8
ガラス
 10
82.675
 20
-34.5
 70
     8
  0
VERTEX
  8
ガラス
 10
82.625
 20
-34.475
 70
     8
  0
VERTEX
  8
ガラス
 10
82.575
 20
-34.475
 70
     8
  0
VERTEX
  8
ガラス
 10
82.55
 20
-34.45
 70
     8
  0
VERTEX
  8
ガラス
 10
82.5
 20
-34.45
 70
     8
  0
VERTEX
  8
ガラス
 10
82.45
 20
-34.425
 70
     8
  0
VERTEX
  8
ガラス
 10
82.425
 20
-34.4
 70
     8
  0
VERTEX
  8
ガラス
 10
82.375
 20
-34.4
 70
     8
  0
VERTEX
  8
ガラス
 10
82.325
 20
-34.4
 70
     8
  0
VERTEX
  8
ガラス
 10
82.275
 20
-34.375
 70
     8
  0
VERTEX
  8
ガラス
 10
82.25
 20
-34.375
 70
     8
  0
VERTEX
  8
ガラス
 10
82.2
 20
-34.35
 70
     8
  0
VERTEX
  8
ガラス
 10
82.15
 20
-34.35
 70
     8
  0
VERTEX
  8
ガラス
 10
82.1
 20
-34.35
 70
     8
  0
VERTEX
  8
ガラス
 10
82.05
 20
-34.325
 70
     8
  0
SEQEND
  0
POLYLINE
  8
ガラス
  6
CONTINUOUS
 66
     1
 70
     4
  0
VERTEX
  8
ガラス
 10
82.05
 20
-34.325
 70
     8
  0
VERTEX
  8
ガラス
 10
82.075
 20
-34.35
 70
     8
  0
VERTEX
  8
ガラス
 10
82.075
 20
-34.375
 70
     8
  0
VERTEX
  8
ガラス
 10
82.1
 20
-34.425
 70
     8
  0
VERTEX
  8
ガラス
 10
82.1
 20
-34.45
 70
     8
  0
VERTEX
  8
ガラス
 10
82.125
 20
-34.475
 70
     8
  0
VERTEX
  8
ガラス
 10
82.125
 20
-34.5
 70
     8
  0
VERTEX
  8
ガラス
 10
82.15
 20
-34.525
 70
     8
  0
VERTEX
  8
ガラス
 10
82.15
 20
-34.55
 70
     8
  0
VERTEX
  8
ガラス
 10
82.175
 20
-34.575
 70
     8
  0
VERTEX
  8
ガラス
 10
82.175
 20
-34.625
 70
     8
  0
VERTEX
  8
ガラス
 10
82.2
 20
-34.65
 70
     8
  0
VERTEX
  8
ガラス
 10
82.2
 20
-34.675
 70
     8
  0
VERTEX
  8
ガラス
 10
82.2
 20
-34.7
 70
     8
  0
VERTEX
  8
ガラス
 10
82.225
 20
-34.725
 70
     8
  0
VERTEX
  8
ガラス
 10
82.225
 20
-34.75
 70
     8
  0
VERTEX
  8
ガラス
 10
82.25
 20
-34.775
 70
     8
  0
VERTEX
  8
ガラス
 10
82.25
 20
-34.825
 70
     8
  0
VERTEX
  8
ガラス
 10
82.25
 20
-34.85
 70
     8
  0
VERTEX
  8
ガラス
 10
82.275
 20
-34.875
 70
     8
  0
VERTEX
  8
ガラス
 10
82.275
 20
-34.9
 70
     8
  0
VERTEX
  8
ガラス
 10
82.275
 20
-34.925
 70
     8
  0
VERTEX
  8
ガラス
 10
82.3
 20
-34.95
 70
     8
  0
VERTEX
  8
ガラス
 10
82.3
 20
-35.0
 70
     8
  0
VERTEX
  8
ガラス
 10
82.3
 20
-35.025
 70
     8
  0
VERTEX
  8
ガラス
 10
82.3
 20
-35.05
 70
     8
  0
VERTEX
  8
ガラス
 10
82.325
 20
-35.075
 70
     8
  0
VERTEX
  8
ガラス
 10
82.325
 20
-35.1
 70
     8
  0
VERTEX
  8
ガラス
 10
82.325
 20
-35.15
 70
     8
  0
VERTEX
  8
ガラス
 10
82.325
 20
-35.175
 70
     8
  0
VERTEX
  8
ガラス
 10
82.325
 20
-35.2
 70
     8
  0
VERTEX
  8
ガラス
 10
82.35
 20
-35.225
 70
     8
  0
VERTEX
  8
ガラス
 10
82.35
 20
-35.275
 70
     8
  0
VERTEX
  8
ガラス
 10
82.35
 20
-35.3
 70
     8
  0
VERTEX
  8
ガラス
 10
82.35
 20
-35.325
 70
     8
  0
VERTEX
  8
ガラス
 10
82.35
 20
-35.35
 70
     8
  0
VERTEX
  8
ガラス
 10
82.35
 20
-35.375
 70
     8
  0
VERTEX
  8
ガラス
 10
82.375
 20
-35.425
 70
     8
  0
VERTEX
  8
ガラス
 10
82.375
 20
-35.45
 70
     8
  0
VERTEX
  8
ガラス
 10
82.375
 20
-35.475
 70
     8
  0
VERTEX
  8
ガラス
 10
82.375
 20
-35.5
 70
     8
  0
SEQEND
  0
ARC
  8
ガラス
  6
CONTINUOUS
 10
82.861596
 20
-35.437377
 40
0.477567
 50
186.882557
 51
366.882557
  0
ENDBLK
  0
BLOCK
  2
*GRP_0048
 70
    65
 10
0.0
 20
0.0
  0
POLYLINE
  8
ガラス
  6
CONTINUOUS
 66
     1
 70
     4
  0
VERTEX
  8
ガラス
 10
83.325
 20
-40.875
 70
     8
  0
VERTEX
  8
ガラス
 10
83.3
 20
-40.825
 70
     8
  0
VERTEX
  8
ガラス
 10
83.275
 20
-40.775
 70
     8
  0
VERTEX
  8
ガラス
 10
83.275
 20
-40.725
 70
     8
  0
VERTEX
  8
ガラス
 10
83.25
 20
-40.7
 70
     8
  0
VERTEX
  8
ガラス
 10
83.225
 20
-40.65
 70
     8
  0
VERTEX
  8
ガラス
 10
83.225
 20
-40.6
 70
     8
  0
VERTEX
  8
ガラス
 10
83.2
 20
-40.575
 70
     8
  0
VERTEX
  8
ガラス
 10
83.175
 20
-40.525
 70
     8
  0
VERTEX
  8
ガラス
 10
83.15
 20
-40.475
 70
     8
  0
VERTEX
  8
ガラス
 10
83.125
 20
-40.45
 70
     8
  0
VERTEX
  8
ガラス
 10
83.1
 20
-40.4
 70
     8
  0
VERTEX
  8
ガラス
 10
83.1
 20
-40.375
 70
     8
  0
VERTEX
  8
ガラス
 10
83.075
 20
-40.325
 70
     8
  0
VERTEX
  8
ガラス
 10
83.05
 20
-40.3
 70
     8
  0
VERTEX
  8
ガラス
 10
83.025
 20
-40.25
 70
     8
  0
VERTEX
  8
ガラス
 10
83.0
 20
-40.225
 70
     8
  0
VERTEX
  8
ガラス
 10
82.975
 20
-40.2
 70
     8
  0
VERTEX
  8
ガラス
 10
82.925
 20
-40.175
 70
     8
  0
VERTEX
  8
ガラス
 10
82.9
 20
-40.125
 70
     8
  0
VERTEX
  8
ガラス
 10
82.875
 20
-40.1
 70
     8
  0
VERTEX
  8
ガラス
 10
82.85
 20
-40.075
 70
     8
  0
VERTEX
  8
ガラス
 10
82.8
 20
-40.05
 70
     8
  0
VERTEX
  8
ガラス
 10
82.775
 20
-40.025
 70
     8
  0
VERTEX
  8
ガラス
 10
82.75
 20
-40.0
 70
     8
  0
VERTEX
  8
ガラス
 10
82.7
 20
-40.0
 70
     8
  0
VERTEX
  8
ガラス
 10
82.675
 20
-39.975
 70
     8
  0
VERTEX
  8
ガラス
 10
82.625
 20
-39.95
 70
     8
  0
VERTEX
  8
ガラス
 10
82.575
 20
-39.95
 70
     8
  0
VERTEX
  8
ガラス
 10
82.55
 20
-39.925
 70
     8
  0
VERTEX
  8
ガラス
 10
82.5
 20
-39.9
 70
     8
  0
VERTEX
  8
ガラス
 10
82.45
 20
-39.9
 70
     8
  0
VERTEX
  8
ガラス
 10
82.425
 20
-39.875
 70
     8
  0
VERTEX
  8
ガラス
 10
82.375
 20
-39.875
 70
     8
  0
VERTEX
  8
ガラス
 10
82.325
 20
-39.85
 70
     8
  0
VERTEX
  8
ガラス
 10
82.275
 20
-39.85
 70
     8
  0
VERTEX
  8
ガラス
 10
82.25
 20
-39.85
 70
     8
  0
VERTEX
  8
ガラス
 10
82.2
 20
-39.825
 70
     8
  0
VERTEX
  8
ガラス
 10
82.15
 20
-39.825
 70
     8
  0
VERTEX
  8
ガラス
 10
82.1
 20
-39.8
 70
     8
  0
VERTEX
  8
ガラス
 10
82.05
 20
-39.8
 70
     8
  0
SEQEND
  0
POLYLINE
  8
ガラス
  6
CONTINUOUS
 66
     1
 70
     4
  0
VERTEX
  8
ガラス
 10
82.05
 20
-39.8
 70
     8
  0
VERTEX
  8
ガラス
 10
82.075
 20
-39.825
 70
     8
  0
VERTEX
  8
ガラス
 10
82.075
 20
-39.85
 70
     8
  0
VERTEX
  8
ガラス
 10
82.1
 20
-39.875
 70
     8
  0
VERTEX
  8
ガラス
 10
82.1
 20
-39.925
 70
     8
  0
VERTEX
  8
ガラス
 10
82.125
 20
-39.95
 70
     8
  0
VERTEX
  8
ガラス
 10
82.125
 20
-39.975
 70
     8
  0
VERTEX
  8
ガラス
 10
82.15
 20
-40.0
 70
     8
  0
VERTEX
  8
ガラス
 10
82.15
 20
-40.025
 70
     8
  0
VERTEX
  8
ガラス
 10
82.175
 20
-40.05
 70
     8
  0
VERTEX
  8
ガラス
 10
82.175
 20
-40.075
 70
     8
  0
VERTEX
  8
ガラス
 10
82.2
 20
-40.1
 70
     8
  0
VERTEX
  8
ガラス
 10
82.2
 20
-40.15
 70
     8
  0
VERTEX
  8
ガラス
 10
82.2
 20
-40.175
 70
     8
  0
VERTEX
  8
ガラス
 10
82.225
 20
-40.2
 70
     8
  0
VERTEX
  8
ガラス
 10
82.225
 20
-40.225
 70
     8
  0
VERTEX
  8
ガラス
 10
82.25
 20
-40.25
 70
     8
  0
VERTEX
  8
ガラス
 10
82.25
 20
-40.275
 70
     8
  0
VERTEX
  8
ガラス
 10
82.25
 20
-40.325
 70
     8
  0
VERTEX
  8
ガラス
 10
82.275
 20
-40.35
 70
     8
  0
VERTEX
  8
ガラス
 10
82.275
 20
-40.375
 70
     8
  0
VERTEX
  8
ガラス
 10
82.275
 20
-40.4
 70
     8
  0
VERTEX
  8
ガラス
 10
82.3
 20
-40.425
 70
     8
  0
VERTEX
  8
ガラス
 10
82.3
 20
-40.475
 70
     8
  0
VERTEX
  8
ガラス
 10
82.3
 20
-40.5
 70
     8
  0
VERTEX
  8
ガラス
 10
82.3
 20
-40.525
 70
     8
  0
VERTEX
  8
ガラス
 10
82.325
 20
-40.55
 70
     8
  0
VERTEX
  8
ガラス
 10
82.325
 20
-40.575
 70
     8
  0
VERTEX
  8
ガラス
 10
82.325
 20
-40.6
 70
     8
  0
VERTEX
  8
ガラス
 10
82.325
 20
-40.65
 70
     8
  0
VERTEX
  8
ガラス
 10
82.325
 20
-40.675
 70
     8
  0
VERTEX
  8
ガラス
 10
82.35
 20
-40.7
 70
     8
  0
VERTEX
  8
ガラス
 10
82.35
 20
-40.725
 70
     8
  0
VERTEX
  8
ガラス
 10
82.35
 20
-40.775
 70
     8
  0
VERTEX
  8
ガラス
 10
82.35
 20
-40.8
 70
     8
  0
VERTEX
  8
ガラス
 10
82.35
 20
-40.825
 70
     8
  0
VERTEX
  8
ガラス
 10
82.35
 20
-40.85
 70
     8
  0
VERTEX
  8
ガラス
 10
82.375
 20
-40.875
 70
     8
  0
VERTEX
  8
ガラス
 10
82.375
 20
-40.925
 70
     8
  0
VERTEX
  8
ガラス
 10
82.375
 20
-40.95
 70
     8
  0
VERTEX
  8
ガラス
 10
82.375
 20
-40.975
 70
     8
  0
SEQEND
  0
ARC
  8
ガラス
  6
CONTINUOUS
 10
82.861596
 20
-40.908276
 40
0.477567
 50
186.882557
 51
366.882557
  0
ENDBLK
  0
BLOCK
  2
*GRP_0049
 70
    65
 10
0.0
 20
0.0
  0
POLYLINE
  8
ガラス
  6
CONTINUOUS
 66
     1
 70
     4
  0
VERTEX
  8
ガラス
 10
87.675
 20
-31.15
 70
     8
  0
VERTEX
  8
ガラス
 10
87.7
 20
-31.1
 70
     8
  0
VERTEX
  8
ガラス
 10
87.725
 20
-31.05
 70
     8
  0
VERTEX
  8
ガラス
 10
87.75
 20
-31.025
 70
     8
  0
VERTEX
  8
ガラス
 10
87.75
 20
-30.975
 70
     8
  0
VERTEX
  8
ガラス
 10
87.775
 20
-30.925
 70
     8
  0
VERTEX
  8
ガラス
 10
87.8
 20
-30.9
 70
     8
  0
VERTEX
  8
ガラス
 10
87.825
 20
-30.85
 70
     8
  0
VERTEX
  8
ガラス
 10
87.825
 20
-30.8
 70
     8
  0
VERTEX
  8
ガラス
 10
87.85
 20
-30.775
 70
     8
  0
VERTEX
  8
ガラス
 10
87.875
 20
-30.725
 70
     8
  0
VERTEX
  8
ガラス
 10
87.9
 20
-30.7
 70
     8
  0
VERTEX
  8
ガラス
 10
87.925
 20
-30.65
 70
     8
  0
VERTEX
  8
ガラス
 10
87.95
 20
-30.625
 70
     8
  0
VERTEX
  8
ガラス
 10
87.975
 20
-30.575
 70
     8
  0
VERTEX
  8
ガラス
 10
88.0
 20
-30.55
 70
     8
  0
VERTEX
  8
ガラス
 10
88.025
 20
-30.5
 70
     8
  0
VERTEX
  8
ガラス
 10
88.05
 20
-30.475
 70
     8
  0
VERTEX
  8
ガラス
 10
88.075
 20
-30.45
 70
     8
  0
VERTEX
  8
ガラス
 10
88.1
 20
-30.425
 70
     8
  0
VERTEX
  8
ガラス
 10
88.125
 20
-30.4
 70
     8
  0
VERTEX
  8
ガラス
 10
88.175
 20
-30.375
 70
     8
  0
VERTEX
  8
ガラス
 10
88.2
 20
-30.35
 70
     8
  0
VERTEX
  8
ガラス
 10
88.225
 20
-30.325
 70
     8
  0
VERTEX
  8
ガラス
 10
88.275
 20
-30.3
 70
     8
  0
VERTEX
  8
ガラス
 10
88.3
 20
-30.275
 70
     8
  0
VERTEX
  8
ガラス
 10
88.35
 20
-30.25
 70
     8
  0
VERTEX
  8
ガラス
 10
88.375
 20
-30.25
 70
     8
  0
VERTEX
  8
ガラス
 10
88.425
 20
-30.225
 70
     8
  0
VERTEX
  8
ガラス
 10
88.475
 20
-30.2
 70
     8
  0
VERTEX
  8
ガラス
 10
88.5
 20
-30.2
 70
     8
  0
VERTEX
  8
ガラス
 10
88.55
 20
-30.175
 70
     8
  0
VERTEX
  8
ガラス
 10
88.6
 20
-30.175
 70
     8
  0
VERTEX
  8
ガラス
 10
88.625
 20
-30.15
 70
     8
  0
VERTEX
  8
ガラス
 10
88.675
 20
-30.15
 70
     8
  0
VERTEX
  8
ガラス
 10
88.725
 20
-30.125
 70
     8
  0
VERTEX
  8
ガラス
 10
88.775
 20
-30.125
 70
     8
  0
VERTEX
  8
ガラス
 10
88.825
 20
-30.1
 70
     8
  0
VERTEX
  8
ガラス
 10
88.85
 20
-30.1
 70
     8
  0
VERTEX
  8
ガラス
 10
88.9
 20
-30.1
 70
     8
  0
VERTEX
  8
ガラス
 10
88.95
 20
-30.075
 70
     8
  0
SEQEND
  0
POLYLINE
  8
ガラス
  6
CONTINUOUS
 66
     1
 70
     4
  0
VERTEX
  8
ガラス
 10
88.95
 20
-30.075
 70
     8
  0
VERTEX
  8
ガラス
 10
88.95
 20
-30.1
 70
     8
  0
VERTEX
  8
ガラス
 10
88.925
 20
-30.15
 70
     8
  0
VERTEX
  8
ガラス
 10
88.925
 20
-30.175
 70
     8
  0
VERTEX
  8
ガラス
 10
88.9
 20
-30.2
 70
     8
  0
VERTEX
  8
ガラス
 10
88.9
 20
-30.225
 70
     8
  0
VERTEX
  8
ガラス
 10
88.875
 20
-30.25
 70
     8
  0
VERTEX
  8
ガラス
 10
88.875
 20
-30.275
 70
     8
  0
VERTEX
  8
ガラス
 10
88.85
 20
-30.3
 70
     8
  0
VERTEX
  8
ガラス
 10
88.85
 20
-30.35
 70
     8
  0
VERTEX
  8
ガラス
 10
88.825
 20
-30.375
 70
     8
  0
VERTEX
  8
ガラス
 10
88.825
 20
-30.4
 70
     8
  0
VERTEX
  8
ガラス
 10
88.8
 20
-30.425
 70
     8
  0
VERTEX
  8
ガラス
 10
88.8
 20
-30.45
 70
     8
  0
VERTEX
  8
ガラス
 10
88.8
 20
-30.475
 70
     8
  0
VERTEX
  8
ガラス
 10
88.775
 20
-30.5
 70
     8
  0
VERTEX
  8
ガラス
 10
88.775
 20
-30.55
 70
     8
  0
VERTEX
  8
ガラス
 10
88.75
 20
-30.575
 70
     8
  0
VERTEX
  8
ガラス
 10
88.75
 20
-30.6
 70
     8
  0
VERTEX
  8
ガラス
 10
88.75
 20
-30.625
 70
     8
  0
VERTEX
  8
ガラス
 10
88.725
 20
-30.65
 70
     8
  0
VERTEX
  8
ガラス
 10
88.725
 20
-30.675
 70
     8
  0
VERTEX
  8
ガラス
 10
88.725
 20
-30.725
 70
     8
  0
VERTEX
  8
ガラス
 10
88.725
 20
-30.75
 70
     8
  0
VERTEX
  8
ガラス
 10
88.7
 20
-30.775
 70
     8
  0
VERTEX
  8
ガラス
 10
88.7
 20
-30.8
 70
     8
  0
VERTEX
  8
ガラス
 10
88.7
 20
-30.825
 70
     8
  0
VERTEX
  8
ガラス
 10
88.7
 20
-30.875
 70
     8
  0
VERTEX
  8
ガラス
 10
88.675
 20
-30.9
 70
     8
  0
VERTEX
  8
ガラス
 10
88.675
 20
-30.925
 70
     8
  0
VERTEX
  8
ガラス
 10
88.675
 20
-30.95
 70
     8
  0
VERTEX
  8
ガラス
 10
88.675
 20
-30.975
 70
     8
  0
VERTEX
  8
ガラス
 10
88.675
 20
-31.025
 70
     8
  0
VERTEX
  8
ガラス
 10
88.65
 20
-31.05
 70
     8
  0
VERTEX
  8
ガラス
 10
88.65
 20
-31.075
 70
     8
  0
VERTEX
  8
ガラス
 10
88.65
 20
-31.1
 70
     8
  0
VERTEX
  8
ガラス
 10
88.65
 20
-31.15
 70
     8
  0
VERTEX
  8
ガラス
 10
88.65
 20
-31.175
 70
     8
  0
VERTEX
  8
ガラス
 10
88.65
 20
-31.2
 70
     8
  0
VERTEX
  8
ガラス
 10
88.65
 20
-31.225
 70
     8
  0
VERTEX
  8
ガラス
 10
88.625
 20
-31.25
 70
     8
  0
SEQEND
  0
ARC
  8
ガラス
  6
CONTINUOUS
 10
88.174018
 20
-31.191522
 40
0.477567
 50
173.117443
 51
353.117443
  0
ENDBLK
  0
BLOCK
  2
*GRP_0050
 70
    65
 10
0.0
 20
0.0
  0
LINE
  8
ボルト／ビス
  6
CONTINUOUS
 62
    64
 10
95.377297
 20
-52.22832
 11
95.901377
 21
-52.18247
  0
ARC
  8
ボルト／ビス
  6
CONTINUOUS
 62
    64
 10
95.827293
 20
-51.335708
 40
0.85
 50
274.999989
 51
360.0
  0
LINE
  8
ボルト／ビス
  6
CONTINUOUS
 62
    64
 10
96.677297
 20
-51.335705
 11
96.677297
 21
-50.47832
  0
LINE
  8
ボルト／ビス
  6
CONTINUOUS
 62
    64
 10
95.377297
 20
-48.728323
 11
95.901377
 21
-48.774172
  0
ARC
  8
ボルト／ビス
  6
CONTINUOUS
 62
    64
 10
95.827293
 20
-49.620941
 40
0.85
 50
0.0
 51
85.000011
  0
LINE
  8
ボルト／ビス
  6
CONTINUOUS
 62
    64
 10
96.677297
 20
-49.620938
 11
96.677297
 21
-50.47832
  0
LINE
  8
ボルト／ビス
  6
CONTINUOUS
 62
    64
 10
96.484845
 20
-51.67664
 11
96.605925
 21
-51.67664
  0
LINE
  8
ボルト／ビス
  6
CONTINUOUS
 62
    64
 10
96.159802
 20
-50.828323
 11
96.159802
 21
-50.47832
  0
LINE
  8
ボルト／ビス
  6
CONTINUOUS
 62
    64
 10
96.484845
 20
-51.02832
 11
96.484845
 21
-51.67664
  0
LINE
  8
ボルト／ビス
  6
CONTINUOUS
 62
    64
 10
96.159802
 20
-50.828323
 11
96.284845
 21
-50.828323
  0
ARC
  8
ボルト／ビス
  6
CONTINUOUS
 62
    64
 10
96.284841
 20
-51.028325
 40
0.2
 50
0.0
 51
90.0
  0
LINE
  8
ボルト／ビス
  6
CONTINUOUS
 62
    64
 10
96.484845
 20
-49.28
 11
96.605925
 21
-49.28
  0
LINE
  8
ボルト／ビス
  6
CONTINUOUS
 62
    64
 10
96.159802
 20
-50.12832
 11
96.159802
 21
-50.47832
  0
LINE
  8
ボルト／ビス
  6
CONTINUOUS
 62
    64
 10
96.484845
 20
-49.928323
 11
96.484845
 21
-49.28
  0
LINE
  8
ボルト／ビス
  6
CONTINUOUS
 62
    64
 10
96.159802
 20
-50.12832
 11
96.284845
 21
-50.12832
  0
ARC
  8
ボルト／ビス
  6
CONTINUOUS
 62
    64
 10
96.284841
 20
-49.928325
 40
0.2
 50
270.0
 51
360.0
  0
LINE
  8
ボルト／ビス
  6
CONTINUOUS
 62
    64
 10
95.377297
 20
-52.22832
 11
95.377297
 21
-48.728323
  0
LINE
  8
ボルト／ビス
  6
CONTINUOUS
 62
    64
 10
91.627297
 20
-51.47832
 11
91.377295
 21
-51.22832
  0
LINE
  8
ボルト／ビス
  6
CONTINUOUS
 62
    64
 10
91.627297
 20
-49.478323
 11
91.377295
 21
-49.72832
  0
LINE
  8
ボルト／ビス
  6
CONTINUOUS
 62
    64
 10
95.377297
 20
-51.22832
 11
91.377295
 21
-51.22832
  0
LINE
  8
ボルト／ビス
  6
CONTINUOUS
 62
    64
 10
95.377297
 20
-51.47832
 11
91.627297
 21
-51.47832
  0
LINE
  8
ボルト／ビス
  6
CONTINUOUS
 62
    64
 10
95.377297
 20
-49.72832
 11
91.377295
 21
-49.72832
  0
LINE
  8
ボルト／ビス
  6
CONTINUOUS
 62
    64
 10
95.377297
 20
-49.478323
 11
91.627297
 21
-49.478323
  0
LINE
  8
ボルト／ビス
  6
CONTINUOUS
 62
    64
 10
91.627297
 20
-51.47832
 11
91.627297
 21
-49.478323
  0
LINE
  8
ボルト／ビス
  6
CONTINUOUS
 62
    64
 10
91.377295
 20
-51.22832
 11
91.377295
 21
-49.72832
  0
LINE
  8
ボルト／ビス
  6
CONTINUOUS
 62
    64
 10
97.66299
 20
-50.47832
 11
90.252047
 21
-50.47832
  0
ENDBLK
  0
BLOCK
  2
*GRP_0051
 70
    65
 10
0.0
 20
0.0
  0
LINE
  8
ボルト／ビス
  6
CONTINUOUS
 62
    64
 10
89.227305
 20
-51.161932
 11
89.273155
 21
-51.686015
  0
ARC
  8
ボルト／ビス
  6
CONTINUOUS
 62
    64
 10
90.119918
 20
-51.61193
 40
0.85
 50
184.999989
 51
270.0
  0
LINE
  8
ボルト／ビス
  6
CONTINUOUS
 62
    64
 10
90.11992
 20
-52.461935
 11
90.977303
 21
-52.461935
  0
LINE
  8
ボルト／ビス
  6
CONTINUOUS
 62
    64
 10
92.727303
 20
-51.161932
 11
92.681452
 21
-51.686015
  0
ARC
  8
ボルト／ビス
  6
CONTINUOUS
 62
    64
 10
91.834685
 20
-51.61193
 40
0.85
 50
270.0
 51
355.000011
  0
LINE
  8
ボルト／ビス
  6
CONTINUOUS
 62
    64
 10
91.834687
 20
-52.461935
 11
90.977303
 21
-52.461935
  0
LINE
  8
ボルト／ビス
  6
CONTINUOUS
 62
    64
 10
89.778982
 20
-52.26948
 11
89.778982
 21
-52.39056
  0
LINE
  8
ボルト／ビス
  6
CONTINUOUS
 62
    64
 10
90.627303
 20
-51.94444
 11
90.977303
 21
-51.94444
  0
LINE
  8
ボルト／ビス
  6
CONTINUOUS
 62
    64
 10
90.427305
 20
-52.26948
 11
89.778982
 21
-52.26948
  0
LINE
  8
ボルト／ビス
  6
CONTINUOUS
 62
    64
 10
90.627303
 20
-51.94444
 11
90.627303
 21
-52.069482
  0
ARC
  8
ボルト／ビス
  6
CONTINUOUS
 62
    64
 10
90.427302
 20
-52.069477
 40
0.2
 50
270.0
 51
360.0
  0
LINE
  8
ボルト／ビス
  6
CONTINUOUS
 62
    64
 10
92.175622
 20
-52.26948
 11
92.175622
 21
-52.39056
  0
LINE
  8
ボルト／ビス
  6
CONTINUOUS
 62
    64
 10
91.327305
 20
-51.94444
 11
90.977303
 21
-51.94444
  0
LINE
  8
ボルト／ビス
  6
CONTINUOUS
 62
    64
 10
91.527303
 20
-52.26948
 11
92.175622
 21
-52.26948
  0
LINE
  8
ボルト／ビス
  6
CONTINUOUS
 62
    64
 10
91.327305
 20
-51.94444
 11
91.327305
 21
-52.069482
  0
ARC
  8
ボルト／ビス
  6
CONTINUOUS
 62
    64
 10
91.527302
 20
-52.069477
 40
0.2
 50
180.0
 51
270.0
  0
LINE
  8
ボルト／ビス
  6
CONTINUOUS
 62
    64
 10
89.227305
 20
-51.161932
 11
92.727303
 21
-51.161932
  0
LINE
  8
ボルト／ビス
  6
CONTINUOUS
 62
    64
 10
89.977305
 20
-47.411932
 11
90.227303
 21
-47.161932
  0
LINE
  8
ボルト／ビス
  6
CONTINUOUS
 62
    64
 10
91.977303
 20
-47.411932
 11
91.727303
 21
-47.161932
  0
LINE
  8
ボルト／ビス
  6
CONTINUOUS
 62
    64
 10
90.227303
 20
-51.161932
 11
90.227303
 21
-47.161932
  0
LINE
  8
ボルト／ビス
  6
CONTINUOUS
 62
    64
 10
89.977305
 20
-51.161932
 11
89.977305
 21
-47.411932
  0
LINE
  8
ボルト／ビス
  6
CONTINUOUS
 62
    64
 10
91.727303
 20
-51.161932
 11
91.727303
 21
-47.161932
  0
LINE
  8
ボルト／ビス
  6
CONTINUOUS
 62
    64
 10
91.977303
 20
-51.161932
 11
91.977303
 21
-47.411932
  0
LINE
  8
ボルト／ビス
  6
CONTINUOUS
 62
    64
 10
89.977305
 20
-47.411932
 11
91.977303
 21
-47.411932
  0
LINE
  8
ボルト／ビス
  6
CONTINUOUS
 62
    64
 10
90.227303
 20
-47.161932
 11
91.727303
 21
-47.161932
  0
LINE
  8
ボルト／ビス
  6
CONTINUOUS
 62
    64
 10
90.977303
 20
-53.447625
 11
90.977303
 21
-46.036685
  0
ENDBLK
  0
BLOCK
  2
*GRP_0052
 70
    65
 10
0.0
 20
0.0
  0
LINE
  8
ボルト／ビス
  6
CONTINUOUS
 62
    64
 10
60.977297
 20
-51.161932
 11
61.023148
 21
-51.686015
  0
ARC
  8
ボルト／ビス
  6
CONTINUOUS
 62
    64
 10
61.869911
 20
-51.61193
 40
0.85
 50
184.999989
 51
270.0
  0
LINE
  8
ボルト／ビス
  6
CONTINUOUS
 62
    64
 10
61.869912
 20
-52.461935
 11
62.727295
 21
-52.461935
  0
LINE
  8
ボルト／ビス
  6
CONTINUOUS
 62
    64
 10
64.477295
 20
-51.161932
 11
64.431445
 21
-51.686015
  0
ARC
  8
ボルト／ビス
  6
CONTINUOUS
 62
    64
 10
63.584677
 20
-51.61193
 40
0.85
 50
270.0
 51
355.000011
  0
LINE
  8
ボルト／ビス
  6
CONTINUOUS
 62
    64
 10
63.58468
 20
-52.461935
 11
62.727295
 21
-52.461935
  0
LINE
  8
ボルト／ビス
  6
CONTINUOUS
 62
    64
 10
61.528975
 20
-52.26948
 11
61.528975
 21
-52.39056
  0
LINE
  8
ボルト／ビス
  6
CONTINUOUS
 62
    64
 10
62.377295
 20
-51.94444
 11
62.727295
 21
-51.94444
  0
LINE
  8
ボルト／ビス
  6
CONTINUOUS
 62
    64
 10
62.177297
 20
-52.26948
 11
61.528975
 21
-52.26948
  0
LINE
  8
ボルト／ビス
  6
CONTINUOUS
 62
    64
 10
62.377295
 20
-51.94444
 11
62.377295
 21
-52.069482
  0
ARC
  8
ボルト／ビス
  6
CONTINUOUS
 62
    64
 10
62.177294
 20
-52.069477
 40
0.2
 50
270.0
 51
360.0
  0
LINE
  8
ボルト／ビス
  6
CONTINUOUS
 62
    64
 10
63.925615
 20
-52.26948
 11
63.925615
 21
-52.39056
  0
LINE
  8
ボルト／ビス
  6
CONTINUOUS
 62
    64
 10
63.077297
 20
-51.94444
 11
62.727295
 21
-51.94444
  0
LINE
  8
ボルト／ビス
  6
CONTINUOUS
 62
    64
 10
63.277295
 20
-52.26948
 11
63.925615
 21
-52.26948
  0
LINE
  8
ボルト／ビス
  6
CONTINUOUS
 62
    64
 10
63.077297
 20
-51.94444
 11
63.077297
 21
-52.069482
  0
ARC
  8
ボルト／ビス
  6
CONTINUOUS
 62
    64
 10
63.277294
 20
-52.069477
 40
0.2
 50
180.0
 51
270.0
  0
LINE
  8
ボルト／ビス
  6
CONTINUOUS
 62
    64
 10
60.977297
 20
-51.161932
 11
64.477295
 21
-51.161932
  0
LINE
  8
ボルト／ビス
  6
CONTINUOUS
 62
    64
 10
61.727297
 20
-47.411932
 11
61.977295
 21
-47.161932
  0
LINE
  8
ボルト／ビス
  6
CONTINUOUS
 62
    64
 10
63.727295
 20
-47.411932
 11
63.477295
 21
-47.161932
  0
LINE
  8
ボルト／ビス
  6
CONTINUOUS
 62
    64
 10
61.977295
 20
-51.161932
 11
61.977295
 21
-47.161932
  0
LINE
  8
ボルト／ビス
  6
CONTINUOUS
 62
    64
 10
61.727297
 20
-51.161932
 11
61.727297
 21
-47.411932
  0
LINE
  8
ボルト／ビス
  6
CONTINUOUS
 62
    64
 10
63.477295
 20
-51.161932
 11
63.477295
 21
-47.161932
  0
LINE
  8
ボルト／ビス
  6
CONTINUOUS
 62
    64
 10
63.727295
 20
-51.161932
 11
63.727295
 21
-47.411932
  0
LINE
  8
ボルト／ビス
  6
CONTINUOUS
 62
    64
 10
61.727297
 20
-47.411932
 11
63.727295
 21
-47.411932
  0
LINE
  8
ボルト／ビス
  6
CONTINUOUS
 62
    64
 10
61.977295
 20
-47.161932
 11
63.477295
 21
-47.161932
  0
LINE
  8
ボルト／ビス
  6
CONTINUOUS
 62
    64
 10
62.727295
 20
-53.447625
 11
62.727295
 21
-46.036685
  0
ENDBLK
  0
BLOCK
  2
*DIM_0053
 70
    65
 10
0.0
 20
0.0
  0
LINE
  8
寸法
  6
CONTINUOUS
 10
43.477297
 20
-24.311932
 11
43.477297
 21
89.463587
  0
LINE
  8
寸法
  6
CONTINUOUS
 10
54.009045
 20
89.463587
 11
43.477297
 21
89.463587
  0
POINT
  8
寸法
 10
54.009045
 20
89.463587
  0
POINT
  8
寸法
 10
43.477297
 20
89.463587
  0
TEXT
  7
TextStyle03
  8
寸法
  6
CONTINUOUS
 10
44.35
 20
89.825
  1
21.1
 40
4.0
 72
     5
 11
53.1
 21
89.825
  0
ENDBLK
  0
BLOCK
  2
*DIM_0054
 70
    65
 10
0.0
 20
0.0
  0
LINE
  8
寸法
  6
CONTINUOUS
 10
43.477297
 20
-24.311932
 11
43.477297
 21
96.593288
  0
LINE
  8
寸法
  6
CONTINUOUS
 10
109.475995
 20
-22.47493
 11
109.475995
 21
96.593288
  0
LINE
  8
寸法
  6
CONTINUOUS
 10
43.477297
 20
96.593288
 11
109.475995
 21
96.593288
  0
POINT
  8
寸法
 10
43.477297
 20
96.593288
  0
POINT
  8
寸法
 10
109.475995
 20
96.593288
  0
TEXT
  7
TextStyle03
  8
寸法
  6
CONTINUOUS
 10
73.225
 20
96.95
  1
132
 40
4.0
 72
     5
 11
79.725
 21
96.95
  0
ENDBLK
  0
BLOCK
  2
*DIM_0055
 70
    65
 10
0.0
 20
0.0
  0
LINE
  8
寸法
  6
CONTINUOUS
 10
109.475995
 20
-22.47493
 11
109.475995
 21
103.303955
  0
LINE
  8
寸法
  6
CONTINUOUS
 10
54.009045
 20
103.303955
 11
109.475995
 21
103.303955
  0
POINT
  8
寸法
 10
54.009045
 20
103.303955
  0
POINT
  8
寸法
 10
109.475995
 20
103.303955
  0
TEXT
  7
TextStyle03
  8
寸法
  6
CONTINUOUS
 10
76.225
 20
103.675
  1
110.9
 40
4.0
 72
     5
 11
87.225
 21
103.675
  0
ENDBLK
  0
BLOCK
  2
*DIM_0056
 70
    65
 10
0.0
 20
0.0
  0
LINE
  8
寸法
  6
CONTINUOUS
 10
-64.768393
 20
96.593288
 11
43.477297
 21
96.593288
  0
POINT
  8
寸法
 10
-64.768393
 20
96.593288
  0
POINT
  8
寸法
 10
43.477297
 20
96.593288
  0
TEXT
  7
TextStyle03
  8
寸法
  6
CONTINUOUS
 10
-19.4
 20
96.925
  1
枠内開口
 40
4.0
 72
     5
 11
-1.9
 21
96.925
  0
ENDBLK
  0
BLOCK
  2
*GRP_0057
 70
    65
 10
0.0
 20
0.0
  0
POLYLINE
  8
寸法
  6
BYBLOCK
 62
     0
 66
     1
  0
VERTEX
  8
寸法
 10
80.100055
 20
-50.21431
  0
VERTEX
  8
寸法
 10
34.293975
 20
-96.020392
  0
VERTEX
  8
寸法
 10
26.625393
 20
-96.020392
  0
SEQEND
  0
ENDBLK
  0
BLOCK
  2
*GRP_0058
 70
    65
 10
0.0
 20
0.0
  0
LINE
  8
ボルト／ビス
  6
CONTINUOUS
 62
    64
 10
-127.51839
 20
-68.861168
 11
-127.51839
 21
-103.731517
  0
LINE
  8
ボルト／ビス
  6
CONTINUOUS
 62
    64
 10
-129.268315
 20
-72.815505
 11
-128.914803
 21
-72.461743
  0
LINE
  8
ボルト／ビス
  6
CONTINUOUS
 62
    64
 10
-129.268315
 20
-72.815505
 11
-129.268315
 21
-75.96173
  0
LINE
  8
ボルト／ビス
  6
CONTINUOUS
 62
    64
 10
-129.268315
 20
-72.815505
 11
-129.621828
 21
-72.461743
  0
LINE
  8
ボルト／ビス
  6
CONTINUOUS
 62
    64
 10
-129.164765
 20
-69.961855
 11
-129.164765
 21
-72.461743
  0
LINE
  8
ボルト／ビス
  6
CONTINUOUS
 62
    64
 10
-131.51834
 20
-75.96173
 11
-131.51834
 21
-77.211792
  0
LINE
  8
ボルト／ビス
  6
CONTINUOUS
 62
    64
 10
-129.518427
 20
-87.461805
 11
-129.164765
 21
-87.108292
  0
LINE
  8
ボルト／ビス
  6
CONTINUOUS
 62
    64
 10
-129.164765
 20
-77.96193
 11
-129.164765
 21
-87.108292
  0
LINE
  8
ボルト／ビス
  6
CONTINUOUS
 62
    64
 10
-129.518427
 20
-92.161455
 11
-131.459527
 21
-99.405955
  0
LINE
  8
ボルト／ビス
  6
CONTINUOUS
 62
    64
 10
-129.518427
 20
-77.96193
 11
-129.518427
 21
-92.161455
  0
LINE
  8
ボルト／ビス
  6
CONTINUOUS
 62
    64
 10
-129.268315
 20
-72.815505
 11
-128.914803
 21
-72.461743
  0
LINE
  8
ボルト／ビス
  6
CONTINUOUS
 62
    64
 10
-125.79869
 20
-72.815505
 11
-125.445178
 21
-72.461743
  0
LINE
  8
ボルト／ビス
  6
CONTINUOUS
 62
    64
 10
-125.79869
 20
-72.815505
 11
-125.79869
 21
-75.96173
  0
LINE
  8
ボルト／ビス
  6
CONTINUOUS
 62
    64
 10
-125.79869
 20
-72.815505
 11
-126.152203
 21
-72.461743
  0
LINE
  8
ボルト／ビス
  6
CONTINUOUS
 62
    64
 10
-125.871928
 20
-69.961855
 11
-125.871928
 21
-72.461743
  0
LINE
  8
ボルト／ビス
  6
CONTINUOUS
 62
    64
 10
-123.51829
 20
-75.96173
 11
-123.51829
 21
-77.211792
  0
LINE
  8
ボルト／ビス
  6
CONTINUOUS
 62
    64
 10
-125.518402
 20
-87.461805
 11
-125.871928
 21
-87.108292
  0
LINE
  8
ボルト／ビス
  6
CONTINUOUS
 62
    64
 10
-125.871928
 20
-77.96193
 11
-125.871928
 21
-87.108292
  0
LINE
  8
ボルト／ビス
  6
CONTINUOUS
 62
    64
 10
-125.518402
 20
-92.161455
 11
-123.577253
 21
-99.405955
  0
LINE
  8
ボルト／ビス
  6
CONTINUOUS
 62
    64
 10
-125.518402
 20
-77.96193
 11
-125.518402
 21
-92.161455
  0
LINE
  8
ボルト／ビス
  6
CONTINUOUS
 62
    64
 10
-125.518402
 20
-70.315367
 11
-125.871928
 21
-69.961855
  0
LINE
  8
ボルト／ビス
  6
CONTINUOUS
 62
    64
 10
-125.518402
 20
-72.461743
 11
-125.518402
 21
-70.315367
  0
LINE
  8
ボルト／ビス
  6
CONTINUOUS
 62
    64
 10
-125.871928
 20
-69.961855
 11
-129.164765
 21
-69.961855
  0
LINE
  8
ボルト／ビス
  6
CONTINUOUS
 62
    64
 10
-129.164765
 20
-69.961855
 11
-129.518427
 21
-70.315367
  0
LINE
  8
ボルト／ビス
  6
CONTINUOUS
 62
    64
 10
-125.518402
 20
-70.315367
 11
-129.518427
 21
-70.315367
  0
LINE
  8
ボルト／ビス
  6
CONTINUOUS
 62
    64
 10
-129.518427
 20
-72.461743
 11
-129.518427
 21
-70.315367
  0
LINE
  8
ボルト／ビス
  6
CONTINUOUS
 62
    64
 10
-131.918328
 20
-72.815505
 11
-131.564815
 21
-72.461743
  0
LINE
  8
ボルト／ビス
  6
CONTINUOUS
 62
    64
 10
-131.918328
 20
-72.815505
 11
-131.918328
 21
-75.96173
  0
LINE
  8
ボルト／ビス
  6
CONTINUOUS
 62
    64
 10
-131.564815
 20
-72.461743
 11
-123.471965
 21
-72.461743
  0
LINE
  8
ボルト／ビス
  6
CONTINUOUS
 62
    64
 10
-123.118452
 20
-72.815505
 11
-123.471965
 21
-72.461743
  0
LINE
  8
ボルト／ビス
  6
CONTINUOUS
 62
    64
 10
-123.118452
 20
-72.815505
 11
-123.118452
 21
-75.96173
  0
LINE
  8
ボルト／ビス
  6
CONTINUOUS
 62
    64
 10
-131.918328
 20
-75.96173
 11
-123.118452
 21
-75.96173
  0
LINE
  8
ボルト／ビス
  6
CONTINUOUS
 62
    64
 10
-122.643303
 20
-77.211792
 11
-122.643303
 21
-77.96193
  0
LINE
  8
ボルト／ビス
  6
CONTINUOUS
 62
    64
 10
-122.643303
 20
-77.211792
 11
-132.39339
 21
-77.211792
  0
LINE
  8
ボルト／ビス
  6
CONTINUOUS
 62
    64
 10
-132.39339
 20
-77.211792
 11
-132.39339
 21
-77.96193
  0
LINE
  8
ボルト／ビス
  6
CONTINUOUS
 62
    64
 10
-122.643303
 20
-77.96193
 11
-132.39339
 21
-77.96193
  0
LINE
  8
ボルト／ビス
  6
CONTINUOUS
 62
    64
 10
-127.51839
 20
-92.490693
 11
-125.525428
 21
-99.92803
  0
LINE
  8
ボルト／ビス
  6
CONTINUOUS
 62
    64
 10
-123.577253
 20
-99.405955
 11
-125.525428
 21
-99.92803
  0
LINE
  8
ボルト／ビス
  6
CONTINUOUS
 62
    64
 10
-127.51839
 20
-92.490693
 11
-129.511215
 21
-99.92803
  0
LINE
  8
ボルト／ビス
  6
CONTINUOUS
 62
    64
 10
-131.459527
 20
-99.405955
 11
-129.511215
 21
-99.92803
  0
LINE
  8
ボルト／ビス
  6
CONTINUOUS
 62
    64
 10
-129.518427
 20
-100.96173
 11
-128.873427
 21
-97.30368
  0
LINE
  8
ボルト／ビス
  6
CONTINUOUS
 62
    64
 10
-125.518402
 20
-100.96173
 11
-126.163353
 21
-97.30368
  0
LINE
  8
ボルト／ビス
  6
CONTINUOUS
 62
    64
 10
-129.518427
 20
-100.96173
 11
-125.518402
 21
-100.96173
  0
LINE
  8
ボルト／ビス
  6
CONTINUOUS
 62
    64
 10
-128.873427
 20
-97.30368
 11
-126.163353
 21
-97.30368
  0
ENDBLK
  0
BLOCK
  2
*GRP_0059
 70
    65
 10
0.0
 20
0.0
  0
LINE
  8
ボルト／ビス
  6
CONTINUOUS
 62
    64
 10
106.227295
 20
-68.861168
 11
106.227295
 21
-103.731517
  0
LINE
  8
ボルト／ビス
  6
CONTINUOUS
 62
    64
 10
104.47737
 20
-72.815505
 11
104.830883
 21
-72.461743
  0
LINE
  8
ボルト／ビス
  6
CONTINUOUS
 62
    64
 10
104.47737
 20
-72.815505
 11
104.47737
 21
-75.96173
  0
LINE
  8
ボルト／ビス
  6
CONTINUOUS
 62
    64
 10
104.47737
 20
-72.815505
 11
104.123857
 21
-72.461743
  0
LINE
  8
ボルト／ビス
  6
CONTINUOUS
 62
    64
 10
104.58092
 20
-69.961855
 11
104.58092
 21
-72.461743
  0
LINE
  8
ボルト／ビス
  6
CONTINUOUS
 62
    64
 10
102.227345
 20
-75.96173
 11
102.227345
 21
-77.211792
  0
LINE
  8
ボルト／ビス
  6
CONTINUOUS
 62
    64
 10
104.227258
 20
-87.461805
 11
104.58092
 21
-87.108292
  0
LINE
  8
ボルト／ビス
  6
CONTINUOUS
 62
    64
 10
104.58092
 20
-77.96193
 11
104.58092
 21
-87.108292
  0
LINE
  8
ボルト／ビス
  6
CONTINUOUS
 62
    64
 10
104.227258
 20
-92.161455
 11
102.286158
 21
-99.405955
  0
LINE
  8
ボルト／ビス
  6
CONTINUOUS
 62
    64
 10
104.227258
 20
-77.96193
 11
104.227258
 21
-92.161455
  0
LINE
  8
ボルト／ビス
  6
CONTINUOUS
 62
    64
 10
104.47737
 20
-72.815505
 11
104.830883
 21
-72.461743
  0
LINE
  8
ボルト／ビス
  6
CONTINUOUS
 62
    64
 10
107.946995
 20
-72.815505
 11
108.300507
 21
-72.461743
  0
LINE
  8
ボルト／ビス
  6
CONTINUOUS
 62
    64
 10
107.946995
 20
-72.815505
 11
107.946995
 21
-75.96173
  0
LINE
  8
ボルト／ビス
  6
CONTINUOUS
 62
    64
 10
107.946995
 20
-72.815505
 11
107.593483
 21
-72.461743
  0
LINE
  8
ボルト／ビス
  6
CONTINUOUS
 62
    64
 10
107.873757
 20
-69.961855
 11
107.873757
 21
-72.461743
  0
LINE
  8
ボルト／ビス
  6
CONTINUOUS
 62
    64
 10
110.227395
 20
-75.96173
 11
110.227395
 21
-77.211792
  0
LINE
  8
ボルト／ビス
  6
CONTINUOUS
 62
    64
 10
108.227283
 20
-87.461805
 11
107.873757
 21
-87.108292
  0
LINE
  8
ボルト／ビス
  6
CONTINUOUS
 62
    64
 10
107.873757
 20
-77.96193
 11
107.873757
 21
-87.108292
  0
LINE
  8
ボルト／ビス
  6
CONTINUOUS
 62
    64
 10
108.227283
 20
-92.161455
 11
110.168433
 21
-99.405955
  0
LINE
  8
ボルト／ビス
  6
CONTINUOUS
 62
    64
 10
108.227283
 20
-77.96193
 11
108.227283
 21
-92.161455
  0
LINE
  8
ボルト／ビス
  6
CONTINUOUS
 62
    64
 10
108.227283
 20
-70.315367
 11
107.873757
 21
-69.961855
  0
LINE
  8
ボルト／ビス
  6
CONTINUOUS
 62
    64
 10
108.227283
 20
-72.461743
 11
108.227283
 21
-70.315367
  0
LINE
  8
ボルト／ビス
  6
CONTINUOUS
 62
    64
 10
107.873757
 20
-69.961855
 11
104.58092
 21
-69.961855
  0
LINE
  8
ボルト／ビス
  6
CONTINUOUS
 62
    64
 10
104.58092
 20
-69.961855
 11
104.227258
 21
-70.315367
  0
LINE
  8
ボルト／ビス
  6
CONTINUOUS
 62
    64
 10
108.227283
 20
-70.315367
 11
104.227258
 21
-70.315367
  0
LINE
  8
ボルト／ビス
  6
CONTINUOUS
 62
    64
 10
104.227258
 20
-72.461743
 11
104.227258
 21
-70.315367
  0
LINE
  8
ボルト／ビス
  6
CONTINUOUS
 62
    64
 10
101.827357
 20
-72.815505
 11
102.18087
 21
-72.461743
  0
LINE
  8
ボルト／ビス
  6
CONTINUOUS
 62
    64
 10
101.827357
 20
-72.815505
 11
101.827357
 21
-75.96173
  0
LINE
  8
ボルト／ビス
  6
CONTINUOUS
 62
    64
 10
102.18087
 20
-72.461743
 11
110.27372
 21
-72.461743
  0
LINE
  8
ボルト／ビス
  6
CONTINUOUS
 62
    64
 10
110.627232
 20
-72.815505
 11
110.27372
 21
-72.461743
  0
LINE
  8
ボルト／ビス
  6
CONTINUOUS
 62
    64
 10
110.627232
 20
-72.815505
 11
110.627232
 21
-75.96173
  0
LINE
  8
ボルト／ビス
  6
CONTINUOUS
 62
    64
 10
101.827357
 20
-75.96173
 11
110.627232
 21
-75.96173
  0
LINE
  8
ボルト／ビス
  6
CONTINUOUS
 62
    64
 10
111.102383
 20
-77.211792
 11
111.102383
 21
-77.96193
  0
LINE
  8
ボルト／ビス
  6
CONTINUOUS
 62
    64
 10
111.102383
 20
-77.211792
 11
101.352295
 21
-77.211792
  0
LINE
  8
ボルト／ビス
  6
CONTINUOUS
 62
    64
 10
101.352295
 20
-77.211792
 11
101.352295
 21
-77.96193
  0
LINE
  8
ボルト／ビス
  6
CONTINUOUS
 62
    64
 10
111.102383
 20
-77.96193
 11
101.352295
 21
-77.96193
  0
LINE
  8
ボルト／ビス
  6
CONTINUOUS
 62
    64
 10
106.227295
 20
-92.490693
 11
108.220257
 21
-99.92803
  0
LINE
  8
ボルト／ビス
  6
CONTINUOUS
 62
    64
 10
110.168433
 20
-99.405955
 11
108.220257
 21
-99.92803
  0
LINE
  8
ボルト／ビス
  6
CONTINUOUS
 62
    64
 10
106.227295
 20
-92.490693
 11
104.23447
 21
-99.92803
  0
LINE
  8
ボルト／ビス
  6
CONTINUOUS
 62
    64
 10
102.286158
 20
-99.405955
 11
104.23447
 21
-99.92803
  0
LINE
  8
ボルト／ビス
  6
CONTINUOUS
 62
    64
 10
104.227258
 20
-100.96173
 11
104.872257
 21
-97.30368
  0
LINE
  8
ボルト／ビス
  6
CONTINUOUS
 62
    64
 10
108.227283
 20
-100.96173
 11
107.582332
 21
-97.30368
  0
LINE
  8
ボルト／ビス
  6
CONTINUOUS
 62
    64
 10
104.227258
 20
-100.96173
 11
108.227283
 21
-100.96173
  0
LINE
  8
ボルト／ビス
  6
CONTINUOUS
 62
    64
 10
104.872257
 20
-97.30368
 11
107.582332
 21
-97.30368
  0
ENDBLK
  0
BLOCK
  2
*GRP_0060
 70
    65
 10
0.0
 20
0.0
  0
LINE
  8
曲げ物
  6
CONTINUOUS
 10
153.465697
 20
-83.164073
 11
153.465623
 21
-113.164073
  0
LINE
  8
曲げ物
  6
DOT
 10
152.96571
 20
-83.164073
 11
152.965635
 21
-113.164073
  0
LINE
  8
曲げ物
  6
CONTINUOUS
 10
148.465688
 20
-83.164073
 11
148.46565
 21
-113.164073
  0
LINE
  8
曲げ物
  6
DOT
 10
148.965712
 20
-83.164073
 11
148.965638
 21
-113.164073
  0
LINE
  8
曲げ物
  6
CONTINUOUS
 10
153.465623
 20
-113.164073
 11
148.46565
 21
-113.164073
  0
LINE
  8
曲げ物
  6
CONTINUOUS
 10
153.465697
 20
-83.164073
 11
148.465688
 21
-83.164073
  0
ENDBLK
  0
BLOCK
  2
*GRP_0061
 70
    65
 10
0.0
 20
0.0
  0
POLYLINE
  8
寸法
  6
CONTINUOUS
 66
     1
  0
VERTEX
  8
寸法
 10
150.669575
 20
-84.136402
  0
VERTEX
  8
寸法
 10
161.832255
 20
-72.973722
  0
VERTEX
  8
寸法
 10
165.667822
 20
-72.973722
  0
SEQEND
  0
ENDBLK
  0
BLOCK
  2
*GRP_0062
 70
    65
 10
0.0
 20
0.0
  0
LINE
  8
曲げ物
  6
CONTINUOUS
 10
-169.76836
 20
-83.164073
 11
-169.768435
 21
-113.164073
  0
LINE
  8
曲げ物
  6
DOT
 10
-170.268347
 20
-83.164073
 11
-170.268422
 21
-113.164073
  0
LINE
  8
曲げ物
  6
CONTINUOUS
 10
-174.76837
 20
-83.164073
 11
-174.768408
 21
-113.164073
  0
LINE
  8
曲げ物
  6
DOT
 10
-174.268345
 20
-83.164073
 11
-174.26842
 21
-113.164073
  0
LINE
  8
曲げ物
  6
CONTINUOUS
 10
-169.768435
 20
-113.164073
 11
-174.768408
 21
-113.164073
  0
LINE
  8
曲げ物
  6
CONTINUOUS
 10
-169.76836
 20
-83.164073
 11
-174.76837
 21
-83.164073
  0
ENDBLK
  0
BLOCK
  2
*GRP_0063
 70
    65
 10
0.0
 20
0.0
  0
LINE
  8
型材断面
  6
CONTINUOUS
 10
-65.518372
 20
-30.061935
 11
-66.518375
 21
-30.061935
  0
LINE
  8
型材断面
  6
CONTINUOUS
 10
-64.768372
 20
-29.311935
 11
-64.768372
 21
-45.311935
  0
LINE
  8
型材断面
  6
CONTINUOUS
 10
-101.918375
 20
-44.561935
 11
-65.518372
 21
-44.561935
  0
LINE
  8
型材断面
  6
CONTINUOUS
 10
-73.743372
 20
-45.311935
 11
-73.593372
 21
-45.161935
  0
LINE
  8
型材断面
  6
CONTINUOUS
 10
-73.593372
 20
-45.161935
 11
-73.443372
 21
-45.311935
  0
LINE
  8
型材断面
  6
CONTINUOUS
 10
-96.993372
 20
-45.311935
 11
-96.843372
 21
-45.161935
  0
LINE
  8
型材断面
  6
CONTINUOUS
 10
-96.843372
 20
-45.161935
 11
-96.693372
 21
-45.311935
  0
LINE
  8
型材断面
  6
CONTINUOUS
 10
-96.993372
 20
-45.311935
 11
-101.918375
 21
-45.311935
  0
LINE
  8
型材断面
  6
CONTINUOUS
 10
-64.768372
 20
-45.311935
 11
-73.443372
 21
-45.311935
  0
LINE
  8
型材断面
  6
CONTINUOUS
 10
-65.518372
 20
-35.661938
 11
-101.918375
 21
-35.661938
  0
POLYLINE
  8
型材断面
  6
CONTINUOUS
 66
     1
  0
VERTEX
  8
型材断面
 10
-96.993372
 20
-34.911938
  0
VERTEX
  8
型材断面
 10
-96.843372
 20
-35.061938
  0
VERTEX
  8
型材断面
 10
-96.693372
 20
-34.911938
  0
SEQEND
  0
LINE
  8
型材断面
  6
CONTINUOUS
 10
-73.743372
 20
-34.911938
 11
-73.593372
 21
-35.061938
  0
LINE
  8
型材断面
  6
CONTINUOUS
 10
-73.593372
 20
-35.061938
 11
-73.443372
 21
-34.911938
  0
LINE
  8
型材断面
  6
CONTINUOUS
 10
-96.693372
 20
-34.911938
 11
-73.743372
 21
-34.911938
  0
LINE
  8
型材断面
  6
CONTINUOUS
 10
-73.443372
 20
-34.911938
 11
-65.518372
 21
-34.911938
  0
LINE
  8
型材断面
  6
CONTINUOUS
 10
-65.518372
 20
-30.061935
 11
-65.518372
 21
-34.911938
  0
ARC
  8
型材断面
  6
CONTINUOUS
 10
-67.593241
 20
-39.346995
 40
0.25
 50
239.999957
 51
317.160385
  0
LINE
  8
型材断面
  6
CONTINUOUS
 10
-67.806923
 20
-39.512335
 11
-67.7183
 21
-39.563512
  0
ARC
  8
型材断面
  6
CONTINUOUS
 10
-67.681877
 20
-39.295821
 40
0.25
 50
138.224228
 51
239.999954
  0
ARC
  8
型材断面
  6
CONTINUOUS
 10
-66.768324
 20
-40.111937
 40
0.875
 50
222.839552
 51
497.160385
  0
ARC
  8
型材断面
  6
CONTINUOUS
 10
-67.593242
 20
-40.876878
 40
0.25
 50
42.839552
 51
119.99998
  0
LINE
  8
型材断面
  6
CONTINUOUS
 10
-67.806923
 20
-40.71156
 11
-67.7183
 21
-40.660387
  0
ARC
  8
型材断面
  6
CONTINUOUS
 10
-67.681878
 20
-40.928052
 40
0.25
 50
119.999983
 51
221.775709
  0
ARC
  8
型材断面
  6
CONTINUOUS
 10
-66.768324
 20
-40.111937
 40
1.475
 50
54.569811
 51
138.224228
  0
ARC
  8
型材断面
  6
CONTINUOUS
 10
-65.768323
 20
-38.706369
 40
0.25
 50
234.569811
 51
360.0
  0
ARC
  8
型材断面
  6
CONTINUOUS
 10
-66.768324
 20
-40.111937
 40
1.475
 50
221.775709
 51
305.430189
  0
ARC
  8
型材断面
  6
CONTINUOUS
 10
-65.768323
 20
-41.517506
 40
0.25
 50
0.0
 51
125.430189
  0
LINE
  8
型材断面
  6
CONTINUOUS
 10
-65.518372
 20
-44.561935
 11
-65.518372
 21
-41.51751
  0
ARC
  8
型材断面
  6
CONTINUOUS
 10
-99.843402
 20
-39.346995
 40
0.25
 50
222.839615
 51
300.000043
  0
LINE
  8
型材断面
  6
CONTINUOUS
 10
-99.629825
 20
-39.512335
 11
-99.718447
 21
-39.563512
  0
ARC
  8
型材断面
  6
CONTINUOUS
 10
-99.754766
 20
-39.295821
 40
0.25
 50
300.000046
 51
401.775772
  0
ARC
  8
型材断面
  6
CONTINUOUS
 10
-100.66832
 20
-40.111937
 40
0.875
 50
42.839615
 51
317.160448
  0
ARC
  8
型材断面
  6
CONTINUOUS
 10
-99.843401
 20
-40.876878
 40
0.25
 50
60.00002
 51
137.160448
  0
LINE
  8
型材断面
  6
CONTINUOUS
 10
-99.629825
 20
-40.71156
 11
-99.718447
 21
-40.660387
  0
ARC
  8
型材断面
  6
CONTINUOUS
 10
-99.754766
 20
-40.928052
 40
0.25
 50
-41.775709
 51
60.000017
  0
ARC
  8
型材断面
  6
CONTINUOUS
 10
-100.66832
 20
-40.111937
 40
1.475
 50
41.775772
 51
125.430189
  0
ARC
  8
型材断面
  6
CONTINUOUS
 10
-101.66832
 20
-38.706369
 40
0.25
 50
180.0
 51
305.430189
  0
ARC
  8
型材断面
  6
CONTINUOUS
 10
-100.66832
 20
-40.111937
 40
1.475
 50
234.569811
 51
318.224291
  0
ARC
  8
型材断面
  6
CONTINUOUS
 10
-101.66832
 20
-41.517506
 40
0.25
 50
54.569811
 51
180.0
  0
LINE
  8
型材断面
  6
CONTINUOUS
 10
-101.918375
 20
-44.561935
 11
-101.918375
 21
-41.51751
  0
LINE
  8
型材断面
  6
CONTINUOUS
 10
-102.668375
 20
-42.811935
 11
-103.418375
 21
-42.811935
  0
LINE
  8
型材断面
  6
CONTINUOUS
 10
-103.418375
 20
-42.811935
 11
-103.418375
 21
-43.311938
  0
LINE
  8
型材断面
  6
CONTINUOUS
 10
-103.418375
 20
-43.311938
 11
-102.668375
 21
-43.311938
  0
LINE
  8
型材断面
  6
CONTINUOUS
 10
-102.668375
 20
-44.561935
 11
-102.668375
 21
-43.311938
  0
LINE
  8
型材断面
  6
CONTINUOUS
 10
-122.668372
 20
-45.311935
 11
-122.668372
 21
-46.376185
  0
LINE
  8
型材断面
  6
CONTINUOUS
 10
-122.668372
 20
-46.376185
 11
-121.768372
 21
-46.376185
  0
LINE
  8
型材断面
  6
CONTINUOUS
 10
-121.768372
 20
-46.376185
 11
-121.768372
 21
-46.976185
  0
LINE
  8
型材断面
  6
CONTINUOUS
 10
-121.768372
 20
-46.976185
 11
-123.268372
 21
-46.976185
  0
ARC
  8
型材断面
  6
CONTINUOUS
 10
-114.768323
 20
-45.561939
 40
0.25
 50
90.0
 51
180.0
  0
LINE
  8
型材断面
  6
CONTINUOUS
 10
-123.268372
 20
-42.411938
 11
-123.118372
 21
-42.561938
  0
LINE
  8
型材断面
  6
CONTINUOUS
 10
-123.118372
 20
-42.561938
 11
-123.268372
 21
-42.711938
  0
LINE
  8
型材断面
  6
CONTINUOUS
 10
-123.268372
 20
-46.976185
 11
-123.268372
 21
-42.711938
  0
LINE
  8
型材断面
  6
CONTINUOUS
 10
-115.768372
 20
-45.311935
 11
-115.768372
 21
-54.476185
  0
LINE
  8
型材断面
  6
CONTINUOUS
 10
-115.768372
 20
-54.476185
 11
-115.018372
 21
-54.476185
  0
LINE
  8
型材断面
  6
CONTINUOUS
 10
-115.018372
 20
-49.561935
 11
-115.018372
 21
-54.476185
  0
LINE
  8
型材断面
  6
CONTINUOUS
 10
-102.668375
 20
-44.561935
 11
-122.518372
 21
-44.561935
  0
LINE
  8
型材断面
  6
CONTINUOUS
 10
-122.518372
 20
-44.561935
 11
-122.518372
 21
-39.828413
  0
LINE
  8
型材断面
  6
CONTINUOUS
 10
-123.268372
 20
-42.411938
 11
-123.268372
 21
-39.526185
  0
LINE
  8
型材断面
  6
CONTINUOUS
 10
-122.668372
 20
-45.311935
 11
-115.768372
 21
-45.311935
  0
LINE
  8
型材断面
  6
CONTINUOUS
 10
-102.668375
 20
-45.311935
 11
-114.76835
 21
-45.311935
  0
LINE
  8
型材断面
  6
CONTINUOUS
 10
-106.514375
 20
-29.597785
 11
-108.282125
 21
-27.83001
  0
LINE
  8
型材断面
  6
CONTINUOUS
 10
-113.692598
 20
-33.02626
 11
-113.339048
 21
-33.02626
  0
LINE
  8
型材断面
  6
CONTINUOUS
 10
-113.339048
 20
-33.02626
 11
-113.339048
 21
-32.67271
  0
LINE
  8
型材断面
  6
CONTINUOUS
 10
-108.918548
 20
-32.00196
 11
-108.7064
 21
-32.00196
  0
LINE
  8
型材断面
  6
CONTINUOUS
 10
-108.7064
 20
-32.00196
 11
-108.7064
 21
-31.78981
  0
LINE
  8
型材断面
  6
CONTINUOUS
 10
-107.080048
 20
-26.627935
 11
-106.655797
 21
-26.627935
  0
LINE
  8
型材断面
  6
CONTINUOUS
 10
-106.655797
 20
-26.627935
 11
-106.3376
 21
-26.946135
  0
LINE
  8
型材断面
  6
CONTINUOUS
 10
-106.3376
 20
-26.946135
 11
-107.221475
 21
-27.83001
  0
LINE
  8
型材断面
  6
CONTINUOUS
 10
-107.221475
 20
-27.83001
 11
-105.98405
 21
-29.06746
  0
LINE
  8
型材断面
  6
CONTINUOUS
 10
-102.448523
 20
-25.531935
 11
-103.685948
 21
-24.294488
  0
LINE
  8
型材断面
  6
CONTINUOUS
 10
-103.685948
 20
-24.294488
 11
-104.569823
 21
-25.178363
  0
LINE
  8
型材断面
  6
CONTINUOUS
 10
-104.888022
 20
-24.86016
 11
-104.569823
 21
-25.178363
  0
LINE
  8
型材断面
  6
CONTINUOUS
 10
-104.888022
 20
-24.86016
 11
-104.888022
 21
-24.43591
  0
LINE
  8
型材断面
  6
CONTINUOUS
 10
-108.282125
 20
-27.83001
 11
-107.080048
 21
-26.627935
  0
LINE
  8
型材断面
  6
CONTINUOUS
 10
-104.888022
 20
-24.43591
 11
-103.685948
 21
-23.233838
  0
ARC
  8
型材断面
  6
CONTINUOUS
 10
-103.042338
 20
-27.872449
 40
0.25
 50
-75.000043
 51
2.160385
  0
LINE
  8
型材断面
  6
CONTINUOUS
 10
-103.076525
 20
-28.140413
 11
-102.977675
 21
-28.113937
  0
ARC
  8
型材断面
  6
CONTINUOUS
 10
-103.141198
 20
-27.898938
 40
0.25
 50
183.224228
 51
284.999954
  0
ARC
  8
型材断面
  6
CONTINUOUS
 10
-101.918137
 20
-27.83004
 40
0.875
 50
267.839552
 51
542.160385
  0
ARC
  8
型材断面
  6
CONTINUOUS
 10
-101.960548
 20
-28.95424
 40
0.25
 50
87.839552
 51
164.99998
  0
LINE
  8
型材断面
  6
CONTINUOUS
 10
-102.228547
 20
-28.988385
 11
-102.202073
 21
-28.889535
  0
ARC
  8
型材断面
  6
CONTINUOUS
 10
-101.987037
 20
-29.053101
 40
0.25
 50
164.999983
 51
266.775709
  0
ARC
  8
型材断面
  6
CONTINUOUS
 10
-101.918137
 20
-27.83004
 40
1.475
 50
266.775709
 51
282.936214
  0
ARC
  8
型材断面
  6
CONTINUOUS
 10
-101.918137
 20
-27.83004
 40
1.475
 50
167.063981
 51
183.224228
  0
LINE
  8
型材断面
  6
CONTINUOUS
 10
-110.226697
 20
-33.31011
 11
-108.918548
 21
-32.00196
  0
LINE
  8
型材断面
  6
CONTINUOUS
 10
-108.7064
 20
-31.78981
 11
-106.514375
 21
-29.597785
  0
LINE
  8
型材断面
  6
CONTINUOUS
 10
-105.98405
 20
-29.06746
 11
-104.32235
 21
-27.40576
  0
LINE
  8
型材断面
  6
CONTINUOUS
 10
-104.110222
 20
-27.193635
 11
-102.448523
 21
-25.531935
  0
LINE
  8
型材断面
  6
CONTINUOUS
 10
-104.110222
 20
-27.40576
 11
-104.32235
 21
-27.40576
  0
LINE
  8
型材断面
  6
CONTINUOUS
 10
-104.110222
 20
-27.40576
 11
-104.110222
 21
-27.193635
  0
LINE
  8
型材断面
  6
CONTINUOUS
 10
-110.510623
 20
-34.08691
 11
-109.942822
 21
-34.08691
  0
LINE
  8
型材断面
  6
CONTINUOUS
 10
-103.35575
 20
-27.499838
 11
-109.942822
 21
-34.08691
  0
LINE
  8
型材断面
  6
CONTINUOUS
 10
-113.339048
 20
-32.672685
 11
-112.27835
 21
-31.612013
  0
LINE
  8
型材断面
  6
CONTINUOUS
 10
-110.226697
 20
-33.31011
 11
-111.9248
 21
-31.612013
  0
ARC
  8
型材断面
  6
CONTINUOUS
 10
-112.101524
 20
-31.788785
 40
0.25
 50
45.0
 51
134.999711
  0
LINE
  8
型材断面
  6
CONTINUOUS
 10
-112.524773
 20
-36.66891
 11
-112.171223
 21
-36.31536
  0
LINE
  8
型材断面
  6
CONTINUOUS
 10
-110.510623
 20
-34.08691
 11
-112.455125
 21
-36.031462
  0
LINE
  8
型材断面
  6
CONTINUOUS
 10
-112.171223
 20
-36.31536
 11
-112.455125
 21
-36.031462
  0
LINE
  8
型材断面
  6
CONTINUOUS
 10
-101.587972
 20
-29.267587
 11
-102.668375
 21
-30.347985
  0
LINE
  8
型材断面
  6
CONTINUOUS
 10
-102.668375
 20
-42.811935
 11
-102.668375
 21
-30.347985
  0
LINE
  8
型材断面
  6
CONTINUOUS
 10
-96.993372
 20
-34.911938
 11
-101.894975
 21
-34.911938
  0
LINE
  8
型材断面
  6
CONTINUOUS
 10
-66.518375
 20
-30.061935
 11
-66.518375
 21
-29.511938
  0
LINE
  8
型材断面
  6
CONTINUOUS
 10
-66.518375
 20
-29.511938
 11
-66.17195
 21
-29.311935
  0
LINE
  8
型材断面
  6
CONTINUOUS
 10
-64.768372
 20
-29.311935
 11
-66.17195
 21
-29.311935
  0
LINE
  8
型材断面
  6
CONTINUOUS
 10
-123.268372
 20
-39.526185
 11
-120.99365
 21
-37.251487
  0
ARC
  8
型材断面
  6
CONTINUOUS
 10
-118.644175
 20
-38.898018
 40
0.25
 50
177.789337
 51
254.949765
  0
LINE
  8
型材断面
  6
CONTINUOUS
 10
-118.6103
 20
-39.166013
 11
-118.709123
 21
-39.139435
  0
ARC
  8
型材断面
  6
CONTINUOUS
 10
-118.545338
 20
-38.924595
 40
0.25
 50
254.949768
 51
356.725494
  0
ARC
  8
型材断面
  6
CONTINUOUS
 10
-119.768338
 20
-38.854623
 40
0.875
 50
357.789337
 51
632.11017
  0
ARC
  8
型材断面
  6
CONTINUOUS
 10
-119.726914
 20
-39.97886
 40
0.25
 50
14.949742
 51
92.11017
  0
LINE
  8
型材断面
  6
CONTINUOUS
 10
-119.459022
 20
-40.013235
 11
-119.4854
 21
-39.914362
  0
ARC
  8
型材断面
  6
CONTINUOUS
 10
-119.700512
 20
-40.077744
 40
0.25
 50
-86.825986
 51
14.94974
  0
ARC
  8
型材断面
  6
CONTINUOUS
 10
-119.768338
 20
-38.854623
 40
1.475
 50
189.519533
 51
273.174014
  0
ARC
  8
型材断面
  6
CONTINUOUS
 10
-121.469584
 20
-39.13991
 40
0.25
 50
9.519533
 51
134.949722
  0
LINE
  8
型材断面
  6
CONTINUOUS
 10
-122.518372
 20
-39.828413
 11
-121.648823
 21
-38.960385
  0
LINE
  8
型材断面
  6
CONTINUOUS
 10
-112.524773
 20
-36.66891
 11
-114.399672
 21
-34.79401
  0
LINE
  8
型材断面
  6
CONTINUOUS
 10
-102.044975
 20
-32.911935
 11
-101.894975
 21
-32.761935
  0
LINE
  8
型材断面
  6
CONTINUOUS
 10
-102.044975
 20
-32.911935
 11
-101.894975
 21
-33.061935
  0
LINE
  8
型材断面
  6
CONTINUOUS
 10
-101.894975
 20
-30.63526
 11
-101.894975
 21
-32.761935
  0
LINE
  8
型材断面
  6
CONTINUOUS
 10
-101.894975
 20
-33.061935
 11
-101.894975
 21
-34.911938
  0
LINE
  8
型材断面
  6
CONTINUOUS
 10
-103.685948
 20
-23.233838
 11
-99.549725
 21
-27.37006
  0
LINE
  8
型材断面
  6
CONTINUOUS
 10
-101.894975
 20
-30.63526
 11
-99.549725
 21
-28.290038
  0
LINE
  8
型材断面
  6
CONTINUOUS
 10
-99.549725
 20
-27.37006
 11
-99.549725
 21
-28.290038
  0
LINE
  8
型材断面
  6
CONTINUOUS
 10
-101.918375
 20
-45.311935
 11
-101.918375
 21
-46.961935
  0
LINE
  8
型材断面
  6
CONTINUOUS
 10
-102.668375
 20
-45.311935
 11
-102.668375
 21
-46.961935
  0
LINE
  8
型材断面
  6
CONTINUOUS
 10
-102.668375
 20
-46.961935
 11
-101.918375
 21
-46.961935
  0
LINE
  8
型材断面
  6
CONTINUOUS
 10
-115.018372
 20
-46.461938
 11
-114.268372
 21
-46.461938
  0
LINE
  8
型材断面
  6
CONTINUOUS
 10
-114.268372
 20
-46.461938
 11
-114.268372
 21
-46.961935
  0
LINE
  8
型材断面
  6
CONTINUOUS
 10
-115.018372
 20
-46.961935
 11
-114.268372
 21
-46.961935
  0
LINE
  8
型材断面
  6
CONTINUOUS
 10
-115.018372
 20
-45.561938
 11
-115.018372
 21
-46.461938
  0
LINE
  8
型材断面
  6
CONTINUOUS
 10
-115.018372
 20
-46.961935
 11
-115.018372
 21
-48.811935
  0
LINE
  8
型材断面
  6
CONTINUOUS
 10
-65.518372
 20
-36.911935
 11
-66.268372
 21
-36.911935
  0
LINE
  8
型材断面
  6
CONTINUOUS
 10
-66.268372
 20
-36.911935
 11
-66.268372
 21
-37.411935
  0
LINE
  8
型材断面
  6
CONTINUOUS
 10
-65.518372
 20
-37.411935
 11
-66.268372
 21
-37.411935
  0
LINE
  8
型材断面
  6
CONTINUOUS
 10
-65.518372
 20
-35.661938
 11
-65.518372
 21
-36.911935
  0
LINE
  8
型材断面
  6
CONTINUOUS
 10
-65.518372
 20
-37.411935
 11
-65.518372
 21
-38.70636
  0
LINE
  8
型材断面
  6
CONTINUOUS
 10
-101.918375
 20
-36.911935
 11
-101.168375
 21
-36.911935
  0
LINE
  8
型材断面
  6
CONTINUOUS
 10
-101.168375
 20
-36.911935
 11
-101.168375
 21
-37.411935
  0
LINE
  8
型材断面
  6
CONTINUOUS
 10
-101.918375
 20
-37.411935
 11
-101.168375
 21
-37.411935
  0
LINE
  8
型材断面
  6
CONTINUOUS
 10
-101.918375
 20
-35.661938
 11
-101.918375
 21
-36.911935
  0
LINE
  8
型材断面
  6
CONTINUOUS
 10
-101.918375
 20
-37.411935
 11
-101.918375
 21
-38.70636
  0
LINE
  8
型材断面
  6
CONTINUOUS
 10
-120.99365
 20
-37.251487
 11
-127.232848
 21
-31.01176
  0
LINE
  8
型材断面
  6
CONTINUOUS
 10
-119.80445
 20
-37.380085
 11
-125.88939
 21
-31.29462
  0
LINE
  8
型材断面
  6
CONTINUOUS
 10
-115.460123
 20
-34.79376
 11
-123.237425
 21
-27.016435
  0
LINE
  8
型材断面
  6
CONTINUOUS
 10
-125.64185
 20
-25.885328
 11
-125.394343
 21
-26.132798
  0
LINE
  8
型材断面
  6
CONTINUOUS
 10
-125.040808
 20
-25.779258
 11
-125.394343
 21
-26.132798
  0
LINE
  8
型材断面
  6
CONTINUOUS
 10
-124.227615
 20
-26.592415
 11
-125.040808
 21
-25.779258
  0
LINE
  8
型材断面
  6
CONTINUOUS
 10
-127.586392
 20
-26.627753
 11
-127.798505
 21
-26.62777
  0
LINE
  8
型材断面
  6
CONTINUOUS
 10
-127.586392
 20
-26.627753
 11
-127.586392
 21
-26.415655
  0
LINE
  8
型材断面
  6
CONTINUOUS
 10
-127.586392
 20
-26.415655
 11
-125.995407
 21
-24.82467
  0
ARC
  8
型材断面
  6
CONTINUOUS
 10
-125.288302
 20
-25.53178
 40
1.0
 50
45.001228
 51
135.0
  0
LINE
  8
型材断面
  6
CONTINUOUS
 10
-126.631783
 20
-28.996577
 11
-127.409565
 21
-29.774363
  0
LINE
  8
型材断面
  6
CONTINUOUS
 10
-126.631783
 20
-28.996577
 11
-125.747952
 21
-29.880408
  0
ARC
  8
型材断面
  6
CONTINUOUS
 10
-125.394398
 20
-29.526857
 40
0.5
 50
225.0
 51
315.0
  0
LINE
  8
型材断面
  6
CONTINUOUS
 10
-125.040845
 20
-29.880408
 11
-124.333738
 21
-29.1733
  0
ARC
  8
型材断面
  6
CONTINUOUS
 10
-124.687292
 20
-28.81975
 40
0.5
 50
315.0
 51
405.0
  0
ARC
  8
型材断面
  6
CONTINUOUS
 10
-128.753128
 20
-27.935886
 40
0.25
 50
134.999947
 51
224.999947
  0
LINE
  8
型材断面
  6
CONTINUOUS
 10
-128.929835
 20
-28.112655
 11
-128.5763
 21
-28.466223
  0
ARC
  8
型材断面
  6
CONTINUOUS
 10
-128.399575
 20
-28.28944
 40
0.25
 50
224.999947
 51
314.999947
  0
LINE
  8
型材断面
  6
CONTINUOUS
 10
-127.798505
 20
-26.62777
 11
-128.929872
 21
-27.759137
  0
LINE
  8
型材断面
  6
CONTINUOUS
 10
-125.64185
 20
-25.885328
 11
-128.222768
 21
-28.466245
  0
LINE
  8
型材断面
  6
CONTINUOUS
 10
-127.409565
 20
-29.774363
 11
-126.702488
 21
-30.481435
  0
LINE
  8
型材断面
  6
CONTINUOUS
 10
-127.232825
 20
-31.011773
 11
-126.702488
 21
-30.481435
  0
LINE
  8
型材断面
  6
CONTINUOUS
 10
-124.227615
 20
-26.592415
 11
-125.040787
 21
-27.405588
  0
LINE
  8
型材断面
  6
CONTINUOUS
 10
-125.040787
 20
-27.759142
 11
-124.333738
 21
-28.466193
  0
ARC
  8
型材断面
  6
CONTINUOUS
 10
-124.864014
 20
-27.582367
 40
0.25
 50
135.0
 51
225.0
  0
LINE
  8
型材断面
  6
CONTINUOUS
 10
-125.88939
 20
-31.29462
 11
-124.68729
 21
-31.29462
  0
LINE
  8
型材断面
  6
CONTINUOUS
 10
-122.919523
 20
-28.395038
 11
-122.919523
 21
-29.526855
  0
LINE
  8
型材断面
  6
CONTINUOUS
 10
-124.68729
 20
-31.29462
 11
-122.919523
 21
-29.526855
  0
LINE
  8
型材断面
  6
CONTINUOUS
 10
-123.237425
 20
-27.016435
 11
-123.237425
 21
-26.16838
  0
LINE
  8
型材断面
  6
CONTINUOUS
 10
-124.581207
 20
-24.824655
 11
-123.237425
 21
-26.16838
  0
LINE
  8
型材断面
  6
CONTINUOUS
 10
-115.018372
 20
-48.811935
 11
-109.218418
 21
-48.811935
  0
ARC
  8
型材断面
  6
CONTINUOUS
 10
-109.218367
 20
-49.061939
 40
0.25
 50
0.0
 51
90.0
  0
LINE
  8
型材断面
  6
CONTINUOUS
 10
-108.968415
 20
-49.311938
 11
-108.968415
 21
-49.061935
  0
ARC
  8
型材断面
  6
CONTINUOUS
 10
-109.218367
 20
-49.311939
 40
0.25
 50
-90.0
 51
0.0
  0
ARC
  8
型材断面
  6
CONTINUOUS
 10
-80.468297
 20
-45.561939
 40
0.25
 50
0.0
 51
90.0
  0
LINE
  8
型材断面
  6
CONTINUOUS
 10
-80.468347
 20
-45.311935
 11
-96.693372
 21
-45.311935
  0
LINE
  8
型材断面
  6
CONTINUOUS
 10
-73.743372
 20
-45.311935
 11
-79.468347
 21
-45.311935
  0
LINE
  8
型材断面
  6
CONTINUOUS
 10
-79.468347
 20
-45.311935
 11
-79.468347
 21
-49.561935
  0
ARC
  8
型材断面
  6
CONTINUOUS
 10
-85.218298
 20
-49.061939
 40
0.25
 50
90.0
 51
180.0
  0
LINE
  8
型材断面
  6
CONTINUOUS
 10
-85.468347
 20
-49.061935
 11
-85.468347
 21
-49.311938
  0
ARC
  8
型材断面
  6
CONTINUOUS
 10
-85.218298
 20
-49.311939
 40
0.25
 50
180.0
 51
270.0
  0
LINE
  8
型材断面
  6
CONTINUOUS
 10
-80.218347
 20
-48.811935
 11
-85.218322
 21
-48.811935
  0
LINE
  8
型材断面
  6
CONTINUOUS
 10
-80.218347
 20
-46.461938
 11
-80.968347
 21
-46.461938
  0
LINE
  8
型材断面
  6
CONTINUOUS
 10
-80.968347
 20
-46.461938
 11
-80.968347
 21
-46.961935
  0
LINE
  8
型材断面
  6
CONTINUOUS
 10
-80.218347
 20
-46.961935
 11
-80.968347
 21
-46.961935
  0
LINE
  8
型材断面
  6
CONTINUOUS
 10
-80.218347
 20
-45.561938
 11
-80.218347
 21
-46.461938
  0
LINE
  8
型材断面
  6
CONTINUOUS
 10
-80.218347
 20
-46.961935
 11
-80.218347
 21
-48.811935
  0
LINE
  8
型材断面
  6
CONTINUOUS
 10
-111.418372
 20
-49.561935
 11
-111.268372
 21
-49.411935
  0
LINE
  8
型材断面
  6
CONTINUOUS
 10
-111.268372
 20
-49.411935
 11
-111.118372
 21
-49.561935
  0
LINE
  8
型材断面
  6
CONTINUOUS
 10
-115.018372
 20
-49.561935
 11
-111.418372
 21
-49.561935
  0
LINE
  8
型材断面
  6
CONTINUOUS
 10
-111.118372
 20
-49.561935
 11
-109.218418
 21
-49.561935
  0
LINE
  8
型材断面
  6
CONTINUOUS
 10
-83.368372
 20
-49.561935
 11
-83.218372
 21
-49.411935
  0
LINE
  8
型材断面
  6
CONTINUOUS
 10
-83.218372
 20
-49.411935
 11
-83.068372
 21
-49.561935
  0
LINE
  8
型材断面
  6
CONTINUOUS
 10
-79.468347
 20
-49.561935
 11
-83.068372
 21
-49.561935
  0
LINE
  8
型材断面
  6
CONTINUOUS
 10
-83.368372
 20
-49.561935
 11
-85.218322
 21
-49.561935
  0
LINE
  8
型材断面
  6
CONTINUOUS
 10
-114.39965
 20
-34.793985
 11
-118.301855
 21
-38.69632
  0
LINE
  8
型材断面
  6
CONTINUOUS
 10
-122.919523
 20
-28.395038
 11
-115.990463
 21
-35.324095
  0
LINE
  8
型材断面
  6
CONTINUOUS
 10
-113.692598
 20
-33.02626
 11
-115.460123
 21
-34.79376
  0
LINE
  8
型材断面
  6
CONTINUOUS
 10
-115.990463
 20
-35.324095
 11
-118.609055
 21
-37.94265
  0
ARC
  8
型材断面
  6
CONTINUOUS
 10
-119.768338
 20
-38.854623
 40
1.475
 50
356.725494
 51
366.161024
  0
ARC
  8
型材断面
  6
CONTINUOUS
 10
-119.768338
 20
-38.854623
 40
1.475
 50
38.191075
 51
91.402294
  0
ENDBLK
  0
BLOCK
  2
*GRP_0064
 70
    65
 10
0.0
 20
0.0
  0
LINE
  8
型材断面
  6
CONTINUOUS
 62
    47
 10
-116.37746
 20
-15.348008
 11
-114.60971
 21
-13.580257
  0
LINE
  8
型材断面
  6
CONTINUOUS
 62
    47
 10
-116.37746
 20
-15.348008
 11
-116.801715
 21
-14.92375
  0
LINE
  8
型材断面
  6
CONTINUOUS
 62
    47
 10
-127.196202
 20
-25.671813
 11
-127.019427
 21
-25.848588
  0
LINE
  8
型材断面
  6
CONTINUOUS
 62
    47
 10
-128.292217
 20
-28.747705
 11
-129.282157
 21
-27.757765
  0
LINE
  8
型材断面
  6
CONTINUOUS
 62
    47
 10
-127.196202
 20
-25.671813
 11
-129.282157
 21
-27.757765
  0
LINE
  8
型材断面
  6
CONTINUOUS
 62
    47
 10
-126.878047
 20
-30.303315
 11
-126.701228
 21
-30.48012
  0
LINE
  8
型材断面
  6
CONTINUOUS
 62
    47
 10
-126.701228
 20
-30.48012
 11
-127.23155
 21
-31.01046
  0
LINE
  8
型材断面
  6
CONTINUOUS
 62
    47
 10
-130.76709
 20
-27.47493
 11
-127.23155
 21
-31.01046
  0
LINE
  8
型材断面
  6
CONTINUOUS
 62
    47
 10
-126.878047
 20
-30.303315
 11
-127.054807
 21
-30.480075
  0
LINE
  8
型材断面
  6
CONTINUOUS
 62
    47
 10
-128.292217
 20
-28.747705
 11
-127.76187
 21
-28.217393
  0
LINE
  8
型材断面
  6
CONTINUOUS
 62
    47
 10
-127.514385
 20
-28.464865
 11
-127.76187
 21
-28.217393
  0
LINE
  8
型材断面
  6
CONTINUOUS
 62
    47
 10
-125.110238
 20
-26.060718
 11
-127.514385
 21
-28.464865
  0
ARC
  8
型材断面
  6
CONTINUOUS
 62
    47
 10
-124.933495
 20
-26.237452
 40
0.25
 50
45.000057
 51
135.000057
  0
LINE
  8
型材断面
  6
CONTINUOUS
 62
    47
 10
-124.756693
 20
-26.06071
 11
-124.40313
 21
-26.414272
  0
ARC
  8
型材断面
  6
CONTINUOUS
 62
    47
 10
-124.579941
 20
-26.591005
 40
0.25
 50
-44.999943
 51
45.000057
  0
LINE
  8
型材断面
  6
CONTINUOUS
 62
    47
 10
-127.019427
 20
-25.848588
 11
-126.241603
 21
-25.07076
  0
LINE
  8
型材断面
  6
CONTINUOUS
 62
    47
 10
-126.241603
 20
-25.07076
 11
-126.24161
 21
-24.363645
  0
LINE
  8
型材断面
  6
CONTINUOUS
 62
    47
 10
-116.801715
 20
-14.92375
 11
-126.24161
 21
-24.363645
  0
LINE
  8
型材断面
  6
CONTINUOUS
 62
    47
 10
-116.094628
 20
-12.802465
 11
-130.76709
 21
-27.47493
  0
LINE
  8
型材断面
  6
CONTINUOUS
 62
    47
 10
-114.60971
 20
-13.580257
 11
-115.387535
 21
-12.802433
  0
ARC
  8
型材断面
  6
CONTINUOUS
 62
    47
 10
-115.741115
 20
-13.155963
 40
0.5
 50
45.000057
 51
135.000057
  0
LINE
  8
型材断面
  6
CONTINUOUS
 62
    47
 10
-124.403122
 20
-26.767832
 11
-127.585117
 21
-29.949798
  0
LINE
  8
型材断面
  6
CONTINUOUS
 62
    47
 10
-127.054807
 20
-30.480075
 11
-127.585117
 21
-29.949798
  0
ENDBLK
  0
BLOCK
  2
*GRP_0065
 70
    65
 10
0.0
 20
0.0
  0
POLYLINE
  8
寸法
  6
BYBLOCK
 62
     0
 66
     1
  0
VERTEX
  8
寸法
 10
-135.244308
 20
-56.449285
  0
VERTEX
  8
寸法
 10
-138.594593
 20
-53.099
  0
VERTEX
  8
寸法
 10
-143.103045
 20
-53.099
  0
SEQEND
  0
ENDBLK
  0
BLOCK
  2
*GRP_0066
 70
    65
 10
0.0
 20
0.0
  0
LINE
  8
ゴム等
  6
DOT
 10
98.76523
 20
-25.247808
 11
100.532995
 21
-23.480043
  0
LINE
  8
ゴム等
  6
DOT
 10
97.704567
 20
-20.651617
 11
88.865735
 21
-29.490452
  0
LINE
  8
ゴム等
  6
DOT
 10
98.76523
 20
-25.247808
 11
101.240105
 21
-27.722685
  0
LINE
  8
ゴム等
  6
DOT
 10
96.290352
 20
-32.67243
 11
92.047712
 21
-32.67243
  0
LINE
  8
ゴム等
  6
DOT
 10
88.865735
 20
-29.490452
 11
92.047712
 21
-32.67243
  0
LINE
  8
ゴム等
  6
DOT
 10
97.704567
 20
-20.651617
 11
94.699362
 21
-32.67243
  0
LINE
  8
ゴム等
  6
DOT
 10
97.704567
 20
-20.651617
 11
100.532995
 21
-23.480043
  0
LINE
  8
ゴム等
  6
DOT
 10
96.290358
 20
-32.67243
 11
101.240105
 21
-27.722685
  0
ENDBLK
  0
BLOCK
  2
*GRP_0067
 70
    65
 10
0.0
 20
0.0
  0
LINE
  8
型材断面
  6
CONTINUOUS
 10
44.227277
 20
-30.061935
 11
45.22728
 21
-30.061935
  0
LINE
  8
型材断面
  6
CONTINUOUS
 10
43.477277
 20
-29.311935
 11
43.477277
 21
-45.311935
  0
LINE
  8
型材断面
  6
CONTINUOUS
 10
80.62728
 20
-44.561935
 11
44.227277
 21
-44.561935
  0
LINE
  8
型材断面
  6
CONTINUOUS
 10
52.452277
 20
-45.311935
 11
52.302277
 21
-45.161935
  0
LINE
  8
型材断面
  6
CONTINUOUS
 10
52.302277
 20
-45.161935
 11
52.152277
 21
-45.311935
  0
LINE
  8
型材断面
  6
CONTINUOUS
 10
75.702277
 20
-45.311935
 11
75.552277
 21
-45.161935
  0
LINE
  8
型材断面
  6
CONTINUOUS
 10
75.552277
 20
-45.161935
 11
75.402277
 21
-45.311935
  0
LINE
  8
型材断面
  6
CONTINUOUS
 10
75.702277
 20
-45.311935
 11
80.62728
 21
-45.311935
  0
LINE
  8
型材断面
  6
CONTINUOUS
 10
43.477277
 20
-45.311935
 11
52.152277
 21
-45.311935
  0
LINE
  8
型材断面
  6
CONTINUOUS
 10
44.227277
 20
-35.661938
 11
80.62728
 21
-35.661938
  0
POLYLINE
  8
型材断面
  6
CONTINUOUS
 66
     1
  0
VERTEX
  8
型材断面
 10
75.702277
 20
-34.911938
  0
VERTEX
  8
型材断面
 10
75.552277
 20
-35.061938
  0
VERTEX
  8
型材断面
 10
75.402277
 20
-34.911938
  0
SEQEND
  0
LINE
  8
型材断面
  6
CONTINUOUS
 10
52.452277
 20
-34.911938
 11
52.302277
 21
-35.061938
  0
LINE
  8
型材断面
  6
CONTINUOUS
 10
52.302277
 20
-35.061938
 11
52.152277
 21
-34.911938
  0
LINE
  8
型材断面
  6
CONTINUOUS
 10
75.402277
 20
-34.911938
 11
52.452277
 21
-34.911938
  0
LINE
  8
型材断面
  6
CONTINUOUS
 10
52.152277
 20
-34.911938
 11
44.227277
 21
-34.911938
  0
LINE
  8
型材断面
  6
CONTINUOUS
 10
44.227277
 20
-30.061935
 11
44.227277
 21
-34.911938
  0
ARC
  8
型材断面
  6
CONTINUOUS
 10
46.302146
 20
-39.346995
 40
0.25
 50
222.839615
 51
300.000043
  0
LINE
  8
型材断面
  6
CONTINUOUS
 10
46.515827
 20
-39.512335
 11
46.427205
 21
-39.563512
  0
ARC
  8
型材断面
  6
CONTINUOUS
 10
46.390782
 20
-39.295821
 40
0.25
 50
300.000046
 51
401.775772
  0
ARC
  8
型材断面
  6
CONTINUOUS
 10
45.477229
 20
-40.111937
 40
0.875
 50
42.839615
 51
317.160448
  0
ARC
  8
型材断面
  6
CONTINUOUS
 10
46.302147
 20
-40.876878
 40
0.25
 50
60.00002
 51
137.160448
  0
LINE
  8
型材断面
  6
CONTINUOUS
 10
46.515827
 20
-40.71156
 11
46.427205
 21
-40.660387
  0
ARC
  8
型材断面
  6
CONTINUOUS
 10
46.390783
 20
-40.928052
 40
0.25
 50
-41.775709
 51
60.000017
  0
ARC
  8
型材断面
  6
CONTINUOUS
 10
45.477229
 20
-40.111937
 40
1.475
 50
41.775772
 51
125.430189
  0
ARC
  8
型材断面
  6
CONTINUOUS
 10
44.477228
 20
-38.706369
 40
0.25
 50
180.0
 51
305.430189
  0
ARC
  8
型材断面
  6
CONTINUOUS
 10
45.477229
 20
-40.111937
 40
1.475
 50
234.569811
 51
318.224291
  0
ARC
  8
型材断面
  6
CONTINUOUS
 10
44.477228
 20
-41.517506
 40
0.25
 50
54.569811
 51
180.0
  0
LINE
  8
型材断面
  6
CONTINUOUS
 10
44.227277
 20
-44.561935
 11
44.227277
 21
-41.51751
  0
ARC
  8
型材断面
  6
CONTINUOUS
 10
78.552308
 20
-39.346995
 40
0.25
 50
239.999957
 51
317.160385
  0
LINE
  8
型材断面
  6
CONTINUOUS
 10
78.33873
 20
-39.512335
 11
78.427353
 21
-39.563512
  0
ARC
  8
型材断面
  6
CONTINUOUS
 10
78.463672
 20
-39.295821
 40
0.25
 50
138.224228
 51
239.999954
  0
ARC
  8
型材断面
  6
CONTINUOUS
 10
79.377225
 20
-40.111937
 40
0.875
 50
222.839552
 51
497.160385
  0
ARC
  8
型材断面
  6
CONTINUOUS
 10
78.552307
 20
-40.876878
 40
0.25
 50
42.839552
 51
119.99998
  0
LINE
  8
型材断面
  6
CONTINUOUS
 10
78.33873
 20
-40.71156
 11
78.427353
 21
-40.660387
  0
ARC
  8
型材断面
  6
CONTINUOUS
 10
78.463671
 20
-40.928052
 40
0.25
 50
119.999983
 51
221.775709
  0
ARC
  8
型材断面
  6
CONTINUOUS
 10
79.377225
 20
-40.111937
 40
1.475
 50
54.569811
 51
138.224228
  0
ARC
  8
型材断面
  6
CONTINUOUS
 10
80.377226
 20
-38.706369
 40
0.25
 50
234.569811
 51
360.0
  0
ARC
  8
型材断面
  6
CONTINUOUS
 10
79.377225
 20
-40.111937
 40
1.475
 50
221.775709
 51
305.430189
  0
ARC
  8
型材断面
  6
CONTINUOUS
 10
80.377226
 20
-41.517506
 40
0.25
 50
0.0
 51
125.430189
  0
LINE
  8
型材断面
  6
CONTINUOUS
 10
80.62728
 20
-44.561935
 11
80.62728
 21
-41.51751
  0
LINE
  8
型材断面
  6
CONTINUOUS
 10
81.37728
 20
-42.811935
 11
82.12728
 21
-42.811935
  0
LINE
  8
型材断面
  6
CONTINUOUS
 10
82.12728
 20
-42.811935
 11
82.12728
 21
-43.311938
  0
LINE
  8
型材断面
  6
CONTINUOUS
 10
82.12728
 20
-43.311938
 11
81.37728
 21
-43.311938
  0
LINE
  8
型材断面
  6
CONTINUOUS
 10
81.37728
 20
-44.561935
 11
81.37728
 21
-43.311938
  0
LINE
  8
型材断面
  6
CONTINUOUS
 10
101.377277
 20
-45.311935
 11
101.377277
 21
-46.376185
  0
LINE
  8
型材断面
  6
CONTINUOUS
 10
101.377277
 20
-46.376185
 11
100.477277
 21
-46.376185
  0
LINE
  8
型材断面
  6
CONTINUOUS
 10
100.477277
 20
-46.376185
 11
100.477277
 21
-46.976185
  0
LINE
  8
型材断面
  6
CONTINUOUS
 10
100.477277
 20
-46.976185
 11
101.977277
 21
-46.976185
  0
ARC
  8
型材断面
  6
CONTINUOUS
 10
93.477228
 20
-45.561939
 40
0.25
 50
0.0
 51
90.0
  0
LINE
  8
型材断面
  6
CONTINUOUS
 10
101.977277
 20
-42.411938
 11
101.827277
 21
-42.561938
  0
LINE
  8
型材断面
  6
CONTINUOUS
 10
101.827277
 20
-42.561938
 11
101.977277
 21
-42.711938
  0
LINE
  8
型材断面
  6
CONTINUOUS
 10
101.977277
 20
-46.976185
 11
101.977277
 21
-42.711938
  0
LINE
  8
型材断面
  6
CONTINUOUS
 10
94.477277
 20
-45.311935
 11
94.477277
 21
-54.476185
  0
LINE
  8
型材断面
  6
CONTINUOUS
 10
94.477277
 20
-54.476185
 11
93.727277
 21
-54.476185
  0
LINE
  8
型材断面
  6
CONTINUOUS
 10
93.727277
 20
-49.561935
 11
93.727277
 21
-54.476185
  0
LINE
  8
型材断面
  6
CONTINUOUS
 10
81.37728
 20
-44.561935
 11
101.227277
 21
-44.561935
  0
LINE
  8
型材断面
  6
CONTINUOUS
 10
101.227277
 20
-44.561935
 11
101.227277
 21
-39.828413
  0
LINE
  8
型材断面
  6
CONTINUOUS
 10
101.977277
 20
-42.411938
 11
101.977277
 21
-39.526185
  0
LINE
  8
型材断面
  6
CONTINUOUS
 10
101.377277
 20
-45.311935
 11
94.477277
 21
-45.311935
  0
LINE
  8
型材断面
  6
CONTINUOUS
 10
81.37728
 20
-45.311935
 11
93.477255
 21
-45.311935
  0
LINE
  8
型材断面
  6
CONTINUOUS
 10
85.22328
 20
-29.597785
 11
86.99103
 21
-27.83001
  0
LINE
  8
型材断面
  6
CONTINUOUS
 10
92.401503
 20
-33.02626
 11
92.047953
 21
-33.02626
  0
LINE
  8
型材断面
  6
CONTINUOUS
 10
92.047953
 20
-33.02626
 11
92.047953
 21
-32.67271
  0
LINE
  8
型材断面
  6
CONTINUOUS
 10
87.627453
 20
-32.00196
 11
87.415305
 21
-32.00196
  0
LINE
  8
型材断面
  6
CONTINUOUS
 10
87.415305
 20
-32.00196
 11
87.415305
 21
-31.78981
  0
LINE
  8
型材断面
  6
CONTINUOUS
 10
85.788953
 20
-26.627935
 11
85.364703
 21
-26.627935
  0
LINE
  8
型材断面
  6
CONTINUOUS
 10
85.364703
 20
-26.627935
 11
85.046505
 21
-26.946135
  0
LINE
  8
型材断面
  6
CONTINUOUS
 10
85.046505
 20
-26.946135
 11
85.93038
 21
-27.83001
  0
LINE
  8
型材断面
  6
CONTINUOUS
 10
85.93038
 20
-27.83001
 11
84.692955
 21
-29.06746
  0
LINE
  8
型材断面
  6
CONTINUOUS
 10
81.157428
 20
-25.531935
 11
82.394852
 21
-24.294488
  0
LINE
  8
型材断面
  6
CONTINUOUS
 10
82.394852
 20
-24.294488
 11
83.278728
 21
-25.178363
  0
LINE
  8
型材断面
  6
CONTINUOUS
 10
83.596927
 20
-24.86016
 11
83.278728
 21
-25.178363
  0
LINE
  8
型材断面
  6
CONTINUOUS
 10
83.596927
 20
-24.86016
 11
83.596927
 21
-24.43591
  0
LINE
  8
型材断面
  6
CONTINUOUS
 10
86.99103
 20
-27.83001
 11
85.788953
 21
-26.627935
  0
LINE
  8
型材断面
  6
CONTINUOUS
 10
83.596927
 20
-24.43591
 11
82.394852
 21
-23.233838
  0
ARC
  8
型材断面
  6
CONTINUOUS
 10
81.751243
 20
-27.872449
 40
0.25
 50
177.839615
 51
255.000043
  0
LINE
  8
型材断面
  6
CONTINUOUS
 10
81.78543
 20
-28.140413
 11
81.68658
 21
-28.113937
  0
ARC
  8
型材断面
  6
CONTINUOUS
 10
81.850103
 20
-27.898939
 40
0.25
 50
255.000046
 51
356.775772
  0
ARC
  8
型材断面
  6
CONTINUOUS
 10
80.627042
 20
-27.83004
 40
0.875
 50
357.839615
 51
632.160448
  0
ARC
  8
型材断面
  6
CONTINUOUS
 10
80.669453
 20
-28.95424
 40
0.25
 50
15.00002
 51
92.160448
  0
LINE
  8
型材断面
  6
CONTINUOUS
 10
80.937452
 20
-28.988385
 11
80.910978
 21
-28.889535
  0
ARC
  8
型材断面
  6
CONTINUOUS
 10
80.695942
 20
-29.053101
 40
0.25
 50
-86.775709
 51
15.000017
  0
ARC
  8
型材断面
  6
CONTINUOUS
 10
80.627042
 20
-27.83004
 40
1.475
 50
257.063786
 51
273.224291
  0
ARC
  8
型材断面
  6
CONTINUOUS
 10
80.627042
 20
-27.83004
 40
1.475
 50
356.775772
 51
372.936019
  0
LINE
  8
型材断面
  6
CONTINUOUS
 10
88.935602
 20
-33.31011
 11
87.627453
 21
-32.00196
  0
LINE
  8
型材断面
  6
CONTINUOUS
 10
87.415305
 20
-31.78981
 11
85.22328
 21
-29.597785
  0
LINE
  8
型材断面
  6
CONTINUOUS
 10
84.692955
 20
-29.06746
 11
83.031255
 21
-27.40576
  0
LINE
  8
型材断面
  6
CONTINUOUS
 10
82.819127
 20
-27.193635
 11
81.157428
 21
-25.531935
  0
LINE
  8
型材断面
  6
CONTINUOUS
 10
82.819127
 20
-27.40576
 11
83.031255
 21
-27.40576
  0
LINE
  8
型材断面
  6
CONTINUOUS
 10
82.819127
 20
-27.40576
 11
82.819127
 21
-27.193635
  0
LINE
  8
型材断面
  6
CONTINUOUS
 10
89.219527
 20
-34.08691
 11
88.651728
 21
-34.08691
  0
LINE
  8
型材断面
  6
CONTINUOUS
 10
82.064655
 20
-27.499838
 11
88.651728
 21
-34.08691
  0
LINE
  8
型材断面
  6
CONTINUOUS
 10
92.047953
 20
-32.672685
 11
90.987255
 21
-31.612013
  0
LINE
  8
型材断面
  6
CONTINUOUS
 10
88.935602
 20
-33.31011
 11
90.633705
 21
-31.612013
  0
ARC
  8
型材断面
  6
CONTINUOUS
 10
90.810429
 20
-31.788785
 40
0.25
 50
45.000289
 51
135.0
  0
LINE
  8
型材断面
  6
CONTINUOUS
 10
91.233677
 20
-36.66891
 11
90.880127
 21
-36.31536
  0
LINE
  8
型材断面
  6
CONTINUOUS
 10
89.219527
 20
-34.08691
 11
91.16403
 21
-36.031462
  0
LINE
  8
型材断面
  6
CONTINUOUS
 10
90.880127
 20
-36.31536
 11
91.16403
 21
-36.031462
  0
LINE
  8
型材断面
  6
CONTINUOUS
 10
80.296877
 20
-29.267587
 11
81.37728
 21
-30.347985
  0
LINE
  8
型材断面
  6
CONTINUOUS
 10
81.37728
 20
-42.811935
 11
81.37728
 21
-30.347985
  0
LINE
  8
型材断面
  6
CONTINUOUS
 10
75.702277
 20
-34.911938
 11
80.60388
 21
-34.911938
  0
LINE
  8
型材断面
  6
CONTINUOUS
 10
45.22728
 20
-30.061935
 11
45.22728
 21
-29.511938
  0
LINE
  8
型材断面
  6
CONTINUOUS
 10
45.22728
 20
-29.511938
 11
44.880855
 21
-29.311935
  0
LINE
  8
型材断面
  6
CONTINUOUS
 10
43.477277
 20
-29.311935
 11
44.880855
 21
-29.311935
  0
LINE
  8
型材断面
  6
CONTINUOUS
 10
101.977277
 20
-39.526185
 11
99.702555
 21
-37.251487
  0
ARC
  8
型材断面
  6
CONTINUOUS
 10
97.353081
 20
-38.898019
 40
0.25
 50
-74.949765
 51
2.210663
  0
LINE
  8
型材断面
  6
CONTINUOUS
 10
97.319205
 20
-39.166013
 11
97.418028
 21
-39.139435
  0
ARC
  8
型材断面
  6
CONTINUOUS
 10
97.254243
 20
-38.924595
 40
0.25
 50
183.274506
 51
285.050232
  0
ARC
  8
型材断面
  6
CONTINUOUS
 10
98.477243
 20
-38.854623
 40
0.875
 50
267.88983
 51
542.210663
  0
ARC
  8
型材断面
  6
CONTINUOUS
 10
98.43582
 20
-39.97886
 40
0.25
 50
87.88983
 51
165.050258
  0
LINE
  8
型材断面
  6
CONTINUOUS
 10
98.167928
 20
-40.013235
 11
98.194305
 21
-39.914362
  0
ARC
  8
型材断面
  6
CONTINUOUS
 10
98.409417
 20
-40.077744
 40
0.25
 50
165.05026
 51
266.825986
  0
ARC
  8
型材断面
  6
CONTINUOUS
 10
98.477243
 20
-38.854623
 40
1.475
 50
266.825986
 51
350.480467
  0
ARC
  8
型材断面
  6
CONTINUOUS
 10
100.178489
 20
-39.13991
 40
0.25
 50
45.050278
 51
170.480467
  0
LINE
  8
型材断面
  6
CONTINUOUS
 10
101.227277
 20
-39.828413
 11
100.357727
 21
-38.960385
  0
LINE
  8
型材断面
  6
CONTINUOUS
 10
91.233677
 20
-36.66891
 11
93.108577
 21
-34.79401
  0
LINE
  8
型材断面
  6
CONTINUOUS
 10
80.75388
 20
-32.911935
 11
80.60388
 21
-32.761935
  0
LINE
  8
型材断面
  6
CONTINUOUS
 10
80.75388
 20
-32.911935
 11
80.60388
 21
-33.061935
  0
LINE
  8
型材断面
  6
CONTINUOUS
 10
80.60388
 20
-30.63526
 11
80.60388
 21
-32.761935
  0
LINE
  8
型材断面
  6
CONTINUOUS
 10
80.60388
 20
-33.061935
 11
80.60388
 21
-34.911938
  0
LINE
  8
型材断面
  6
CONTINUOUS
 10
82.394852
 20
-23.233838
 11
78.25863
 21
-27.37006
  0
LINE
  8
型材断面
  6
CONTINUOUS
 10
80.60388
 20
-30.63526
 11
78.25863
 21
-28.290038
  0
LINE
  8
型材断面
  6
CONTINUOUS
 10
78.25863
 20
-27.37006
 11
78.25863
 21
-28.290038
  0
LINE
  8
型材断面
  6
CONTINUOUS
 10
80.62728
 20
-45.311935
 11
80.62728
 21
-46.961935
  0
LINE
  8
型材断面
  6
CONTINUOUS
 10
81.37728
 20
-45.311935
 11
81.37728
 21
-46.961935
  0
LINE
  8
型材断面
  6
CONTINUOUS
 10
81.37728
 20
-46.961935
 11
80.62728
 21
-46.961935
  0
LINE
  8
型材断面
  6
CONTINUOUS
 10
93.727277
 20
-46.461938
 11
92.977277
 21
-46.461938
  0
LINE
  8
型材断面
  6
CONTINUOUS
 10
92.977277
 20
-46.461938
 11
92.977277
 21
-46.961935
  0
LINE
  8
型材断面
  6
CONTINUOUS
 10
93.727277
 20
-46.961935
 11
92.977277
 21
-46.961935
  0
LINE
  8
型材断面
  6
CONTINUOUS
 10
93.727277
 20
-45.561938
 11
93.727277
 21
-46.461938
  0
LINE
  8
型材断面
  6
CONTINUOUS
 10
93.727277
 20
-46.961935
 11
93.727277
 21
-48.811935
  0
LINE
  8
型材断面
  6
CONTINUOUS
 10
44.227277
 20
-36.911935
 11
44.977277
 21
-36.911935
  0
LINE
  8
型材断面
  6
CONTINUOUS
 10
44.977277
 20
-36.911935
 11
44.977277
 21
-37.411935
  0
LINE
  8
型材断面
  6
CONTINUOUS
 10
44.227277
 20
-37.411935
 11
44.977277
 21
-37.411935
  0
LINE
  8
型材断面
  6
CONTINUOUS
 10
44.227277
 20
-35.661938
 11
44.227277
 21
-36.911935
  0
LINE
  8
型材断面
  6
CONTINUOUS
 10
44.227277
 20
-37.411935
 11
44.227277
 21
-38.70636
  0
LINE
  8
型材断面
  6
CONTINUOUS
 10
80.62728
 20
-36.911935
 11
79.87728
 21
-36.911935
  0
LINE
  8
型材断面
  6
CONTINUOUS
 10
79.87728
 20
-36.911935
 11
79.87728
 21
-37.411935
  0
LINE
  8
型材断面
  6
CONTINUOUS
 10
80.62728
 20
-37.411935
 11
79.87728
 21
-37.411935
  0
LINE
  8
型材断面
  6
CONTINUOUS
 10
80.62728
 20
-35.661938
 11
80.62728
 21
-36.911935
  0
LINE
  8
型材断面
  6
CONTINUOUS
 10
80.62728
 20
-37.411935
 11
80.62728
 21
-38.70636
  0
LINE
  8
型材断面
  6
CONTINUOUS
 10
99.702555
 20
-37.251487
 11
105.941753
 21
-31.01176
  0
LINE
  8
型材断面
  6
CONTINUOUS
 10
98.513355
 20
-37.380085
 11
104.598295
 21
-31.29462
  0
LINE
  8
型材断面
  6
CONTINUOUS
 10
94.169028
 20
-34.79376
 11
101.94633
 21
-27.016435
  0
LINE
  8
型材断面
  6
CONTINUOUS
 10
104.350755
 20
-25.885328
 11
104.103247
 21
-26.132798
  0
LINE
  8
型材断面
  6
CONTINUOUS
 10
103.749712
 20
-25.779258
 11
104.103247
 21
-26.132798
  0
LINE
  8
型材断面
  6
CONTINUOUS
 10
102.93652
 20
-26.592415
 11
103.749712
 21
-25.779258
  0
LINE
  8
型材断面
  6
CONTINUOUS
 10
106.295298
 20
-26.627753
 11
106.50741
 21
-26.62777
  0
LINE
  8
型材断面
  6
CONTINUOUS
 10
106.295298
 20
-26.627753
 11
106.295298
 21
-26.415655
  0
LINE
  8
型材断面
  6
CONTINUOUS
 10
106.295298
 20
-26.415655
 11
104.704313
 21
-24.82467
  0
ARC
  8
型材断面
  6
CONTINUOUS
 10
103.997207
 20
-25.53178
 40
1.0
 50
45.0
 51
134.998772
  0
LINE
  8
型材断面
  6
CONTINUOUS
 10
105.340688
 20
-28.996577
 11
106.11847
 21
-29.774363
  0
LINE
  8
型材断面
  6
CONTINUOUS
 10
105.340688
 20
-28.996577
 11
104.456857
 21
-29.880408
  0
ARC
  8
型材断面
  6
CONTINUOUS
 10
104.103304
 20
-29.526857
 40
0.5
 50
225.0
 51
315.0
  0
LINE
  8
型材断面
  6
CONTINUOUS
 10
103.74975
 20
-29.880408
 11
103.042642
 21
-29.1733
  0
ARC
  8
型材断面
  6
CONTINUOUS
 10
103.396197
 20
-28.81975
 40
0.5
 50
135.0
 51
225.0
  0
ARC
  8
型材断面
  6
CONTINUOUS
 10
107.462034
 20
-27.935886
 40
0.25
 50
315.000053
 51
405.000053
  0
LINE
  8
型材断面
  6
CONTINUOUS
 10
107.63874
 20
-28.112655
 11
107.285205
 21
-28.466223
  0
ARC
  8
型材断面
  6
CONTINUOUS
 10
107.10848
 20
-28.28944
 40
0.25
 50
225.000053
 51
315.000053
  0
LINE
  8
型材断面
  6
CONTINUOUS
 10
106.50741
 20
-26.62777
 11
107.638777
 21
-27.759137
  0
LINE
  8
型材断面
  6
CONTINUOUS
 10
104.350755
 20
-25.885328
 11
106.931673
 21
-28.466245
  0
LINE
  8
型材断面
  6
CONTINUOUS
 10
106.11847
 20
-29.774363
 11
105.411392
 21
-30.481435
  0
LINE
  8
型材断面
  6
CONTINUOUS
 10
105.94173
 20
-31.011773
 11
105.411392
 21
-30.481435
  0
LINE
  8
型材断面
  6
CONTINUOUS
 10
102.93652
 20
-26.592415
 11
103.749692
 21
-27.405588
  0
LINE
  8
型材断面
  6
CONTINUOUS
 10
103.749692
 20
-27.759142
 11
103.042642
 21
-28.466193
  0
ARC
  8
型材断面
  6
CONTINUOUS
 10
103.57292
 20
-27.582367
 40
0.25
 50
315.0
 51
405.0
  0
LINE
  8
型材断面
  6
CONTINUOUS
 10
104.598295
 20
-31.29462
 11
103.396195
 21
-31.29462
  0
LINE
  8
型材断面
  6
CONTINUOUS
 10
101.628428
 20
-28.395038
 11
101.628428
 21
-29.526855
  0
LINE
  8
型材断面
  6
CONTINUOUS
 10
103.396195
 20
-31.29462
 11
101.628428
 21
-29.526855
  0
LINE
  8
型材断面
  6
CONTINUOUS
 10
101.94633
 20
-27.016435
 11
101.94633
 21
-26.16838
  0
LINE
  8
型材断面
  6
CONTINUOUS
 10
103.290113
 20
-24.824655
 11
101.94633
 21
-26.16838
  0
LINE
  8
型材断面
  6
CONTINUOUS
 10
93.727277
 20
-48.811935
 11
87.927323
 21
-48.811935
  0
ARC
  8
型材断面
  6
CONTINUOUS
 10
87.927272
 20
-49.061939
 40
0.25
 50
90.0
 51
180.0
  0
LINE
  8
型材断面
  6
CONTINUOUS
 10
87.67732
 20
-49.311938
 11
87.67732
 21
-49.061935
  0
ARC
  8
型材断面
  6
CONTINUOUS
 10
87.927272
 20
-49.311939
 40
0.25
 50
180.0
 51
270.0
  0
ARC
  8
型材断面
  6
CONTINUOUS
 10
59.177202
 20
-45.561939
 40
0.25
 50
90.0
 51
180.0
  0
LINE
  8
型材断面
  6
CONTINUOUS
 10
59.177253
 20
-45.311935
 11
75.402277
 21
-45.311935
  0
LINE
  8
型材断面
  6
CONTINUOUS
 10
52.452277
 20
-45.311935
 11
58.177253
 21
-45.311935
  0
LINE
  8
型材断面
  6
CONTINUOUS
 10
58.177253
 20
-45.311935
 11
58.177253
 21
-49.561935
  0
ARC
  8
型材断面
  6
CONTINUOUS
 10
63.927203
 20
-49.061939
 40
0.25
 50
0.0
 51
90.0
  0
LINE
  8
型材断面
  6
CONTINUOUS
 10
64.177253
 20
-49.061935
 11
64.177253
 21
-49.311938
  0
ARC
  8
型材断面
  6
CONTINUOUS
 10
63.927203
 20
-49.311939
 40
0.25
 50
270.0
 51
360.0
  0
LINE
  8
型材断面
  6
CONTINUOUS
 10
58.927253
 20
-48.811935
 11
63.927227
 21
-48.811935
  0
LINE
  8
型材断面
  6
CONTINUOUS
 10
58.927253
 20
-46.461938
 11
59.677253
 21
-46.461938
  0
LINE
  8
型材断面
  6
CONTINUOUS
 10
59.677253
 20
-46.461938
 11
59.677253
 21
-46.961935
  0
LINE
  8
型材断面
  6
CONTINUOUS
 10
58.927253
 20
-46.961935
 11
59.677253
 21
-46.961935
  0
LINE
  8
型材断面
  6
CONTINUOUS
 10
58.927253
 20
-45.561938
 11
58.927253
 21
-46.461938
  0
LINE
  8
型材断面
  6
CONTINUOUS
 10
58.927253
 20
-46.961935
 11
58.927253
 21
-48.811935
  0
LINE
  8
型材断面
  6
CONTINUOUS
 10
90.127277
 20
-49.561935
 11
89.977277
 21
-49.411935
  0
LINE
  8
型材断面
  6
CONTINUOUS
 10
89.977277
 20
-49.411935
 11
89.827277
 21
-49.561935
  0
LINE
  8
型材断面
  6
CONTINUOUS
 10
93.727277
 20
-49.561935
 11
90.127277
 21
-49.561935
  0
LINE
  8
型材断面
  6
CONTINUOUS
 10
89.827277
 20
-49.561935
 11
87.927323
 21
-49.561935
  0
LINE
  8
型材断面
  6
CONTINUOUS
 10
62.077277
 20
-49.561935
 11
61.927277
 21
-49.411935
  0
LINE
  8
型材断面
  6
CONTINUOUS
 10
61.927277
 20
-49.411935
 11
61.777277
 21
-49.561935
  0
LINE
  8
型材断面
  6
CONTINUOUS
 10
58.177253
 20
-49.561935
 11
61.777277
 21
-49.561935
  0
LINE
  8
型材断面
  6
CONTINUOUS
 10
62.077277
 20
-49.561935
 11
63.927227
 21
-49.561935
  0
LINE
  8
型材断面
  6
CONTINUOUS
 10
93.108555
 20
-34.793985
 11
97.01076
 21
-38.69632
  0
LINE
  8
型材断面
  6
CONTINUOUS
 10
101.628428
 20
-28.395038
 11
94.699367
 21
-35.324095
  0
LINE
  8
型材断面
  6
CONTINUOUS
 10
92.401503
 20
-33.02626
 11
94.169028
 21
-34.79376
  0
LINE
  8
型材断面
  6
CONTINUOUS
 10
94.699367
 20
-35.324095
 11
97.31796
 21
-37.94265
  0
ARC
  8
型材断面
  6
CONTINUOUS
 10
98.477243
 20
-38.854623
 40
1.475
 50
173.838976
 51
183.274506
  0
ARC
  8
型材断面
  6
CONTINUOUS
 10
98.477243
 20
-38.854623
 40
1.475
 50
88.597706
 51
141.808925
  0
ENDBLK
  0
BLOCK
  2
*GRP_0068
 70
    65
 10
0.0
 20
0.0
  0
LINE
  8
型材断面
  6
CONTINUOUS
 62
    47
 10
95.086365
 20
-15.348008
 11
93.318615
 21
-13.580257
  0
LINE
  8
型材断面
  6
CONTINUOUS
 62
    47
 10
95.086365
 20
-15.348008
 11
95.51062
 21
-14.92375
  0
LINE
  8
型材断面
  6
CONTINUOUS
 62
    47
 10
105.905107
 20
-25.671813
 11
105.728333
 21
-25.848588
  0
LINE
  8
型材断面
  6
CONTINUOUS
 62
    47
 10
107.001123
 20
-28.747705
 11
107.991063
 21
-27.757765
  0
LINE
  8
型材断面
  6
CONTINUOUS
 62
    47
 10
105.905107
 20
-25.671813
 11
107.991063
 21
-27.757765
  0
LINE
  8
型材断面
  6
CONTINUOUS
 62
    47
 10
105.586953
 20
-30.303315
 11
105.410132
 21
-30.48012
  0
LINE
  8
型材断面
  6
CONTINUOUS
 62
    47
 10
105.410132
 20
-30.48012
 11
105.940455
 21
-31.01046
  0
LINE
  8
型材断面
  6
CONTINUOUS
 62
    47
 10
109.475995
 20
-27.47493
 11
105.940455
 21
-31.01046
  0
LINE
  8
型材断面
  6
CONTINUOUS
 62
    47
 10
105.586953
 20
-30.303315
 11
105.763712
 21
-30.480075
  0
LINE
  8
型材断面
  6
CONTINUOUS
 62
    47
 10
107.001123
 20
-28.747705
 11
106.470775
 21
-28.217393
  0
LINE
  8
型材断面
  6
CONTINUOUS
 62
    47
 10
106.22329
 20
-28.464865
 11
106.470775
 21
-28.217393
  0
LINE
  8
型材断面
  6
CONTINUOUS
 62
    47
 10
103.819143
 20
-26.060718
 11
106.22329
 21
-28.464865
  0
ARC
  8
型材断面
  6
CONTINUOUS
 62
    47
 10
103.6424
 20
-26.237452
 40
0.25
 50
44.999943
 51
134.999943
  0
LINE
  8
型材断面
  6
CONTINUOUS
 62
    47
 10
103.465597
 20
-26.06071
 11
103.112035
 21
-26.414272
  0
ARC
  8
型材断面
  6
CONTINUOUS
 62
    47
 10
103.288846
 20
-26.591005
 40
0.25
 50
134.999943
 51
224.999943
  0
LINE
  8
型材断面
  6
CONTINUOUS
 62
    47
 10
105.728333
 20
-25.848588
 11
104.950507
 21
-25.07076
  0
LINE
  8
型材断面
  6
CONTINUOUS
 62
    47
 10
104.950507
 20
-25.07076
 11
104.950515
 21
-24.363645
  0
LINE
  8
型材断面
  6
CONTINUOUS
 62
    47
 10
95.51062
 20
-14.92375
 11
104.950515
 21
-24.363645
  0
LINE
  8
型材断面
  6
CONTINUOUS
 62
    47
 10
94.803533
 20
-12.802465
 11
109.475995
 21
-27.47493
  0
LINE
  8
型材断面
  6
CONTINUOUS
 62
    47
 10
93.318615
 20
-13.580257
 11
94.09644
 21
-12.802433
  0
ARC
  8
型材断面
  6
CONTINUOUS
 62
    47
 10
94.450021
 20
-13.155963
 40
0.5
 50
44.999943
 51
134.999943
  0
LINE
  8
型材断面
  6
CONTINUOUS
 62
    47
 10
103.112027
 20
-26.767832
 11
106.294023
 21
-29.949798
  0
LINE
  8
型材断面
  6
CONTINUOUS
 62
    47
 10
105.763712
 20
-30.480075
 11
106.294023
 21
-29.949798
  0
ENDBLK
  0
BLOCK
  2
*GRP_0069
 70
    65
 10
0.0
 20
0.0
  0
LINE
  8
ゴム等
  6
CONTINUOUS
 62
    63
 10
-103.968795
 20
-25.143025
 11
-104.14557
 21
-24.96625
  0
LINE
  8
ゴム等
  6
CONTINUOUS
 62
    63
 10
-104.14557
 20
-24.96625
 11
-104.499125
 21
-25.319802
  0
LINE
  8
ゴム等
  6
CONTINUOUS
 62
    63
 10
-104.499125
 20
-25.319802
 11
-105.135517
 21
-24.68341
  0
LINE
  8
ゴム等
  6
CONTINUOUS
 62
    63
 10
-105.135517
 20
-24.68341
 11
-103.862727
 21
-23.410615
  0
LINE
  8
ゴム等
  6
CONTINUOUS
 62
    63
 10
-106.372958
 20
-27.547188
 11
-106.549733
 21
-27.370413
  0
LINE
  8
ゴム等
  6
CONTINUOUS
 62
    63
 10
-106.549733
 20
-27.370413
 11
-106.19618
 21
-27.016857
  0
LINE
  8
ゴム等
  6
CONTINUOUS
 62
    63
 10
-106.372958
 20
-27.547188
 11
-104.81732
 21
-27.54719
  0
LINE
  8
ゴム等
  6
CONTINUOUS
 62
    63
 10
-106.19618
 20
-27.016857
 11
-106.832578
 21
-26.380465
  0
LINE
  8
ゴム等
  6
CONTINUOUS
 62
    63
 10
-106.832578
 20
-26.380465
 11
-108.105368
 21
-27.653255
  0
LINE
  8
ゴム等
  6
CONTINUOUS
 62
    63
 10
-103.968793
 20
-26.698662
 11
-104.81732
 21
-27.54719
  0
ARC
  8
ゴム等
  6
CONTINUOUS
 62
    63
 10
-105.63049
 20
-25.885485
 40
0.5
 50
45.0
 51
135.0
  0
LINE
  8
ゴム等
  6
CONTINUOUS
 62
    63
 10
-105.984045
 20
-25.531938
 11
-105.984045
 21
-25.531938
  0
ARC
  8
ゴム等
  6
CONTINUOUS
 62
    63
 10
-105.63049
 20
-25.885485
 40
0.5
 50
135.0
 51
225.0
  0
LINE
  8
ゴム等
  6
CONTINUOUS
 62
    63
 10
-105.984045
 20
-26.23904
 11
-105.418362
 21
-26.804725
  0
ARC
  8
ゴム等
  6
CONTINUOUS
 62
    63
 10
-105.064804
 20
-26.451171
 40
0.5
 50
225.0
 51
315.0
  0
LINE
  8
ゴム等
  6
CONTINUOUS
 62
    63
 10
-104.711255
 20
-26.804727
 11
-104.711255
 21
-26.804727
  0
LINE
  8
ゴム等
  6
CONTINUOUS
 62
    63
 10
-105.276943
 20
-25.531938
 11
-104.711258
 21
-26.09762
  0
ARC
  8
ゴム等
  6
CONTINUOUS
 62
    63
 10
-105.064804
 20
-26.451171
 40
0.5
 50
315.0
 51
405.0
  0
LINE
  8
ゴム等
  6
CONTINUOUS
 62
    63
 10
-103.968795
 20
-25.143025
 11
-103.968793
 21
-26.698662
  0
LINE
  8
ゴム等
  6
CONTINUOUS
 10
-104.04599
 20
-26.775857
 11
-104.04599
 21
-25.06583
  0
LINE
  8
ゴム等
  6
CONTINUOUS
 10
-105.04599
 20
-24.593877
 11
-105.04599
 21
-22.227355
  0
LINE
  8
ゴム等
  6
CONTINUOUS
 10
-107.04599
 20
-26.593877
 11
-107.04599
 21
-20.227355
  0
LINE
  8
ゴム等
  6
CONTINUOUS
 10
-108.04599
 20
-27.593877
 11
-108.04599
 21
-19.227355
  0
LINE
  8
ゴム等
  6
CONTINUOUS
 10
-105.04599
 20
-24.772937
 11
-105.04599
 21
-25.762888
  0
LINE
  8
ゴム等
  6
CONTINUOUS
 10
-106.045987
 20
-27.54719
 11
-106.045987
 21
-26.177103
  0
LINE
  8
ゴム等
  6
CONTINUOUS
 10
-106.045987
 20
-21.227358
 11
-106.045987
 21
-25.607342
  0
LINE
  8
ゴム等
  6
CONTINUOUS
 10
-105.04599
 20
-27.54719
 11
-105.04599
 21
-26.950817
  0
LINE
  8
ゴム等
  6
CONTINUOUS
 62
    63
 10
-109.16603
 20
-18.107315
 11
-109.873138
 21
-18.814422
  0
LINE
  8
ゴム等
  6
CONTINUOUS
 62
    63
 10
-113.408667
 20
-22.349957
 11
-112.70156
 21
-21.64285
  0
LINE
  8
ゴム等
  6
CONTINUOUS
 62
    63
 10
-112.70156
 20
-21.64285
 11
-112.70156
 21
-21.64285
  0
ARC
  8
ゴム等
  6
CONTINUOUS
 62
    63
 10
-112.524781
 20
-21.466068
 40
0.25
 50
225.0
 51
315.0
  0
LINE
  8
ゴム等
  6
CONTINUOUS
 62
    63
 10
-109.873138
 20
-18.814422
 11
-109.873138
 21
-18.814422
  0
LINE
  8
ゴム等
  6
CONTINUOUS
 62
    63
 10
-109.873138
 20
-19.167972
 11
-112.34801
 21
-21.64285
  0
ARC
  8
ゴム等
  6
CONTINUOUS
 62
    63
 10
-110.049907
 20
-18.991194
 40
0.25
 50
-45.0
 51
45.0
  0
LINE
  8
ゴム等
  6
CONTINUOUS
 62
    63
 10
-103.862727
 20
-23.410615
 11
-109.16603
 21
-18.107315
  0
LINE
  8
ゴム等
  6
CONTINUOUS
 62
    63
 10
-108.105368
 20
-27.653255
 11
-113.408667
 21
-22.349957
  0
LINE
  8
ゴム等
  6
CONTINUOUS
 10
-112.045987
 20
-23.712635
 11
-112.045987
 21
-21.340825
  0
LINE
  8
ゴム等
  6
CONTINUOUS
 10
-111.04599
 20
-24.712633
 11
-111.04599
 21
-20.340827
  0
LINE
  8
ゴム等
  6
CONTINUOUS
 10
-110.04599
 20
-25.712635
 11
-110.04599
 21
-19.340825
  0
LINE
  8
ゴム等
  6
CONTINUOUS
 10
-109.045993
 20
-26.712633
 11
-109.045993
 21
-18.227352
  0
LINE
  8
ゴム等
  6
CONTINUOUS
 10
-113.01509
 20
-21.956375
 11
-113.01509
 21
-22.743535
  0
ENDBLK
  0
BLOCK
  2
*GRP_0070
 70
    65
 10
0.0
 20
0.0
  0
ARC
  8
St
  6
CONTINUOUS
 62
   127
 10
87.827309
 20
-77.961932
 40
1.6
 50
180.0
 51
270.0
  0
LINE
  8
St
  6
CONTINUOUS
 10
130.048102
 20
-77.96193
 11
131.6481
 21
-79.561932
  0
LINE
  8
St
  6
CONTINUOUS
 10
130.40166
 20
-77.96193
 11
132.001657
 21
-79.561932
  0
LINE
  8
St
  6
CONTINUOUS
 62
   127
 10
87.8273
 20
-77.96193
 11
136.227295
 21
-77.96193
  0
LINE
  8
St
  6
CONTINUOUS
 10
136.227295
 20
-77.96193
 11
136.227295
 21
-79.561932
  0
LINE
  8
St
  6
CONTINUOUS
 62
   127
 10
87.8273
 20
-79.561932
 11
136.227295
 21
-79.561932
  0
LINE
  8
St
  6
CONTINUOUS
 10
98.424815
 20
-79.561932
 11
96.824818
 21
-77.96193
  0
LINE
  8
St
  6
CONTINUOUS
 10
98.77837
 20
-79.561932
 11
97.178375
 21
-77.96193
  0
LINE
  8
St
  6
CONTINUOUS
 10
87.8273
 20
-62.43777
 11
86.227297
 21
-60.837765
  0
LINE
  8
St
  6
CONTINUOUS
 10
87.8273
 20
-62.084215
 11
86.227297
 21
-60.484207
  0
LINE
  8
St
  6
CONTINUOUS
 10
87.8273
 20
-59.56193
 11
86.227297
 21
-59.56193
  0
LINE
  8
St
  6
CONTINUOUS
 62
   127
 10
86.227297
 20
-77.96193
 11
86.227297
 21
-59.56193
  0
LINE
  8
St
  6
CONTINUOUS
 62
   127
 10
87.8273
 20
-77.96193
 11
87.8273
 21
-59.56193
  0
LINE
  8
St
  6
DOT
 10
83.803735
 20
-67.06193
 11
90.128108
 21
-67.06193
  0
LINE
  8
St
  6
DOT
 62
   127
 10
112.109895
 20
-80.859623
 11
112.109895
 21
-80.85962
  0
LINE
  8
St
  6
DOT
 10
101.227297
 20
-77.96193
 11
101.227297
 21
-79.561932
  0
LINE
  8
St
  6
DOT
 10
111.227295
 20
-77.96193
 11
111.227295
 21
-79.561932
  0
LINE
  8
St
  6
DOT
 10
118.727295
 20
-77.96193
 11
118.727295
 21
-79.561932
  0
LINE
  8
St
  6
DOT
 10
123.727297
 20
-77.96193
 11
123.727297
 21
-79.561932
  0
LINE
  8
St
  6
DOT
 10
106.227295
 20
-75.929962
 11
106.227295
 21
-81.669262
  0
LINE
  8
St
  6
DOT
 62
   127
 10
111.227295
 20
-78.361932
 11
101.227297
 21
-78.361932
  0
LINE
  8
St
  6
DOT
 62
   127
 10
111.227295
 20
-78.76193
 11
101.227297
 21
-78.76193
  0
LINE
  8
St
  6
DOT
 62
   127
 10
111.227295
 20
-79.16193
 11
101.227297
 21
-79.16193
  0
LINE
  8
St
  6
DOT
 10
118.727295
 20
-78.361932
 11
123.727297
 21
-78.361932
  0
LINE
  8
St
  6
DOT
 10
118.727295
 20
-78.76193
 11
123.727297
 21
-78.76193
  0
LINE
  8
St
  6
DOT
 10
118.727295
 20
-79.16193
 11
123.727297
 21
-79.16193
  0
LINE
  8
St
  6
DOT
 10
121.227295
 20
-75.929962
 11
121.227295
 21
-81.669262
  0
LINE
  8
St
  6
DOT
 10
86.227297
 20
-77.96193
 11
87.8273
 21
-77.96193
  0
LINE
  8
St
  6
DOT
 10
86.227297
 20
-62.061928
 11
87.8273
 21
-62.061928
  0
LINE
  8
St
  6
DOT
 10
87.8273
 20
-68.56193
 11
86.227297
 21
-68.56193
  0
LINE
  8
St
  6
DOT
 10
87.8273
 20
-65.56193
 11
86.227297
 21
-65.56193
  0
LINE
  8
St
  6
DOT
 62
   127
 10
87.427297
 20
-77.96193
 11
87.427297
 21
-62.061928
  0
LINE
  8
St
  6
DOT
 62
   127
 10
87.0273
 20
-77.96193
 11
87.0273
 21
-62.061928
  0
LINE
  8
St
  6
DOT
 62
   127
 10
86.6273
 20
-77.96193
 11
86.6273
 21
-62.061928
  0
ENDBLK
  0
BLOCK
  2
*GRP_0071
 70
    65
 10
0.0
 20
0.0
  0
ARC
  8
St
  6
CONTINUOUS
 62
   127
 10
-109.118404
 20
-77.961932
 40
1.6
 50
-90.0
 51
0.0
  0
LINE
  8
St
  6
CONTINUOUS
 10
-151.339197
 20
-77.96193
 11
-152.939195
 21
-79.561932
  0
LINE
  8
St
  6
CONTINUOUS
 10
-151.692755
 20
-77.96193
 11
-153.292753
 21
-79.561932
  0
LINE
  8
St
  6
CONTINUOUS
 62
   127
 10
-109.118395
 20
-77.96193
 11
-157.51839
 21
-77.96193
  0
LINE
  8
St
  6
CONTINUOUS
 10
-157.51839
 20
-77.96193
 11
-157.51839
 21
-79.561932
  0
LINE
  8
St
  6
CONTINUOUS
 62
   127
 10
-109.118395
 20
-79.561932
 11
-157.51839
 21
-79.561932
  0
LINE
  8
St
  6
CONTINUOUS
 10
-119.71591
 20
-79.561932
 11
-118.115913
 21
-77.96193
  0
LINE
  8
St
  6
CONTINUOUS
 10
-120.069465
 20
-79.561932
 11
-118.46947
 21
-77.96193
  0
LINE
  8
St
  6
CONTINUOUS
 10
-109.118395
 20
-62.43777
 11
-107.518393
 21
-60.837765
  0
LINE
  8
St
  6
CONTINUOUS
 10
-109.118395
 20
-62.084215
 11
-107.518393
 21
-60.484207
  0
LINE
  8
St
  6
CONTINUOUS
 10
-109.118395
 20
-59.56193
 11
-107.518393
 21
-59.56193
  0
LINE
  8
St
  6
CONTINUOUS
 62
   127
 10
-107.518393
 20
-77.96193
 11
-107.518393
 21
-59.56193
  0
LINE
  8
St
  6
CONTINUOUS
 62
   127
 10
-109.118395
 20
-77.96193
 11
-109.118395
 21
-59.56193
  0
LINE
  8
St
  6
DOT
 10
-105.09483
 20
-67.06193
 11
-111.419203
 21
-67.06193
  0
LINE
  8
St
  6
DOT
 62
   127
 10
-133.40099
 20
-80.859623
 11
-133.40099
 21
-80.85962
  0
LINE
  8
St
  6
DOT
 10
-122.518393
 20
-77.96193
 11
-122.518393
 21
-79.561932
  0
LINE
  8
St
  6
DOT
 10
-132.51839
 20
-77.96193
 11
-132.51839
 21
-79.561932
  0
LINE
  8
St
  6
DOT
 10
-140.01839
 20
-77.96193
 11
-140.01839
 21
-79.561932
  0
LINE
  8
St
  6
DOT
 10
-145.018393
 20
-77.96193
 11
-145.018393
 21
-79.561932
  0
LINE
  8
St
  6
DOT
 10
-127.51839
 20
-75.929962
 11
-127.51839
 21
-81.669262
  0
LINE
  8
St
  6
DOT
 62
   127
 10
-132.51839
 20
-78.361932
 11
-122.518393
 21
-78.361932
  0
LINE
  8
St
  6
DOT
 62
   127
 10
-132.51839
 20
-78.76193
 11
-122.518393
 21
-78.76193
  0
LINE
  8
St
  6
DOT
 62
   127
 10
-132.51839
 20
-79.16193
 11
-122.518393
 21
-79.16193
  0
LINE
  8
St
  6
DOT
 10
-140.01839
 20
-78.361932
 11
-145.018393
 21
-78.361932
  0
LINE
  8
St
  6
DOT
 10
-140.01839
 20
-78.76193
 11
-145.018393
 21
-78.76193
  0
LINE
  8
St
  6
DOT
 10
-140.01839
 20
-79.16193
 11
-145.018393
 21
-79.16193
  0
LINE
  8
St
  6
DOT
 10
-142.51839
 20
-75.929962
 11
-142.51839
 21
-81.669262
  0
LINE
  8
St
  6
DOT
 10
-107.518393
 20
-77.96193
 11
-109.118395
 21
-77.96193
  0
LINE
  8
St
  6
DOT
 10
-107.518393
 20
-62.061928
 11
-109.118395
 21
-62.061928
  0
LINE
  8
St
  6
DOT
 10
-109.118395
 20
-68.56193
 11
-107.518393
 21
-68.56193
  0
LINE
  8
St
  6
DOT
 10
-109.118395
 20
-65.56193
 11
-107.518393
 21
-65.56193
  0
LINE
  8
St
  6
DOT
 62
   127
 10
-108.718393
 20
-77.96193
 11
-108.718393
 21
-62.061928
  0
LINE
  8
St
  6
DOT
 62
   127
 10
-108.318395
 20
-77.96193
 11
-108.318395
 21
-62.061928
  0
LINE
  8
St
  6
DOT
 62
   127
 10
-107.918395
 20
-77.96193
 11
-107.918395
 21
-62.061928
  0
ENDBLK
  0
ENDSEC
  0
SECTION
  2
ENTITIES
  0
POLYLINE
  8
通り芯
  6
CONTINUOUS
 66
     1
 70
     1
  0
VERTEX
  8
通り芯
 10
-210.0
 20
-148.5
  0
VERTEX
  8
通り芯
 10
210.0
 20
-148.5
  0
VERTEX
  8
通り芯
 10
210.0
 20
148.5
  0
VERTEX
  8
通り芯
 10
-210.0
 20
148.5
  0
SEQEND
  0
INSERT
  2
*GRP_0060
  8
型材
  6
DOT
 10
0.0
 20
0.0
  0
INSERT
  2
*GRP_0062
  8
型材
  6
DOT
 10
0.0
 20
0.0
  0
INSERT
  2
*GRP_0001
  8
型材断面
  6
CONTINUOUS
 10
0.0
 20
0.0
  0
LINE
  8
型材断面
  6
CONTINUOUS
 10
71.75729
 20
-32.457197
 11
17.371595
 21
21.928383
  0
LINE
  8
型材断面
  6
CONTINUOUS
 10
81.691278
 20
-22.52321
 11
27.30557
 21
31.86238
  0
LINE
  8
型材断面
  6
DASHDOT
 10
54.009045
 20
58.9513
 11
54.009045
 21
-46.108932
  0
LINE
  8
型材断面
  6
CONTINUOUS
 10
-93.048385
 20
-32.457197
 11
-38.66269
 21
21.928383
  0
LINE
  8
型材断面
  6
CONTINUOUS
 10
-102.982373
 20
-22.52321
 11
-48.596665
 21
31.86238
  0
LINE
  8
型材断面
  6
DOT
 10
-109.154435
 20
-32.261048
 11
-108.624105
 21
-32.791377
  0
LINE
  8
型材断面
  6
DOT
 10
-106.502775
 20
-29.609393
 11
-105.972448
 21
-30.139722
  0
LINE
  8
型材断面
  6
DOT
 10
-109.021853
 20
-32.39363
 11
-106.370197
 21
-29.74197
  0
LINE
  8
型材断面
  6
DOT
 10
-108.889268
 20
-32.52621
 11
-106.237612
 21
-29.874555
  0
LINE
  8
型材断面
  6
DOT
 10
-108.756688
 20
-32.658795
 11
-106.105033
 21
-30.007138
  0
LINE
  8
型材断面
  6
DOT
 10
-123.259868
 20
-44.56193
 11
-122.509868
 21
-44.56193
  0
LINE
  8
型材断面
  6
DOT
 10
-123.259868
 20
-40.561928
 11
-122.509868
 21
-40.561928
  0
LINE
  8
型材断面
  6
DOT
 10
-122.697368
 20
-40.561928
 11
-122.697368
 21
-44.56193
  0
LINE
  8
型材断面
  6
DOT
 10
-122.884868
 20
-40.561928
 11
-122.884868
 21
-44.56193
  0
LINE
  8
型材断面
  6
DOT
 10
-123.072368
 20
-40.561928
 11
-123.072368
 21
-44.56193
  0
LINE
  8
型材断面
  6
DOT
 10
-117.50987
 20
-44.56193
 11
-117.50987
 21
-39.56193
  0
LINE
  8
型材断面
  6
DOT
 10
-117.50987
 20
-39.56193
 11
-122.509868
 21
-39.56193
  0
LINE
  8
型材断面
  6
DOT
 10
-117.50987
 20
-44.56193
 11
-122.509868
 21
-44.56193
  0
INSERT
  2
*HAT_0001
  8
型材断面
 10
0.0
 20
0.0
  0
INSERT
  2
*GRP_0027
  8
型材断面
  6
CONTINUOUS
 10
0.0
 20
0.0
  0
LINE
  8
型材断面
  6
CONTINUOUS
 10
-162.26839
 20
-115.234875
 11
-131.595445
 21
-84.56193
  0
LINE
  8
型材断面
  6
CONTINUOUS
 10
-162.26839
 20
-111.699345
 11
-135.130975
 21
-84.56193
  0
LINE
  8
型材断面
  6
CONTINUOUS
 10
-162.26839
 20
-108.163807
 11
-138.666513
 21
-84.56193
  0
LINE
  8
型材断面
  6
CONTINUOUS
 10
-162.26839
 20
-84.561935
 11
-162.26839
 21
-124.107823
  0
LINE
  8
型材断面
  6
CONTINUOUS
 10
-167.26839
 20
-84.56193
 11
-167.26839
 21
-124.107823
  0
ARC
  8
型材断面
  6
CONTINUOUS
 10
-162.26839
 20
-84.561932
 40
5.0
 50
90.0
 51
180.0
  0
LINE
  8
型材断面
  6
CONTINUOUS
 10
-162.26839
 20
-79.561932
 11
-87.26839
 21
-79.561932
  0
LINE
  8
型材断面
  6
CONTINUOUS
 10
-162.26839
 20
-84.56193
 11
-87.26839
 21
-84.56193
  0
LINE
  8
型材断面
  6
CONTINUOUS
 10
-87.26839
 20
-100.794615
 11
-110.581598
 21
-124.107823
  0
LINE
  8
型材断面
  6
CONTINUOUS
 10
-87.26839
 20
-104.330145
 11
-107.046068
 21
-124.107823
  0
LINE
  8
型材断面
  6
CONTINUOUS
 10
-87.26839
 20
-107.865683
 11
-103.51053
 21
-124.107823
  0
LINE
  8
型材断面
  6
CONTINUOUS
 10
-77.26839
 20
-124.107823
 11
-77.26839
 21
-45.31193
  0
LINE
  8
型材断面
  6
CONTINUOUS
 10
-87.26839
 20
-124.107823
 11
-87.26839
 21
-51.161932
  0
LINE
  8
型材断面
  6
DASHDOT
 10
-75.30014
 20
-46.108932
 11
-75.30014
 21
103.303955
  0
INSERT
  2
*GRP_0034
  8
型材断面
  6
CONTINUOUS
 10
0.0
 20
0.0
  0
LINE
  8
型材断面
  6
CONTINUOUS
 10
140.977295
 20
-115.234875
 11
110.30435
 21
-84.56193
  0
LINE
  8
型材断面
  6
CONTINUOUS
 10
140.977295
 20
-111.699345
 11
113.83988
 21
-84.56193
  0
LINE
  8
型材断面
  6
CONTINUOUS
 10
140.977295
 20
-108.163807
 11
117.375418
 21
-84.56193
  0
LINE
  8
型材断面
  6
CONTINUOUS
 10
140.977295
 20
-84.561935
 11
140.977295
 21
-124.107823
  0
ARC
  8
型材断面
  6
CONTINUOUS
 10
140.977295
 20
-84.561932
 40
5.0
 50
0.0
 51
90.0
  0
LINE
  8
型材断面
  6
CONTINUOUS
 10
140.977295
 20
-79.561932
 11
65.977295
 21
-79.561932
  0
LINE
  8
型材断面
  6
CONTINUOUS
 10
140.977295
 20
-84.56193
 11
65.977295
 21
-84.56193
  0
LINE
  8
型材断面
  6
CONTINUOUS
 10
65.977295
 20
-100.794615
 11
89.290503
 21
-124.107823
  0
LINE
  8
型材断面
  6
CONTINUOUS
 10
65.977295
 20
-104.330145
 11
85.754973
 21
-124.107823
  0
LINE
  8
型材断面
  6
CONTINUOUS
 10
65.977295
 20
-107.865683
 11
82.219435
 21
-124.107823
  0
LINE
  8
型材断面
  6
CONTINUOUS
 10
55.977295
 20
-124.107823
 11
55.977295
 21
-45.31193
  0
LINE
  8
型材断面
  6
CONTINUOUS
 10
65.977295
 20
-124.107823
 11
65.977295
 21
-51.161932
  0
LINE
  8
型材断面
  6
CONTINUOUS
 10
13.482527
 20
18.039305
 11
66.433875
 21
-34.91193
  0
LINE
  8
型材断面
  6
CONTINUOUS
 10
81.691278
 20
-22.52321
 11
69.302557
 21
-34.91193
  0
LINE
  8
型材断面
  6
DOT
 10
101.968772
 20
-44.56193
 11
101.218772
 21
-44.56193
  0
LINE
  8
型材断面
  6
DOT
 10
101.968772
 20
-40.561928
 11
101.218772
 21
-40.561928
  0
LINE
  8
型材断面
  6
DOT
 10
101.406272
 20
-40.561928
 11
101.406272
 21
-44.56193
  0
LINE
  8
型材断面
  6
DOT
 10
101.593772
 20
-40.561928
 11
101.593772
 21
-44.56193
  0
LINE
  8
型材断面
  6
DOT
 10
101.781272
 20
-40.561928
 11
101.781272
 21
-44.56193
  0
LINE
  8
型材断面
  6
DOT
 10
96.218775
 20
-44.56193
 11
96.218775
 21
-39.56193
  0
LINE
  8
型材断面
  6
DOT
 10
96.218775
 20
-39.56193
 11
101.218772
 21
-39.56193
  0
INSERT
  2
*HAT_0002
  8
型材断面
 10
0.0
 20
0.0
  0
LINE
  8
型材断面
  6
CONTINUOUS
 10
145.977295
 20
-84.56193
 11
145.977295
 21
-118.5
  0
INSERT
  2
*GRP_0063
  8
型材断面
  6
CONTINUOUS
 10
0.0
 20
0.0
  0
INSERT
  2
*GRP_0064
  8
型材断面
  6
DOT
 62
    47
 10
0.0
 20
0.0
  0
LINE
  8
型材断面
  6
CONTINUOUS
 10
-60.016245
 20
43.281985
 11
-115.744157
 21
-12.44581
  0
LINE
  8
型材断面
  6
CONTINUOUS
 10
-58.602033
 20
41.86777
 11
-112.84184
 21
-12.371925
  0
LINE
  8
型材断面
  6
CONTINUOUS
 10
38.72515
 20
43.281985
 11
94.453065
 21
-12.44581
  0
LINE
  8
型材断面
  6
CONTINUOUS
 10
37.310938
 20
41.86777
 11
91.550745
 21
-12.371925
  0
INSERT
  2
*GRP_0067
  8
型材断面
  6
CONTINUOUS
 10
0.0
 20
0.0
  0
INSERT
  2
*GRP_0068
  8
型材断面
  6
DOT
 62
    47
 10
0.0
 20
0.0
  0
LINE
  8
型材断面
  6
DOT
 10
87.87494
 20
-32.24944
 11
87.34461
 21
-32.77977
  0
LINE
  8
型材断面
  6
DOT
 10
85.22328
 20
-29.597785
 11
84.692952
 21
-30.128115
  0
LINE
  8
型材断面
  6
DOT
 10
87.742358
 20
-32.382023
 11
85.090703
 21
-29.730362
  0
LINE
  8
型材断面
  6
DOT
 10
87.609772
 20
-32.514603
 11
84.958117
 21
-29.862947
  0
LINE
  8
型材断面
  6
DOT
 10
87.477192
 20
-32.647188
 11
84.825538
 21
-29.99553
  0
LINE
  8
型材断面
  6
CONTINUOUS
 10
-34.773622
 20
18.039305
 11
-87.724978
 21
-34.911938
  0
LINE
  8
型材断面
  6
CONTINUOUS
 10
-102.982373
 20
-22.52321
 11
-90.593645
 21
-34.911938
  0
INSERT
  2
*GRP_0011
  8
ガラス
  6
CONTINUOUS
 10
0.0
 20
0.0
  0
INSERT
  2
*GRP_0012
  8
ガラス
  6
CONTINUOUS
 10
0.0
 20
0.0
  0
INSERT
  2
*GRP_0013
  8
ガラス
  6
CONTINUOUS
 10
0.0
 20
0.0
  0
INSERT
  2
*GRP_0014
  8
ガラス
  6
CONTINUOUS
 10
0.0
 20
0.0
  0
INSERT
  2
*GRP_0015
  8
ガラス
  6
CONTINUOUS
 10
0.0
 20
0.0
  0
INSERT
  2
*GRP_0016
  8
ガラス
  6
CONTINUOUS
 10
0.0
 20
0.0
  0
INSERT
  2
*GRP_0017
  8
ガラス
  6
CONTINUOUS
 10
0.0
 20
0.0
  0
INSERT
  2
*GRP_0018
  8
ガラス
  6
CONTINUOUS
 10
0.0
 20
0.0
  0
INSERT
  2
*GRP_0019
  8
ガラス
  6
CONTINUOUS
 10
0.0
 20
0.0
  0
LINE
  8
ガラス
  6
CONTINUOUS
 10
-118.004677
 20
-21.642615
 11
-115.600515
 21
-24.046785
  0
INSERT
  2
*GRP_0041
  8
ガラス
  6
CONTINUOUS
 10
0.0
 20
0.0
  0
INSERT
  2
*GRP_0042
  8
ガラス
  6
CONTINUOUS
 10
0.0
 20
0.0
  0
INSERT
  2
*GRP_0043
  8
ガラス
  6
CONTINUOUS
 10
0.0
 20
0.0
  0
INSERT
  2
*GRP_0044
  8
ガラス
  6
CONTINUOUS
 10
0.0
 20
0.0
  0
INSERT
  2
*GRP_0045
  8
ガラス
  6
CONTINUOUS
 10
0.0
 20
0.0
  0
INSERT
  2
*GRP_0046
  8
ガラス
  6
CONTINUOUS
 10
0.0
 20
0.0
  0
INSERT
  2
*GRP_0047
  8
ガラス
  6
CONTINUOUS
 10
0.0
 20
0.0
  0
INSERT
  2
*GRP_0048
  8
ガラス
  6
CONTINUOUS
 10
0.0
 20
0.0
  0
INSERT
  2
*GRP_0049
  8
ガラス
  6
CONTINUOUS
 10
0.0
 20
0.0
  0
LINE
  8
ガラス
  6
CONTINUOUS
 10
-54.07319
 20
37.338945
 11
-115.529782
 21
-24.117515
  0
LINE
  8
ガラス
  6
CONTINUOUS
 10
-53.89641
 20
37.162165
 11
-115.353007
 21
-24.294293
  0
LINE
  8
ガラス
  6
CONTINUOUS
 10
-56.123802
 20
39.38955
 11
-117.580393
 21
-22.066905
  0
LINE
  8
ガラス
  6
CONTINUOUS
 10
-56.30058
 20
39.566328
 11
-117.757168
 21
-21.89013
  0
LINE
  8
ガラス
  6
CONTINUOUS
 10
92.576997
 20
-21.53655
 11
90.455677
 21
-23.657875
  0
LINE
  8
ガラス
  6
CONTINUOUS
 10
90.455677
 20
-23.657875
 11
94.69832
 21
-23.657867
  0
LINE
  8
ガラス
  6
CONTINUOUS
 10
92.576997
 20
-21.53655
 11
92.577
 21
-25.779195
  0
LINE
  8
ガラス
  6
CONTINUOUS
 10
34.832733
 20
39.38956
 11
96.289302
 21
-22.066878
  0
LINE
  8
ガラス
  6
CONTINUOUS
 10
35.00951
 20
39.566338
 11
96.46608
 21
-21.890103
  0
LINE
  8
ガラス
  6
CONTINUOUS
 10
33.241745
 20
37.79857
 11
94.698317
 21
-23.657867
  0
LINE
  8
ガラス
  6
CONTINUOUS
 10
33.418525
 20
37.975345
 11
94.875095
 21
-23.481092
  0
LINE
  8
ガラス
  6
CONTINUOUS
 10
30.943652
 20
35.500468
 11
92.400223
 21
-25.955973
  0
LINE
  8
ガラス
  6
CONTINUOUS
 10
31.120428
 20
35.677242
 11
92.576997
 21
-25.779195
  0
LINE
  8
ガラス
  6
CONTINUOUS
 10
28.716267
 20
33.27308
 11
90.17284
 21
-28.18336
  0
LINE
  8
ガラス
  6
CONTINUOUS
 10
28.893043
 20
33.449855
 11
90.349618
 21
-28.006582
  0
LINE
  8
ガラス
  6
CONTINUOUS
 10
90.17284
 20
-28.18336
 11
96.46608
 21
-21.890103
  0
INSERT
  2
*GRP_0002
  8
ゴム等
  6
CONTINUOUS
 10
0.0
 20
0.0
  0
INSERT
  2
*GRP_0020
  8
ゴム等
  6
DOT
 10
0.0
 20
0.0
  0
INSERT
  2
*GRP_0066
  8
ゴム等
  6
DOT
 10
0.0
 20
0.0
  0
INSERT
  2
*GRP_0021
  8
ボルト／ビス
  6
CONTINUOUS
 62
    64
 10
0.0
 20
0.0
  0
INSERT
  2
*GRP_0022
  8
ボルト／ビス
  6
CONTINUOUS
 62
    64
 10
0.0
 20
0.0
  0
INSERT
  2
*GRP_0023
  8
ボルト／ビス
  6
CONTINUOUS
 62
    64
 10
0.0
 20
0.0
  0
INSERT
  2
*GRP_0024
  8
ボルト／ビス
  6
CONTINUOUS
 62
    64
 10
0.0
 20
0.0
  0
INSERT
  2
*GRP_0025
  8
ボルト／ビス
  6
CONTINUOUS
 62
    64
 10
0.0
 20
0.0
  0
INSERT
  2
*GRP_0035
  8
ボルト／ビス
  6
CONTINUOUS
 62
    64
 10
0.0
 20
0.0
  0
INSERT
  2
*GRP_0036
  8
ボルト／ビス
  6
CONTINUOUS
 62
    64
 10
0.0
 20
0.0
  0
INSERT
  2
*GRP_0050
  8
ボルト／ビス
  6
CONTINUOUS
 62
    64
 10
0.0
 20
0.0
  0
INSERT
  2
*GRP_0051
  8
ボルト／ビス
  6
CONTINUOUS
 62
    64
 10
0.0
 20
0.0
  0
INSERT
  2
*GRP_0052
  8
ボルト／ビス
  6
CONTINUOUS
 62
    64
 10
0.0
 20
0.0
  0
TEXT
  7
TextStyle03
  8
文字
  6
CONTINUOUS
 10
114.075
 20
14.525
  1
ガラスは20.3mmまでの厚さを
 40
3.0
 72
     5
 11
157.575
 21
14.525
  0
TEXT
  7
TextStyle03
  8
文字
  6
CONTINUOUS
 10
114.075
 20
11.15
  1
限界とする。
 40
3.0
 72
     5
 11
133.95
 21
11.15
  0
TEXT
  7
TextStyle03
  8
文字
  6
CONTINUOUS
 10
120.625
 20
105.575
  1
ＮＳコード：ＮＳ４ＣＫＺ
 40
5.0
 72
     5
 11
187.5
 21
105.575
  0
TEXT
  7
TextStyle03
  8
文字
  6
CONTINUOUS
 10
-178.075
 20
16.85
  1
ガラスは20.3mmまでの厚さを
 40
3.0
 72
     5
 11
-134.575
 21
16.85
  0
TEXT
  7
TextStyle03
  8
文字
  6
CONTINUOUS
 10
-178.075
 20
13.475
  1
限界とする。
 40
3.0
 72
     5
 11
-158.2
 21
13.475
  0
TEXT
  7
TextStyle03
  8
文字
  6
CONTINUOUS
 10
-3.5
 20
-97.675
  1
アンカー：St-3.2t
 40
3.0
 72
     5
 11
25.0
 21
-97.675
  0
TEXT
  7
TextStyle03
  8
文字
  6
CONTINUOUS
 10
166.625
 20
-74.325
  1
排水パイプ
 40
3.0
 72
     5
 11
183.125
 21
-74.325
  0
TEXT
  7
TextStyle03
  8
文字
  6
CONTINUOUS
 10
166.625
 20
-77.7
  1
(オプション)
 40
3.0
 72
     5
 11
186.6875
 21
-77.7
  0
TEXT
  7
TextStyle03
  8
文字
  6
CONTINUOUS
 10
166.625
 20
-81.075
  1
□10×10×1 L=60
 40
3.0
 72
     5
 11
193.4375
 21
-81.075
  0
TEXT
  7
TextStyle03
  8
文字
  6
CONTINUOUS
 10
-167.35
 20
-54.65
  1
TKM-0001～0005
 40
3.0
 72
     5
 11
-143.9125
 21
-54.65
  0
TEXT
  7
TextStyle03
  8
文字
  6
CONTINUOUS
 10
69.45
 20
124.675
  1
シリーズ：ＴＦ２４Ｋ
 40
5.0
 72
     5
 11
125.075
 21
124.675
  0
TEXT
  7
TextStyle03
  8
文字
  6
CONTINUOUS
 10
69.45
 20
119.05
  1
　　　　　四角錘（固定）
 40
5.0
 72
     5
 11
136.325
 21
119.05
  0
TEXT
  7
TextStyle03
  8
文字
  6
CONTINUOUS
 10
69.45
 20
113.425
  1
図面名　：下枠断面詳細図
 40
5.0
 72
     5
 11
136.325
 21
113.425
  0
INSERT
  2
*DIM_0003
  8
寸法
  6
CONTINUOUS
 10
0.0
 20
0.0
  0
INSERT
  2
*DIM_0004
  8
寸法
  6
CONTINUOUS
 10
0.0
 20
0.0
  0
INSERT
  2
*DIM_0005
  8
寸法
  6
CONTINUOUS
 10
0.0
 20
0.0
  0
INSERT
  2
*DIM_0006
  8
寸法
  6
CONTINUOUS
 10
0.0
 20
0.0
  0
INSERT
  2
*DIM_0007
  8
寸法
  6
CONTINUOUS
 10
0.0
 20
0.0
  0
INSERT
  2
*DIM_0008
  8
寸法
  6
CONTINUOUS
 10
0.0
 20
0.0
  0
INSERT
  2
*GRP_0009
  8
寸法
  6
CONTINUOUS
 10
0.0
 20
0.0
  0
INSERT
  2
*GRP_0010
  8
寸法
  6
CONTINUOUS
 10
0.0
 20
0.0
  0
INSERT
  2
*DIM_0028
  8
寸法
  6
CONTINUOUS
 10
0.0
 20
0.0
  0
INSERT
  2
*DIM_0029
  8
寸法
  6
CONTINUOUS
 10
0.0
 20
0.0
  0
INSERT
  2
*DIM_0030
  8
寸法
  6
CONTINUOUS
 10
0.0
 20
0.0
  0
INSERT
  2
*DIM_0031
  8
寸法
  6
CONTINUOUS
 10
0.0
 20
0.0
  0
INSERT
  2
*DIM_0032
  8
寸法
  6
CONTINUOUS
 10
0.0
 20
0.0
  0
INSERT
  2
*DIM_0033
  8
寸法
  6
CONTINUOUS
 10
0.0
 20
0.0
  0
INSERT
  2
*DIM_0038
  8
寸法
  6
CONTINUOUS
 10
0.0
 20
0.0
  0
INSERT
  2
*DIM_0039
  8
寸法
  6
CONTINUOUS
 10
0.0
 20
0.0
  0
INSERT
  2
*DIM_0040
  8
寸法
  6
CONTINUOUS
 10
0.0
 20
0.0
  0
INSERT
  2
*DIM_0053
  8
寸法
  6
CONTINUOUS
 10
0.0
 20
0.0
  0
INSERT
  2
*DIM_0054
  8
寸法
  6
CONTINUOUS
 10
0.0
 20
0.0
  0
INSERT
  2
*DIM_0055
  8
寸法
  6
CONTINUOUS
 10
0.0
 20
0.0
  0
INSERT
  2
*DIM_0056
  8
寸法
  6
CONTINUOUS
 10
0.0
 20
0.0
  0
INSERT
  2
*GRP_0057
  8
寸法
  6
CONTINUOUS
 10
0.0
 20
0.0
  0
INSERT
  2
*GRP_0061
  8
寸法
  6
CONTINUOUS
 10
0.0
 20
0.0
  0
INSERT
  2
*GRP_0065
  8
寸法
  6
CONTINUOUS
 10
0.0
 20
0.0
  0
INSERT
  2
*HAT_0003
  8
ﾊｯﾁﾝｸﾞ
 10
0.0
 20
0.0
  0
INSERT
  2
*HAT_0004
  8
ﾊｯﾁﾝｸﾞ
 10
0.0
 20
0.0
  0
INSERT
  2
*HAT_0005
  8
ﾊｯﾁﾝｸﾞ
 10
0.0
 20
0.0
  0
INSERT
  2
*HAT_0006
  8
ﾊｯﾁﾝｸﾞ
 10
0.0
 20
0.0
  0
INSERT
  2
*HAT_0007
  8
ﾊｯﾁﾝｸﾞ
 10
0.0
 20
0.0
  0
INSERT
  2
*HAT_0008
  8
ﾊｯﾁﾝｸﾞ
 10
0.0
 20
0.0
  0
INSERT
  2
*HAT_0009
  8
ﾊｯﾁﾝｸﾞ
 10
0.0
 20
0.0
  0
INSERT
  2
*HAT_0010
  8
ﾊｯﾁﾝｸﾞ
 10
0.0
 20
0.0
  0
INSERT
  2
*HAT_0011
  8
ﾊｯﾁﾝｸﾞ
 10
0.0
 20
0.0
  0
INSERT
  2
*HAT_0012
  8
ﾊｯﾁﾝｸﾞ
 10
0.0
 20
0.0
  0
LINE
  8
別途部材
  6
CONTINUOUS
 10
-67.76839
 20
-123.893213
 11
-67.76839
 21
-45.31193
  0
LINE
  8
別途部材
  6
CONTINUOUS
 10
-67.268393
 20
-123.893213
 11
-67.268393
 21
-45.31193
  0
LINE
  8
別途部材
  6
CONTINUOUS
 10
-72.768393
 20
-123.893213
 11
-72.768393
 21
-45.31193
  0
LINE
  8
別途部材
  6
CONTINUOUS
 10
-73.268393
 20
-123.893213
 11
-73.268393
 21
-45.31193
  0
LINE
  8
別途部材
  6
CONTINUOUS
 10
46.477295
 20
-123.893213
 11
46.477295
 21
-45.31193
  0
LINE
  8
別途部材
  6
CONTINUOUS
 10
45.977297
 20
-123.893213
 11
45.977297
 21
-45.31193
  0
LINE
  8
別途部材
  6
CONTINUOUS
 10
51.477297
 20
-123.893213
 11
51.477297
 21
-45.31193
  0
LINE
  8
別途部材
  6
CONTINUOUS
 10
51.977297
 20
-123.893213
 11
51.977297
 21
-45.31193
  0
INSERT
  2
*GRP_0058
  8
別途部材
  6
CONTINUOUS
 10
0.0
 20
0.0
  0
INSERT
  2
*GRP_0059
  8
別途部材
  6
CONTINUOUS
 10
0.0
 20
0.0
  0
INSERT
  2
*GRP_0026
  8
St
  6
DOT
 10
0.0
 20
0.0
  0
INSERT
  2
*GRP_0037
  8
St
  6
DOT
 10
0.0
 20
0.0
  0
INSERT
  2
*GRP_0070
  8
St
  6
DOT
 10
0.0
 20
0.0
  0
INSERT
  2
*GRP_0071
  8
St
  6
DOT
 10
0.0
 20
0.0
  0
LINE
  8
その他部品等
  6
CONTINUOUS
 10
92.75398
 20
-18.178007
 11
98.234087
 21
-17.647692
  0
LINE
  8
その他部品等
  6
CONTINUOUS
 10
-114.045075
 20
-18.178007
 11
-119.525183
 21
-17.647692
  0
LINE
  8
その他部品等
  6
CONTINUOUS
 10
-123.268393
 20
-54.47628
 11
-123.268393
 21
-46.97618
  0
LINE
  8
その他部品等
  6
CONTINUOUS
 10
-121.768393
 20
-46.97618
 11
-115.768393
 21
-46.97618
  0
LINE
  8
その他部品等
  6
CONTINUOUS
 10
-118.768393
 20
-46.97618
 11
-118.768393
 21
-53.863933
  0
LINE
  8
その他部品等
  6
CONTINUOUS
 10
-116.668393
 20
-47.72822
 11
-116.668393
 21
-46.97618
  0
LINE
  8
その他部品等
  6
CONTINUOUS
 10
-118.768393
 20
-46.97618
 11
-116.668393
 21
-53.57822
  0
LINE
  8
その他部品等
  6
CONTINUOUS
 10
101.977297
 20
-54.47628
 11
101.977297
 21
-46.97618
  0
LINE
  8
その他部品等
  6
CONTINUOUS
 10
100.477297
 20
-46.97618
 11
94.477297
 21
-46.97618
  0
LINE
  8
その他部品等
  6
CONTINUOUS
 10
97.477297
 20
-46.97618
 11
97.477297
 21
-53.863933
  0
LINE
  8
その他部品等
  6
CONTINUOUS
 10
95.377297
 20
-47.72822
 11
95.377297
 21
-46.97618
  0
LINE
  8
その他部品等
  6
CONTINUOUS
 10
97.477297
 20
-46.97618
 11
95.377297
 21
-53.57822
  0
LINE
  8
その他部品等
  6
CONTINUOUS
 10
-167.256783
 20
-84.664073
 11
-178.21844
 21
-84.664073
  0
LINE
  8
その他部品等
  6
CONTINUOUS
 10
-167.256783
 20
-88.299407
 11
-178.21844
 21
-88.299407
  0
LINE
  8
その他部品等
  6
CONTINUOUS
 10
-167.256783
 20
-92.29941
 11
-179.868455
 21
-92.29941
  0
LINE
  8
その他部品等
  6
CONTINUOUS
 10
-178.21844
 20
-84.664073
 11
-178.21844
 21
-88.299407
  0
LINE
  8
その他部品等
  6
CONTINUOUS
 10
-178.21844
 20
-88.299407
 11
-167.480065
 21
-84.787057
  0
LINE
  8
その他部品等
  6
CONTINUOUS
 10
145.965688
 20
-84.664073
 11
156.927345
 21
-84.664073
  0
LINE
  8
その他部品等
  6
CONTINUOUS
 10
145.965688
 20
-88.299407
 11
156.927345
 21
-88.299407
  0
LINE
  8
その他部品等
  6
CONTINUOUS
 10
145.965688
 20
-92.29941
 11
158.57736
 21
-92.29941
  0
LINE
  8
その他部品等
  6
CONTINUOUS
 10
156.927345
 20
-84.664073
 11
156.927345
 21
-88.299407
  0
LINE
  8
その他部品等
  6
CONTINUOUS
 10
156.927345
 20
-88.299407
 11
146.18897
 21
-84.787057
  0
LINE
  8
その他部品等
  6
CONTINUOUS
 10
-119.525183
 20
-17.647692
 11
-116.519955
 21
-20.65292
  0
LINE
  8
その他部品等
  6
CONTINUOUS
 10
-117.050282
 20
-15.172797
 11
-114.045055
 21
-18.178028
  0
LINE
  8
その他部品等
  6
CONTINUOUS
 10
-108.118703
 20
-12.251685
 11
-115.744157
 21
-12.44581
  0
LINE
  8
その他部品等
  6
CONTINUOUS
 10
98.234087
 20
-17.647692
 11
95.228878
 21
-20.652902
  0
LINE
  8
その他部品等
  6
CONTINUOUS
 10
95.759188
 20
-15.172797
 11
92.753977
 21
-18.17801
  0
LINE
  8
その他部品等
  6
CONTINUOUS
 10
94.453065
 20
-12.44581
 11
86.827642
 21
-12.251685
  0
INSERT
  2
*GRP_0069
  8
その他部品等
  6
CONTINUOUS
 10
0.0
 20
0.0
  0
ENDSEC
  0
EOF
