  0
SECTION
  2
HEADER
  9
$EXTMIN
 10
-210.0
 20
-148.5
  9
$EXTMAX
 10
210.0
 20
148.5
  9
$PDMODE
 70
    32
  9
$PDSIZE
 40
1.5
  9
$LTSCALE
 40
10.0
  0
ENDSEC
  0
SECTION
  2
TABLES
  0
TABLE
  2
LTYPE
 70
    15
  0
LTYPE
  2
CONTINUOUS
 70
    64
  3
実線
 72
    65
 73
     0
 40
0.0
  0
LTYPE
  2
DASHED
 70
    64
  3
破線A
 72
    65
 73
     2
 40
0.6
 49
0.4
 49
-0.2
  0
LTYPE
  2
DASHEDX2
 70
    64
  3
破線B
 72
    65
 73
     2
 40
1.3
 49
0.9
 49
-0.4
  0
LTYPE
  2
DASHDOT
 70
    64
  3
１点鎖線A
 72
    65
 73
     4
 40
0.5375
 49
0.375
 49
-0.05
 49
0.0625
 49
-0.05
  0
LTYPE
  2
DASHDOTX2
 70
    64
  3
１点鎖線B
 72
    65
 73
     4
 40
1.075
 49
0.75
 49
-0.1
 49
0.125
 49
-0.1
  0
LTYPE
  2
DIVIDE2
 70
    64
  3
２点鎖線A
 72
    65
 73
     6
 40
0.5125
 49
0.3
 49
-0.0375
 49
0.05
 49
-0.0375
 49
0.05
 49
-0.0375
  0
LTYPE
  2
DIVIDE
 70
    64
  3
２点鎖線B
 72
    65
 73
     6
 40
1.05
 49
0.55
 49
-0.1
 49
0.1
 49
-0.1
 49
0.1
 49
-0.1
  0
LTYPE
  2
DOT
 70
    64
  3
点線A
 72
    65
 73
     2
 40
0.1125
 49
0.0625
 49
-0.05
  0
LTYPE
  2
DOTX2
 70
    64
  3
点線B
 72
    65
 73
     2
 40
0.275
 49
0.15
 49
-0.125
  0
LTYPE
  2
CONTINUOUS
 70
    64
  3
実線
 72
    65
 73
     0
 40
0.0
  0
LTYPE
  2
CONTINUOUS
 70
    64
  3
実線
 72
    65
 73
     0
 40
0.0
  0
LTYPE
  2
CONTINUOUS
 70
    64
  3
実線
 72
    65
 73
     0
 40
0.0
  0
LTYPE
  2
CONTINUOUS
 70
    64
  3
実線
 72
    65
 73
     0
 40
0.0
  0
LTYPE
  2
CONTINUOUS
 70
    64
  3
実線
 72
    65
 73
     0
 40
0.0
  0
LTYPE
  2
CONTINUOUS
 70
    64
  3
実線
 72
    65
 73
     0
 40
0.0
  0
ENDTAB
  0
TABLE
  2
LAYER
 70
    34
  0
LAYER
  2
通り芯
 70
     0
 62
    15
  6
CONTINUOUS
  0
LAYER
  2
補助線
 70
     0
 62
    16
  6
DOT
  0
LAYER
  2
躯体
 70
     0
 62
    31
  6
CONTINUOUS
  0
LAYER
  2
型材
 70
     0
 62
    32
  6
CONTINUOUS
  0
LAYER
  2
型材断面
 70
     0
 62
    47
  6
CONTINUOUS
  0
LAYER
  2
ガラス
 70
     0
 62
    48
  6
CONTINUOUS
  0
LAYER
  2
ゴム等
 70
     0
 62
    63
  6
CONTINUOUS
  0
LAYER
  2
ボルト／ビス
 70
     0
 62
    64
  6
CONTINUOUS
  0
LAYER
  2
文字
 70
     0
 62
    79
  6
CONTINUOUS
  0
LAYER
  2
寸法
 70
     0
 62
    80
  6
CONTINUOUS
  0
LAYER
  2
ﾊｯﾁﾝｸﾞ
 70
     0
 62
    95
  6
CONTINUOUS
  0
LAYER
  2
別途部材
 70
     0
 62
    96
  6
CONTINUOUS
  0
LAYER
  2
曲げ物
 70
     0
 62
   111
  6
CONTINUOUS
  0
LAYER
  2
鉄骨等
 70
     0
 62
   112
  6
CONTINUOUS
  0
LAYER
  2
St
 70
     0
 62
   127
  6
CONTINUOUS
  0
LAYER
  2
その他部品等
 70
     0
 62
   128
  6
CONTINUOUS
  0
LAYER
  2
ｶﾞｽｹｯﾄ
 70
     0
 62
   143
  6
CONTINUOUS
  0
LAYER
  2
ｽｹｯﾁ
 70
     0
 62
    14
  6
CONTINUOUS
  0
LAYER
  2
0
 70
     0
 62
    17
  6
CONTINUOUS
  0
LAYER
  2
1
 70
     0
 62
    30
  6
CONTINUOUS
  0
LAYER
  2
4
 70
     0
 62
    33
  6
CONTINUOUS
  0
LAYER
  2
ﾚｲﾔ3
 70
     0
 62
    46
  6
CONTINUOUS
  0
LAYER
  2
外形線
 70
     0
 62
    49
  6
CONTINUOUS
  0
LAYER
  2
部品
 70
     0
 62
    14
  6
CONTINUOUS
  0
LAYER
  2
サッシ芯
 70
     0
 62
    17
  6
DASHDOTX2
  0
LAYER
  2
寸法線
 70
     0
 62
    62
  6
CONTINUOUS
  0
LAYER
  2
姿図外形線
 70
     0
 62
    65
  6
CONTINUOUS
  0
LAYER
  2
姿補助線
 70
     0
 62
    30
  6
CONTINUOUS
  0
LAYER
  2
透視線
 70
     0
 62
    78
  6
DOT
  0
LAYER
  2
用紙
 70
     0
 62
    81
  6
CONTINUOUS
  0
LAYER
  2
実線図枠
 70
     0
 62
    94
  6
CONTINUOUS
  0
LAYER
  2
補助図枠
 70
     0
 62
    97
  6
CONTINUOUS
  0
LAYER
  2
建具記号
 70
     0
 62
   110
  6
CONTINUOUS
  0
LAYER
  2
補助文字
 70
     0
 62
   113
  6
CONTINUOUS
  0
ENDTAB
  0
TABLE
  2
STYLE
 70
    10
  0
STYLE
  2
STANDARD
 70
     0
 40
1.0
 41
1.0
 42
1.0
 50
0.0
 71
     0
  3
TXT
  4
BIGFONT
  0
STYLE
  2
TATE
 70
     4
 40
1.0
 41
1.0
 42
1.0
 50
0.0
 71
     0
  3
TXT
  4
BIGFONT
  0
STYLE
  2
TextStyle03
 70
     0
 40
1.0
 41
1.0
 42
1.0
 50
0.0
 71
     0
  3
MONOTXT
  4
BIGFONT
  0
STYLE
  2
TextStyle04
 70
     0
 40
1.0
 41
1.0
 42
1.0
 50
0.0
 71
     0
  3
MONOTXT
  4
BIGFONT
  0
STYLE
  2
TextStyle05
 70
     0
 40
1.0
 41
1.0
 42
1.0
 50
0.0
 71
     0
  3
MONOTXT
  4
BIGFONT
  0
STYLE
  2
TextStyle06
 70
     0
 40
1.0
 41
1.0
 42
1.0
 50
0.0
 71
     0
  3
MONOTXT
  4
BIGFONT
  0
STYLE
  2
TextStyle07
 70
     0
 40
1.0
 41
1.0
 42
1.0
 50
0.0
 71
     0
  3
MONOTXT
  4
BIGFONT
  0
STYLE
  2
TextStyle08
 70
     0
 40
1.0
 41
1.0
 42
1.0
 50
0.0
 71
     0
  3
MONOTXT
  4
BIGFONT
  0
STYLE
  2
TextStyle09
 70
     0
 40
1.0
 41
1.0
 42
1.0
 50
0.0
 71
     0
  3
MONOTXT
  4
BIGFONT
  0
STYLE
  2
TextStyle10
 70
     0
 40
1.0
 41
1.0
 42
1.0
 50
0.0
 71
     0
  3
MONOTXT
  4
BIGFONT
  0
ENDTAB
  0
ENDSEC
  0
SECTION
  2
BLOCKS
  0
BLOCK
  2
*GRP_0001
 70
    65
 10
0.0
 20
0.0
  0
LINE
  8
型材断面
  6
CONTINUOUS
 10
195.0
 20
133.5
 11
195.0
 21
-133.5
  0
LINE
  8
型材断面
  6
CONTINUOUS
 10
195.0
 20
-133.5
 11
-185.0
 21
-133.5
  0
LINE
  8
型材断面
  6
CONTINUOUS
 10
-185.0
 20
-133.5
 11
-185.0
 21
133.5
  0
LINE
  8
型材断面
  6
CONTINUOUS
 10
195.0
 20
133.5
 11
-185.0
 21
133.5
  0
LINE
  8
型材断面
  6
CONTINUOUS
 10
145.0
 20
-133.5
 11
145.0
 21
-118.5
  0
LINE
  8
型材断面
  6
CONTINUOUS
 10
195.0
 20
-118.5
 11
145.0
 21
-118.5
  0
ENDBLK
  0
BLOCK
  2
*DIM_0002
 70
    65
 10
0.0
 20
0.0
  0
LINE
  8
寸法
  6
BYBLOCK
 62
     0
 10
-59.021227
 20
-53.772743
 11
-59.021227
 21
-37.433097
  0
LINE
  8
寸法
  6
BYBLOCK
 62
     0
 10
-48.771223
 20
-53.772743
 11
-48.771223
 21
-37.433097
  0
LINE
  8
寸法
  6
BYBLOCK
 62
     0
 10
-59.021227
 20
-37.433097
 11
-48.771223
 21
-37.433097
  0
POINT
  8
寸法
 62
     0
 10
-59.021227
 20
-37.433097
  0
POINT
  8
寸法
 62
     0
 10
-48.771223
 20
-37.433097
  0
TEXT
  7
TextStyle03
  8
寸法
  6
CONTINUOUS
 62
     0
 10
-56.3875
 20
-37.025
  1
205
 40
3.0
 72
     5
 11
-51.5125
 21
-37.025
  0
ENDBLK
  0
BLOCK
  2
*DIM_0003
 70
    65
 10
0.0
 20
0.0
  0
LINE
  8
寸法
  6
BYBLOCK
 62
     0
 10
-76.396225
 20
-29.093113
 11
-76.396225
 21
-28.260275
  0
LINE
  8
寸法
  6
BYBLOCK
 62
     0
 10
-31.396225
 20
-29.093113
 11
-31.396225
 21
-28.260275
  0
LINE
  8
寸法
  6
BYBLOCK
 62
     0
 10
-76.396225
 20
-28.260275
 11
-31.396225
 21
-28.260275
  0
POINT
  8
寸法
 62
     0
 10
-76.396225
 20
-28.260275
  0
POINT
  8
寸法
 62
     0
 10
-31.396225
 20
-28.260275
  0
TEXT
  7
TextStyle03
  8
寸法
  6
CONTINUOUS
 62
     0
 10
-64.825
 20
-27.9
  1
呼称寸法　900
 40
3.0
 72
     5
 11
-43.075
 21
-27.9
  0
ENDBLK
  0
BLOCK
  2
*DIM_0004
 70
    65
 10
0.0
 20
0.0
  0
LINE
  8
寸法
  6
BYBLOCK
 62
     0
 10
-39.40413
 20
-50.072745
 11
-38.682737
 21
-50.072745
  0
LINE
  8
寸法
  6
BYBLOCK
 62
     0
 10
-47.771223
 20
-55.197743
 11
-38.682737
 21
-55.197743
  0
LINE
  8
寸法
  6
BYBLOCK
 62
     0
 10
-38.682737
 20
-50.072745
 11
-38.682737
 21
-55.197743
  0
POINT
  8
寸法
 62
     0
 10
-38.682737
 20
-50.072745
  0
POINT
  8
寸法
 62
     0
 10
-38.682737
 20
-55.197743
  0
TEXT
  7
TextStyle03
  8
寸法
  6
CONTINUOUS
 62
     0
 10
-35.725
 20
-56.725
  1
102.5
 40
3.0
 50
90.0
 72
     5
 11
-35.725
 21
-48.475
  0
ENDBLK
  0
BLOCK
  2
*DIM_0005
 70
    65
 10
0.0
 20
0.0
  0
LINE
  8
寸法
  6
BYBLOCK
 62
     0
 10
-68.896225
 20
60.820605
 11
-68.896225
 21
78.75962
  0
LINE
  8
寸法
  6
BYBLOCK
 62
     0
 10
-38.896225
 20
60.820605
 11
-38.896225
 21
78.75962
  0
LINE
  8
寸法
  6
BYBLOCK
 62
     0
 10
-68.896225
 20
78.75962
 11
-38.896225
 21
78.75962
  0
POINT
  8
寸法
 62
     0
 10
-68.896225
 20
78.75962
  0
POINT
  8
寸法
 62
     0
 10
-38.896225
 20
78.75962
  0
TEXT
  7
TextStyle03
  8
寸法
  6
CONTINUOUS
 62
     0
 10
-56.3375
 20
79.125
  1
600
 40
3.0
 72
     5
 11
-51.4625
 21
79.125
  0
ENDBLK
  0
BLOCK
  2
*DIM_0006
 70
    65
 10
0.0
 20
0.0
  0
LINE
  8
寸法
  6
BYBLOCK
 62
     0
 10
-77.396225
 20
59.820605
 11
-100.304468
 21
59.820605
  0
LINE
  8
寸法
  6
BYBLOCK
 62
     0
 10
-77.396225
 20
37.320605
 11
-100.304468
 21
37.320605
  0
LINE
  8
寸法
  6
BYBLOCK
 62
     0
 10
-100.304468
 20
59.820605
 11
-100.304468
 21
37.320605
  0
POINT
  8
寸法
 62
     0
 10
-100.304468
 20
59.820605
  0
POINT
  8
寸法
 62
     0
 10
-100.304468
 20
37.320605
  0
TEXT
  7
TextStyle03
  8
寸法
  6
CONTINUOUS
 62
     0
 10
-100.675
 20
46.1125
  1
450
 40
3.0
 50
90.0
 72
     5
 11
-100.675
 21
50.9875
  0
ENDBLK
  0
BLOCK
  2
*DIM_0007
 70
    65
 10
0.0
 20
0.0
  0
LINE
  8
寸法
  6
BYBLOCK
 62
     0
 10
-77.396225
 20
14.820605
 11
-100.304468
 21
14.820605
  0
LINE
  8
寸法
  6
BYBLOCK
 62
     0
 10
-100.304468
 20
37.320605
 11
-100.304468
 21
14.820605
  0
POINT
  8
寸法
 62
     0
 10
-100.304468
 20
14.820605
  0
TEXT
  7
TextStyle03
  8
寸法
  6
CONTINUOUS
 62
     0
 10
-100.675
 20
23.6125
  1
450
 40
3.0
 50
90.0
 72
     5
 11
-100.675
 21
28.4875
  0
ENDBLK
  0
BLOCK
  2
*DIM_0008
 70
    65
 10
0.0
 20
0.0
  0
LINE
  8
寸法
  6
CONTINUOUS
 10
-81.943052
 20
-73.296347
 11
-81.943052
 21
-28.260275
  0
LINE
  8
寸法
  6
CONTINUOUS
 10
-76.396225
 20
-28.260275
 11
-81.943052
 21
-28.260275
  0
POINT
  8
寸法
 10
-76.396225
 20
-28.260275
  0
POINT
  8
寸法
 10
-81.943052
 20
-28.260275
  0
TEXT
  7
TextStyle03
  8
寸法
  6
CONTINUOUS
 10
-84.675
 20
-27.9
  1
110.9
 40
4.0
 72
     5
 11
-73.675
 21
-27.9
  0
ENDBLK
  0
BLOCK
  2
*DIM_0009
 70
    65
 10
0.0
 20
0.0
  0
LINE
  8
寸法
  6
CONTINUOUS
 10
-25.849398
 20
-73.296347
 11
-25.849398
 21
-28.260275
  0
LINE
  8
寸法
  6
CONTINUOUS
 10
-31.396225
 20
-28.260275
 11
-25.849398
 21
-28.260275
  0
POINT
  8
寸法
 10
-31.396225
 20
-28.260275
  0
POINT
  8
寸法
 10
-25.849398
 20
-28.260275
  0
TEXT
  7
TextStyle03
  8
寸法
  6
CONTINUOUS
 10
-34.125
 20
-27.9
  1
110.9
 40
4.0
 72
     5
 11
-23.125
 21
-27.9
  0
ENDBLK
  0
BLOCK
  2
*DIM_0010
 70
    65
 10
0.0
 20
0.0
  0
LINE
  8
寸法
  6
CONTINUOUS
 10
-21.5994
 20
-80.246298
 11
-15.437417
 21
-80.246298
  0
LINE
  8
寸法
  6
CONTINUOUS
 10
-20.849398
 20
-78.296347
 11
-15.437417
 21
-78.296347
  0
LINE
  8
寸法
  6
CONTINUOUS
 10
-15.437417
 20
-80.246298
 11
-15.437417
 21
-78.296347
  0
POINT
  8
寸法
 10
-15.437417
 20
-80.246298
  0
POINT
  8
寸法
 10
-15.437417
 20
-78.296347
  0
TEXT
  7
TextStyle03
  8
寸法
  6
CONTINUOUS
 10
-11.325
 20
-81.4
  1
39
 40
4.0
 50
90.0
 72
     5
 11
-11.325
 21
-77.15
  0
ENDBLK
  0
BLOCK
  2
*DIM_0011
 70
    65
 10
0.0
 20
0.0
  0
LINE
  8
寸法
  6
CONTINUOUS
 10
-48.896225
 20
-50.072745
 11
-15.437417
 21
-50.072745
  0
LINE
  8
寸法
  6
CONTINUOUS
 10
-15.437417
 20
-78.296347
 11
-15.437417
 21
-50.072745
  0
POINT
  8
寸法
 10
-15.437417
 20
-50.072745
  0
TEXT
  7
TextStyle03
  8
寸法
  6
CONTINUOUS
 10
-15.825
 20
-69.7
  1
564.5
 40
4.0
 50
90.0
 72
     5
 11
-15.825
 21
-58.7
  0
ENDBLK
  0
BLOCK
  2
*DIM_0012
 70
    65
 10
0.0
 20
0.0
  0
LINE
  8
寸法
  6
BYBLOCK
 62
     0
 10
156.321662
 20
-83.644795
 11
163.512345
 21
-83.644795
  0
LINE
  8
寸法
  6
BYBLOCK
 62
     0
 10
131.777182
 20
-48.933658
 11
163.512345
 21
-48.933658
  0
LINE
  8
寸法
  6
BYBLOCK
 62
     0
 10
163.512345
 20
-83.644795
 11
163.512345
 21
-48.933658
  0
POINT
  8
寸法
 62
     0
 10
163.512345
 20
-83.644795
  0
POINT
  8
寸法
 62
     0
 10
163.512345
 20
-48.933658
  0
TEXT
  7
TextStyle03
  8
寸法
  6
CONTINUOUS
 62
     0
 10
163.125
 20
-70.45
  1
694.2
 40
3.0
 50
90.0
 72
     5
 11
163.125
 21
-62.2
  0
ENDBLK
  0
BLOCK
  2
*DIM_0013
 70
    65
 10
0.0
 20
0.0
  0
LINE
  8
寸法
  6
BYBLOCK
 62
     0
 10
104.232703
 20
-86.644795
 11
104.232703
 21
-94.988705
  0
LINE
  8
寸法
  6
BYBLOCK
 62
     0
 10
153.321662
 20
-86.644795
 11
153.321662
 21
-94.988705
  0
LINE
  8
寸法
  6
BYBLOCK
 62
     0
 10
104.232703
 20
-94.988705
 11
153.321662
 21
-94.988705
  0
POINT
  8
寸法
 62
     0
 10
104.232703
 20
-94.988705
  0
POINT
  8
寸法
 62
     0
 10
153.321662
 20
-94.988705
  0
TEXT
  7
TextStyle03
  8
寸法
  6
CONTINUOUS
 62
     0
 10
124.65
 20
-94.65
  1
981.8
 40
3.0
 72
     5
 11
132.9
 21
-94.65
  0
ENDBLK
  0
ENDSEC
  0
SECTION
  2
ENTITIES
  0
POLYLINE
  8
通り芯
  6
CONTINUOUS
 66
     1
 70
     1
  0
VERTEX
  8
通り芯
 10
-210.0
 20
-148.5
  0
VERTEX
  8
通り芯
 10
210.0
 20
-148.5
  0
VERTEX
  8
通り芯
 10
210.0
 20
148.5
  0
VERTEX
  8
通り芯
 10
-210.0
 20
148.5
  0
SEQEND
  0
INSERT
  2
*GRP_0001
  8
型材断面
  6
CONTINUOUS
 10
0.0
 20
0.0
  0
LINE
  8
型材断面
  6
DASHDOT
 10
-76.396225
 20
-88.694647
 11
-76.396225
 21
59.820605
  0
LINE
  8
型材断面
  6
DASHDOT
 10
-53.896225
 20
-88.694647
 11
-53.896225
 21
59.820605
  0
LINE
  8
型材断面
  6
DASHDOT
 10
-31.396225
 20
-88.694647
 11
-31.396225
 21
59.820605
  0
LINE
  8
型材断面
  6
DASHDOT
 10
-76.396225
 20
14.820605
 11
-31.396225
 21
14.820605
  0
LINE
  8
型材断面
  6
DASHDOT
 10
-76.396225
 20
37.320605
 11
-31.396225
 21
37.320605
  0
LINE
  8
型材断面
  6
DASHDOT
 10
-76.396225
 20
59.820605
 11
-31.396225
 21
59.820605
  0
LINE
  8
型材断面
  6
CONTINUOUS
 10
1.06332
 20
13.941685
 11
-1.180125
 21
10.055925
  0
LINE
  8
型材断面
  6
CONTINUOUS
 10
1.06332
 20
13.941685
 11
3.306765
 21
10.055925
  0
LINE
  8
型材断面
  6
CONTINUOUS
 10
3.306765
 20
10.055925
 11
-1.180125
 21
10.055925
  0
LINE
  8
型材断面
  6
CONTINUOUS
 10
-7.97056
 20
8.648033
 11
44.68612
 21
8.648033
  0
LINE
  8
型材断面
  6
CONTINUOUS
 10
-53.896225
 20
67.84448
 11
-56.13967
 21
71.73024
  0
LINE
  8
型材断面
  6
CONTINUOUS
 10
-53.896225
 20
67.84448
 11
-51.65278
 21
71.73024
  0
LINE
  8
型材断面
  6
CONTINUOUS
 10
-51.65278
 20
71.73024
 11
-56.13967
 21
71.73024
  0
LINE
  8
型材断面
  6
CONTINUOUS
 10
-53.896225
 20
6.79673
 11
-56.13967
 21
2.91097
  0
LINE
  8
型材断面
  6
CONTINUOUS
 10
-53.896225
 20
6.79673
 11
-51.65278
 21
2.91097
  0
LINE
  8
型材断面
  6
CONTINUOUS
 10
-51.65278
 20
2.91097
 11
-56.13967
 21
2.91097
  0
LINE
  8
型材断面
  6
CONTINUOUS
 10
-23.37235
 20
37.320605
 11
-19.48659
 21
39.56405
  0
LINE
  8
型材断面
  6
CONTINUOUS
 10
-23.37235
 20
37.320605
 11
-19.48659
 21
35.07716
  0
LINE
  8
型材断面
  6
CONTINUOUS
 10
-19.48659
 20
35.07716
 11
-19.48659
 21
39.56405
  0
LINE
  8
型材断面
  6
CONTINUOUS
 10
-84.4201
 20
37.320605
 11
-88.30586
 21
39.56405
  0
LINE
  8
型材断面
  6
CONTINUOUS
 10
-84.4201
 20
37.320605
 11
-88.30586
 21
35.07716
  0
LINE
  8
型材断面
  6
CONTINUOUS
 10
-88.30586
 20
35.07716
 11
-88.30586
 21
39.56405
  0
LINE
  8
型材断面
  6
CONTINUOUS
 10
-7.97056
 20
1.640922
 11
44.68612
 21
1.640922
  0
LINE
  8
型材断面
  6
CONTINUOUS
 10
-59.021225
 20
-55.197747
 11
-53.896225
 21
-55.197747
  0
LINE
  8
型材断面
  6
CONTINUOUS
 10
-59.021225
 20
-55.197747
 11
-58.950515
 21
-55.268458
  0
LINE
  8
型材断面
  6
CONTINUOUS
 10
-53.896225
 20
-55.268458
 11
-58.950515
 21
-55.268458
  0
LINE
  8
型材断面
  6
CONTINUOUS
 10
-59.021225
 20
-55.197747
 11
-53.896225
 21
-50.072745
  0
LINE
  8
型材断面
  6
CONTINUOUS
 10
-48.771225
 20
-55.197747
 11
-53.896225
 21
-55.197747
  0
LINE
  8
型材断面
  6
CONTINUOUS
 10
-48.771225
 20
-55.197747
 11
-48.841935
 21
-55.268458
  0
LINE
  8
型材断面
  6
CONTINUOUS
 10
-53.896225
 20
-55.268458
 11
-48.841935
 21
-55.268458
  0
LINE
  8
型材断面
  6
CONTINUOUS
 10
-48.771225
 20
-55.197747
 11
-53.896225
 21
-50.072745
  0
LINE
  8
型材断面
  6
CONTINUOUS
 10
-59.021225
 20
37.320605
 11
-59.021225
 21
32.195605
  0
LINE
  8
型材断面
  6
CONTINUOUS
 10
-53.896225
 20
32.195605
 11
-59.021225
 21
32.195605
  0
LINE
  8
型材断面
  6
CONTINUOUS
 10
-81.771225
 20
9.445605
 11
-81.771225
 21
37.320605
  0
LINE
  8
型材断面
  6
CONTINUOUS
 10
-81.771225
 20
9.445605
 11
-53.896225
 21
9.445605
  0
LINE
  8
型材断面
  6
CONTINUOUS
 10
-48.771225
 20
37.320605
 11
-48.771225
 21
32.195605
  0
LINE
  8
型材断面
  6
CONTINUOUS
 10
-53.896225
 20
32.195605
 11
-48.771225
 21
32.195605
  0
LINE
  8
型材断面
  6
CONTINUOUS
 10
-26.021225
 20
9.445605
 11
-26.021225
 21
37.320605
  0
LINE
  8
型材断面
  6
CONTINUOUS
 10
-26.021225
 20
9.445605
 11
-53.896225
 21
9.445605
  0
LINE
  8
型材断面
  6
CONTINUOUS
 10
-48.771225
 20
37.320605
 11
-48.771225
 21
42.445605
  0
LINE
  8
型材断面
  6
CONTINUOUS
 10
-53.896225
 20
42.445605
 11
-48.771225
 21
42.445605
  0
LINE
  8
型材断面
  6
CONTINUOUS
 10
-26.021225
 20
65.195605
 11
-26.021225
 21
37.320605
  0
LINE
  8
型材断面
  6
CONTINUOUS
 10
-26.021225
 20
65.195605
 11
-53.896225
 21
65.195605
  0
LINE
  8
型材断面
  6
CONTINUOUS
 10
-59.021225
 20
37.320605
 11
-59.021225
 21
42.445605
  0
LINE
  8
型材断面
  6
CONTINUOUS
 10
-53.896225
 20
42.445605
 11
-59.021225
 21
42.445605
  0
LINE
  8
型材断面
  6
CONTINUOUS
 10
-81.771225
 20
65.195605
 11
-81.771225
 21
37.320605
  0
LINE
  8
型材断面
  6
CONTINUOUS
 10
-81.771225
 20
65.195605
 11
-53.896225
 21
65.195605
  0
LINE
  8
型材断面
  6
CONTINUOUS
 10
87.221655
 20
-47.717545
 11
111.153277
 21
-47.717545
  0
LINE
  8
型材断面
  6
CONTINUOUS
 62
    47
 10
-81.19305
 20
-80.246298
 11
-81.19305
 21
-79.5013
  0
LINE
  8
型材断面
  6
CONTINUOUS
 62
    47
 10
-80.44305
 20
-80.996298
 11
-80.44305
 21
-80.246298
  0
LINE
  8
型材断面
  6
CONTINUOUS
 62
    47
 10
-81.19305
 20
-79.5013
 11
-80.965578
 21
-79.273827
  0
LINE
  8
型材断面
  6
CONTINUOUS
 62
    47
 10
-80.965578
 20
-79.273827
 11
-81.943052
 21
-78.296347
  0
LINE
  8
型材断面
  6
CONTINUOUS
 62
    47
 10
-53.896225
 20
-50.24952
 11
-81.942878
 21
-78.296173
  0
LINE
  8
型材断面
  6
CONTINUOUS
 10
-81.19305
 20
-79.5013
 11
-53.896225
 21
-79.5013
  0
LINE
  8
型材断面
  6
CONTINUOUS
 62
    47
 10
-81.19305
 20
-80.246298
 11
-53.896225
 21
-80.246298
  0
LINE
  8
型材断面
  6
CONTINUOUS
 62
    47
 10
-80.44305
 20
-80.996298
 11
-53.896225
 21
-80.996298
  0
LINE
  8
型材断面
  6
CONTINUOUS
 10
-80.965578
 20
-79.273827
 11
-53.896225
 21
-79.273827
  0
LINE
  8
型材断面
  6
CONTINUOUS
 10
-81.94292
 20
-78.296173
 11
-53.896225
 21
-78.296173
  0
LINE
  8
型材断面
  6
CONTINUOUS
 62
    47
 10
-26.5994
 20
-80.246298
 11
-26.5994
 21
-79.5013
  0
LINE
  8
型材断面
  6
CONTINUOUS
 62
    47
 10
-27.3494
 20
-80.996298
 11
-27.3494
 21
-80.246298
  0
LINE
  8
型材断面
  6
CONTINUOUS
 62
    47
 10
-26.5994
 20
-79.5013
 11
-26.826872
 21
-79.273827
  0
LINE
  8
型材断面
  6
CONTINUOUS
 62
    47
 10
-26.826872
 20
-79.273827
 11
-25.849398
 21
-78.296347
  0
LINE
  8
型材断面
  6
CONTINUOUS
 10
-26.5994
 20
-79.5013
 11
-53.896225
 21
-79.5013
  0
LINE
  8
型材断面
  6
CONTINUOUS
 62
    47
 10
-26.5994
 20
-80.246298
 11
-53.896225
 21
-80.246298
  0
LINE
  8
型材断面
  6
CONTINUOUS
 62
    47
 10
-27.3494
 20
-80.996298
 11
-53.896225
 21
-80.996298
  0
LINE
  8
型材断面
  6
CONTINUOUS
 10
-26.826872
 20
-79.273827
 11
-53.896225
 21
-79.273827
  0
LINE
  8
型材断面
  6
CONTINUOUS
 10
-25.84953
 20
-78.296173
 11
-53.896225
 21
-78.296173
  0
LINE
  8
型材断面
  6
CONTINUOUS
 62
    47
 10
-53.896225
 20
-50.24952
 11
-25.849572
 21
-78.296173
  0
LINE
  8
型材断面
  6
CONTINUOUS
 10
-31.5264
 20
-76.29359
 11
-27.852155
 21
-76.29359
  0
LINE
  8
型材断面
  6
CONTINUOUS
 10
-52.551533
 20
-55.268458
 11
-31.0264
 21
-76.79359
  0
LINE
  8
型材断面
  6
CONTINUOUS
 10
-53.896225
 20
-76.79359
 11
-80.440295
 21
-76.79359
  0
LINE
  8
型材断面
  6
CONTINUOUS
 10
-27.852155
 20
14.924835
 11
-27.852155
 21
11.276535
  0
LINE
  8
型材断面
  6
CONTINUOUS
 10
-27.852155
 20
11.276535
 11
-31.50045
 21
11.276535
  0
LINE
  8
型材断面
  6
CONTINUOUS
 10
-27.852155
 20
11.276535
 11
-53.896225
 21
37.320605
  0
LINE
  8
型材断面
  6
CONTINUOUS
 10
-55.240917
 20
-55.268458
 11
-76.26605
 21
-76.29359
  0
LINE
  8
型材断面
  6
CONTINUOUS
 10
-76.26605
 20
-76.29359
 11
-79.940295
 21
-76.29359
  0
LINE
  8
型材断面
  6
CONTINUOUS
 10
-53.896225
 20
37.320605
 11
-27.852155
 21
63.364675
  0
LINE
  8
型材断面
  6
CONTINUOUS
 10
-48.771225
 20
38.797305
 11
-27.438945
 21
60.129585
  0
LINE
  8
型材断面
  6
CONTINUOUS
 10
-52.41952
 20
42.445605
 11
-31.08724
 21
63.777885
  0
LINE
  8
型材断面
  6
CONTINUOUS
 10
-55.37293
 20
42.445605
 11
-76.70521
 21
63.777885
  0
LINE
  8
型材断面
  6
CONTINUOUS
 10
-59.021225
 20
38.797305
 11
-80.353505
 21
60.129585
  0
LINE
  8
型材断面
  6
CONTINUOUS
 10
-55.37293
 20
32.195605
 11
-76.70521
 21
10.863325
  0
LINE
  8
型材断面
  6
CONTINUOUS
 10
-59.021225
 20
35.843905
 11
-80.353505
 21
14.511625
  0
LINE
  8
型材断面
  6
CONTINUOUS
 10
-53.896225
 20
37.320605
 11
-79.940295
 21
11.276535
  0
LINE
  8
型材断面
  6
CONTINUOUS
 10
-53.896225
 20
-76.79359
 11
-27.352155
 21
-76.79359
  0
LINE
  8
型材断面
  6
CONTINUOUS
 10
-27.352155
 20
10.776535
 11
-27.352155
 21
37.320605
  0
LINE
  8
型材断面
  6
CONTINUOUS
 10
-27.352155
 20
10.776535
 11
-53.896225
 21
10.776535
  0
LINE
  8
型材断面
  6
CONTINUOUS
 10
-52.41952
 20
32.195605
 11
-31.00045
 21
10.776535
  0
LINE
  8
型材断面
  6
CONTINUOUS
 10
-26.021225
 20
9.445605
 11
-27.352155
 21
10.776535
  0
LINE
  8
型材断面
  6
CONTINUOUS
 10
-48.771225
 20
35.843905
 11
-27.352155
 21
14.424835
  0
LINE
  8
型材断面
  6
CONTINUOUS
 10
-27.852155
 20
59.716375
 11
-27.852155
 21
63.364675
  0
LINE
  8
型材断面
  6
CONTINUOUS
 10
-27.852155
 20
63.364675
 11
-31.50045
 21
63.364675
  0
LINE
  8
型材断面
  6
CONTINUOUS
 10
-27.352155
 20
63.864675
 11
-27.352155
 21
37.320605
  0
LINE
  8
型材断面
  6
CONTINUOUS
 10
-27.352155
 20
63.864675
 11
-53.896225
 21
63.864675
  0
LINE
  8
型材断面
  6
CONTINUOUS
 10
-26.021225
 20
65.195605
 11
-27.352155
 21
63.864675
  0
LINE
  8
型材断面
  6
CONTINUOUS
 10
-79.940295
 20
59.716375
 11
-79.940295
 21
63.364675
  0
LINE
  8
型材断面
  6
CONTINUOUS
 10
-79.940295
 20
63.364675
 11
-76.292
 21
63.364675
  0
LINE
  8
型材断面
  6
CONTINUOUS
 10
-80.440295
 20
63.864675
 11
-80.440295
 21
37.320605
  0
LINE
  8
型材断面
  6
CONTINUOUS
 10
-80.440295
 20
63.864675
 11
-53.896225
 21
63.864675
  0
LINE
  8
型材断面
  6
CONTINUOUS
 10
-81.771225
 20
65.195605
 11
-80.440295
 21
63.864675
  0
LINE
  8
型材断面
  6
CONTINUOUS
 10
-79.940295
 20
14.924835
 11
-79.940295
 21
11.276535
  0
LINE
  8
型材断面
  6
CONTINUOUS
 10
-79.940295
 20
11.276535
 11
-76.292
 21
11.276535
  0
LINE
  8
型材断面
  6
CONTINUOUS
 10
-80.440295
 20
10.776535
 11
-80.440295
 21
37.320605
  0
LINE
  8
型材断面
  6
CONTINUOUS
 10
-80.440295
 20
10.776535
 11
-53.896225
 21
10.776535
  0
LINE
  8
型材断面
  6
CONTINUOUS
 10
-81.771225
 20
9.445605
 11
-80.440295
 21
10.776535
  0
LINE
  8
型材断面
  6
CONTINUOUS
 10
-53.896225
 20
37.320605
 11
-79.940295
 21
63.364675
  0
LINE
  8
ガラス
  6
CONTINUOUS
 10
-51.92091
 20
-64.815005
 11
-55.793545
 21
-68.68764
  0
LINE
  8
ガラス
  6
CONTINUOUS
 10
-52.801232
 20
-66.413363
 11
-54.195187
 21
-67.807318
  0
LINE
  8
ガラス
  6
CONTINUOUS
 10
-53.519268
 20
-65.695327
 11
-54.913223
 21
-67.089282
  0
LINE
  8
ガラス
  6
CONTINUOUS
 10
-51.898957
 20
23.834473
 11
-55.771593
 21
19.961838
  0
LINE
  8
ガラス
  6
CONTINUOUS
 10
-52.77928
 20
22.236115
 11
-54.173235
 21
20.84216
  0
LINE
  8
ガラス
  6
CONTINUOUS
 10
-53.497315
 20
22.95415
 11
-54.89127
 21
21.560195
  0
LINE
  8
ガラス
  6
CONTINUOUS
 10
-35.842882
 20
39.246277
 11
-39.715517
 21
35.373642
  0
LINE
  8
ガラス
  6
CONTINUOUS
 10
-36.723205
 20
37.64792
 11
-38.11716
 21
36.253965
  0
LINE
  8
ガラス
  6
CONTINUOUS
 10
-37.44124
 20
38.365955
 11
-38.835195
 21
36.972
  0
LINE
  8
ガラス
  6
CONTINUOUS
 10
-68.08698
 20
39.246277
 11
-71.959615
 21
35.373642
  0
LINE
  8
ガラス
  6
CONTINUOUS
 10
-68.967303
 20
37.64792
 11
-70.361258
 21
36.253965
  0
LINE
  8
ガラス
  6
CONTINUOUS
 10
-69.685337
 20
38.365955
 11
-71.079292
 21
36.972
  0
LINE
  8
ガラス
  6
CONTINUOUS
 10
-51.898957
 20
56.008258
 11
-55.771593
 21
52.135622
  0
LINE
  8
ガラス
  6
CONTINUOUS
 10
-52.77928
 20
54.4099
 11
-54.173235
 21
53.015945
  0
LINE
  8
ガラス
  6
CONTINUOUS
 10
-53.497315
 20
55.127935
 11
-54.89127
 21
53.73398
  0
TEXT
  7
TextStyle03
  8
文字
  6
CONTINUOUS
 10
5.35
 20
10.375
  1
は排水穴位置を示す
 40
3.0
 72
     5
 11
35.35
 21
10.375
  0
TEXT
  7
TextStyle03
  8
文字
  6
CONTINUOUS
 10
-82.775
 20
83.025
  1
アンカーピッチ
 40
3.0
 72
     5
 11
-59.525
 21
83.025
  0
TEXT
  7
TextStyle03
  8
文字
  6
CONTINUOUS
 10
-106.425
 20
4.925
  1
アンカーピッチ
 40
3.0
 50
90.0
 72
     5
 11
-106.425
 21
28.175
  0
TEXT
  7
TextStyle03
  8
文字
  6
CONTINUOUS
 10
-0.25
 20
3.025
  1
アンカー数量　６ヶ所
 40
3.0
 72
     5
 11
33.125
 21
3.025
  0
TEXT
  7
TextStyle03
  8
文字
  6
CONTINUOUS
 10
69.35
 20
98.775
  1
ＮＳコード：ＮＳ４ＣＫＺ
 40
5.0
 72
     5
 11
136.225
 21
98.775
  0
TEXT
  7
TextStyle03
  8
文字
  6
CONTINUOUS
 10
90.825
 20
-46.525
  1
ガラス寸法
 40
3.0
 72
     5
 11
107.325
 21
-46.525
  0
TEXT
  7
TextStyle03
  8
文字
  6
CONTINUOUS
 10
137.925
 20
-82.175
  1
×４枚
 40
3.0
 72
     5
 11
147.675
 21
-82.175
  0
TEXT
  7
TextStyle03
  8
文字
  6
CONTINUOUS
 10
69.6
 20
119.575
  1
シリーズ：ＴＦ２４Ｋ
 40
5.0
 72
     5
 11
125.225
 21
119.575
  0
TEXT
  7
TextStyle03
  8
文字
  6
CONTINUOUS
 10
69.6
 20
113.95
  1
　　　　　四角錘（固定）900×900タイプ
 40
5.0
 72
     5
 11
175.85
 21
113.95
  0
TEXT
  7
TextStyle03
  8
文字
  6
CONTINUOUS
 10
69.6
 20
108.325
  1
図面名　：外観姿図
 40
5.0
 72
     5
 11
119.6
 21
108.325
  0
TEXT
  7
TextStyle03
  8
文字
  6
CONTINUOUS
 10
69.6
 20
102.7
  1
　　　　　　
 40
5.0
 72
     5
 11
102.725
 21
102.7
  0
INSERT
  2
*DIM_0002
  8
寸法
  6
CONTINUOUS
 10
0.0
 20
0.0
  0
INSERT
  2
*DIM_0003
  8
寸法
  6
CONTINUOUS
 10
0.0
 20
0.0
  0
INSERT
  2
*DIM_0004
  8
寸法
  6
CONTINUOUS
 10
0.0
 20
0.0
  0
INSERT
  2
*DIM_0005
  8
寸法
  6
CONTINUOUS
 10
0.0
 20
0.0
  0
INSERT
  2
*DIM_0006
  8
寸法
  6
CONTINUOUS
 10
0.0
 20
0.0
  0
INSERT
  2
*DIM_0007
  8
寸法
  6
CONTINUOUS
 10
0.0
 20
0.0
  0
CIRCLE
  8
寸法
  6
CONTINUOUS
 10
-95.414582
 20
37.320605
 40
1.73792
  0
INSERT
  2
*DIM_0008
  8
寸法
  6
CONTINUOUS
 10
0.0
 20
0.0
  0
INSERT
  2
*DIM_0009
  8
寸法
  6
CONTINUOUS
 10
0.0
 20
0.0
  0
INSERT
  2
*DIM_0010
  8
寸法
  6
CONTINUOUS
 10
0.0
 20
0.0
  0
INSERT
  2
*DIM_0011
  8
寸法
  6
CONTINUOUS
 10
0.0
 20
0.0
  0
INSERT
  2
*DIM_0012
  8
寸法
  6
CONTINUOUS
 10
0.0
 20
0.0
  0
INSERT
  2
*DIM_0013
  8
寸法
  6
CONTINUOUS
 10
0.0
 20
0.0
  0
LINE
  8
曲げ物
  6
CONTINUOUS
 10
104.232703
 20
-83.644795
 11
128.777182
 21
-48.933658
  0
LINE
  8
曲げ物
  6
CONTINUOUS
 10
104.232703
 20
-83.644795
 11
153.321662
 21
-83.644795
  0
LINE
  8
曲げ物
  6
CONTINUOUS
 10
128.777182
 20
-48.933658
 11
153.321662
 21
-83.644795
  0
ENDSEC
  0
EOF
