  0
SECTION
  2
HEADER
  9
$EXTMIN
 10
-210.0
 20
-148.5
  9
$EXTMAX
 10
210.0
 20
148.5
  9
$PDMODE
 70
    32
  9
$PDSIZE
 40
0.3
  9
$LTSCALE
 40
10.0
  0
ENDSEC
  0
SECTION
  2
TABLES
  0
TABLE
  2
LTYPE
 70
    15
  0
LTYPE
  2
CONTINUOUS
 70
    64
  3
実線
 72
    65
 73
     0
 40
0.0
  0
LTYPE
  2
DASHED
 70
    64
  3
破線A
 72
    65
 73
     2
 40
0.6
 49
0.4
 49
-0.2
  0
LTYPE
  2
DASHEDX2
 70
    64
  3
破線B
 72
    65
 73
     2
 40
1.3
 49
0.9
 49
-0.4
  0
LTYPE
  2
DASHDOT
 70
    64
  3
１点鎖線A
 72
    65
 73
     4
 40
0.5375
 49
0.375
 49
-0.05
 49
0.0625
 49
-0.05
  0
LTYPE
  2
DASHDOTX2
 70
    64
  3
１点鎖線B
 72
    65
 73
     4
 40
1.075
 49
0.75
 49
-0.1
 49
0.125
 49
-0.1
  0
LTYPE
  2
DIVIDE2
 70
    64
  3
２点鎖線A
 72
    65
 73
     6
 40
0.5125
 49
0.3
 49
-0.0375
 49
0.05
 49
-0.0375
 49
0.05
 49
-0.0375
  0
LTYPE
  2
DIVIDE
 70
    64
  3
２点鎖線B
 72
    65
 73
     6
 40
1.05
 49
0.55
 49
-0.1
 49
0.1
 49
-0.1
 49
0.1
 49
-0.1
  0
LTYPE
  2
DOT
 70
    64
  3
点線A
 72
    65
 73
     2
 40
0.1125
 49
0.0625
 49
-0.05
  0
LTYPE
  2
DOTX2
 70
    64
  3
点線B
 72
    65
 73
     2
 40
0.275
 49
0.15
 49
-0.125
  0
LTYPE
  2
CONTINUOUS
 70
    64
  3
実線
 72
    65
 73
     0
 40
0.0
  0
LTYPE
  2
CONTINUOUS
 70
    64
  3
実線
 72
    65
 73
     0
 40
0.0
  0
LTYPE
  2
CONTINUOUS
 70
    64
  3
実線
 72
    65
 73
     0
 40
0.0
  0
LTYPE
  2
CONTINUOUS
 70
    64
  3
実線
 72
    65
 73
     0
 40
0.0
  0
LTYPE
  2
CONTINUOUS
 70
    64
  3
実線
 72
    65
 73
     0
 40
0.0
  0
LTYPE
  2
CONTINUOUS
 70
    64
  3
実線
 72
    65
 73
     0
 40
0.0
  0
ENDTAB
  0
TABLE
  2
LAYER
 70
    48
  0
LAYER
  2
通り芯
 70
     0
 62
    15
  6
CONTINUOUS
  0
LAYER
  2
補助線
 70
     0
 62
    16
  6
DOT
  0
LAYER
  2
躯体
 70
     0
 62
    31
  6
CONTINUOUS
  0
LAYER
  2
型材
 70
     0
 62
    32
  6
CONTINUOUS
  0
LAYER
  2
型材断面
 70
     0
 62
    47
  6
CONTINUOUS
  0
LAYER
  2
ガラス
 70
     0
 62
    48
  6
CONTINUOUS
  0
LAYER
  2
ゴム等
 70
     0
 62
    63
  6
CONTINUOUS
  0
LAYER
  2
ボルト／ビス
 70
     0
 62
    64
  6
CONTINUOUS
  0
LAYER
  2
文字
 70
     0
 62
    79
  6
CONTINUOUS
  0
LAYER
  2
寸法
 70
     0
 62
    80
  6
CONTINUOUS
  0
LAYER
  2
ﾊｯﾁﾝｸﾞ
 70
     0
 62
    95
  6
CONTINUOUS
  0
LAYER
  2
別途部材
 70
     0
 62
    96
  6
CONTINUOUS
  0
LAYER
  2
曲げ物
 70
     0
 62
   111
  6
CONTINUOUS
  0
LAYER
  2
鉄骨等
 70
     0
 62
   112
  6
CONTINUOUS
  0
LAYER
  2
St
 70
     0
 62
   127
  6
CONTINUOUS
  0
LAYER
  2
その他部品等
 70
     0
 62
   128
  6
CONTINUOUS
  0
LAYER
  2
ｶﾞｽｹｯﾄ
 70
     0
 62
   143
  6
CONTINUOUS
  0
LAYER
  2
ｽｹｯﾁ
 70
     0
 62
    14
  6
CONTINUOUS
  0
LAYER
  2
0
 70
     0
 62
    17
  6
CONTINUOUS
  0
LAYER
  2
1
 70
     0
 62
    30
  6
CONTINUOUS
  0
LAYER
  2
4
 70
     0
 62
    33
  6
CONTINUOUS
  0
LAYER
  2
ﾚｲﾔ3
 70
     0
 62
    46
  6
CONTINUOUS
  0
LAYER
  2
外形線
 70
     0
 62
    49
  6
CONTINUOUS
  0
LAYER
  2
部品
 70
     0
 62
    14
  6
CONTINUOUS
  0
LAYER
  2
サッシ芯
 70
     0
 62
    17
  6
DASHDOTX2
  0
LAYER
  2
寸法線
 70
     0
 62
    62
  6
CONTINUOUS
  0
LAYER
  2
姿図外形線
 70
     0
 62
    65
  6
CONTINUOUS
  0
LAYER
  2
姿補助線
 70
     0
 62
    30
  6
CONTINUOUS
  0
LAYER
  2
透視線
 70
     0
 62
    78
  6
DOT
  0
LAYER
  2
用紙
 70
     0
 62
    81
  6
CONTINUOUS
  0
LAYER
  2
実線図枠
 70
     0
 62
    94
  6
CONTINUOUS
  0
LAYER
  2
補助図枠
 70
     0
 62
    97
  6
CONTINUOUS
  0
LAYER
  2
建具記号
 70
     0
 62
   110
  6
CONTINUOUS
  0
LAYER
  2
補助文字
 70
     0
 62
   113
  6
CONTINUOUS
  0
LAYER
  2
LAYER001
 70
     0
 62
     7
  6
CONTINUOUS
  0
LAYER
  2
LAYER010
 70
     0
 62
    11
  6
CONTINUOUS
  0
LAYER
  2
LAYER011
 70
     0
 62
    12
  6
CONTINUOUS
  0
LAYER
  2
LAYER013
 70
     0
 62
    14
  6
CONTINUOUS
  0
LAYER
  2
LAYER026
 70
     0
 62
    11
  6
CONTINUOUS
  0
LAYER
  2
01
 70
     0
 62
     1
  6
CONTINUOUS
  0
LAYER
  2
03
 70
     0
 62
     3
  6
CONTINUOUS
  0
LAYER
  2
断面線01
 70
     0
 62
     1
  6
CONTINUOUS
  0
LAYER
  2
断面線02
 70
     0
 62
     2
  6
CONTINUOUS
  0
LAYER
  2
断面線03
 70
     0
 62
     3
  6
CONTINUOUS
  0
LAYER
  2
断面線04
 70
     0
 62
     4
  6
CONTINUOUS
  0
LAYER
  2
断面線08
 70
     0
 62
    14
  6
CONTINUOUS
  0
LAYER
  2
投影線01
 70
     0
 62
    13
  6
CONTINUOUS
  0
LAYER
  2
投影線02
 70
     0
 62
    12
  6
CONTINUOUS
  0
ENDTAB
  0
TABLE
  2
STYLE
 70
    10
  0
STYLE
  2
STANDARD
 70
     0
 40
1.0
 41
1.0
 42
1.0
 50
0.0
 71
     0
  3
TXT
  4
BIGFONT
  0
STYLE
  2
TATE
 70
     4
 40
1.0
 41
1.0
 42
1.0
 50
0.0
 71
     0
  3
TXT
  4
BIGFONT
  0
STYLE
  2
TextStyle03
 70
     0
 40
1.0
 41
1.0
 42
1.0
 50
0.0
 71
     0
  3
MONOTXT
  4
BIGFONT
  0
STYLE
  2
TextStyle04
 70
     0
 40
1.0
 41
1.0
 42
1.0
 50
0.0
 71
     0
  3
MONOTXT
  4
BIGFONT
  0
STYLE
  2
TextStyle05
 70
     0
 40
1.0
 41
1.0
 42
1.0
 50
0.0
 71
     0
  3
MONOTXT
  4
BIGFONT
  0
STYLE
  2
TextStyle06
 70
     0
 40
1.0
 41
1.0
 42
1.0
 50
0.0
 71
     0
  3
MONOTXT
  4
BIGFONT
  0
STYLE
  2
TextStyle07
 70
     0
 40
1.0
 41
1.0
 42
1.0
 50
0.0
 71
     0
  3
MONOTXT
  4
BIGFONT
  0
STYLE
  2
TextStyle08
 70
     0
 40
1.0
 41
1.0
 42
1.0
 50
0.0
 71
     0
  3
MONOTXT
  4
BIGFONT
  0
STYLE
  2
TextStyle09
 70
     0
 40
1.0
 41
1.0
 42
1.0
 50
0.0
 71
     0
  3
MONOTXT
  4
BIGFONT
  0
STYLE
  2
TextStyle10
 70
     0
 40
1.0
 41
1.0
 42
1.0
 50
0.0
 71
     0
  3
MONOTXT
  4
BIGFONT
  0
ENDTAB
  0
ENDSEC
  0
SECTION
  2
BLOCKS
  0
BLOCK
  2
*HAT_0001
 70
    65
 10
0.0
 20
0.0
  0
LINE
  8
ﾊｯﾁﾝｸﾞ
  6
DOT
 10
-60.825
 20
-27.275
 11
-60.45
 21
-26.9
  0
LINE
  8
ﾊｯﾁﾝｸﾞ
  6
DOT
 10
-61.75
 20
-27.275
 11
-60.45
 21
-25.95
  0
LINE
  8
ﾊｯﾁﾝｸﾞ
  6
DOT
 10
-62.7
 20
-27.275
 11
-60.45
 21
-25.0
  0
LINE
  8
ﾊｯﾁﾝｸﾞ
  6
DOT
 10
-63.625
 20
-27.225
 11
-60.45
 21
-24.075
  0
LINE
  8
ﾊｯﾁﾝｸﾞ
  6
DOT
 10
-63.625
 20
-26.3
 11
-61.1
 21
-23.775
  0
LINE
  8
ﾊｯﾁﾝｸﾞ
  6
DOT
 10
-63.625
 20
-25.35
 11
-62.025
 21
-23.775
  0
LINE
  8
ﾊｯﾁﾝｸﾞ
  6
DOT
 10
-63.625
 20
-24.4
 11
-62.975
 21
-23.775
  0
ENDBLK
  0
BLOCK
  2
*HAT_0002
 70
    65
 10
0.0
 20
0.0
  0
LINE
  8
ﾊｯﾁﾝｸﾞ
 10
-117.85
 20
-74.425
 11
-117.25
 21
-73.8
  0
LINE
  8
ﾊｯﾁﾝｸﾞ
 10
-118.55
 20
-74.425
 11
-117.25
 21
-73.1
  0
LINE
  8
ﾊｯﾁﾝｸﾞ
 10
-119.275
 20
-74.425
 11
-117.25
 21
-72.4
  0
LINE
  8
ﾊｯﾁﾝｸﾞ
 10
-119.975
 20
-74.425
 11
-117.3
 21
-71.75
  0
LINE
  8
ﾊｯﾁﾝｸﾞ
 10
-120.675
 20
-74.425
 11
-118.0
 21
-71.75
  0
LINE
  8
ﾊｯﾁﾝｸﾞ
 10
-121.375
 20
-74.425
 11
-118.725
 21
-71.75
  0
LINE
  8
ﾊｯﾁﾝｸﾞ
 10
-122.1
 20
-74.425
 11
-119.425
 21
-71.75
  0
LINE
  8
ﾊｯﾁﾝｸﾞ
 10
-122.8
 20
-74.425
 11
-120.125
 21
-71.75
  0
LINE
  8
ﾊｯﾁﾝｸﾞ
 10
-123.325
 20
-74.225
 11
-120.825
 21
-71.75
  0
LINE
  8
ﾊｯﾁﾝｸﾞ
 10
-123.325
 20
-73.525
 11
-121.55
 21
-71.75
  0
LINE
  8
ﾊｯﾁﾝｸﾞ
 10
-123.3
 20
-72.825
 11
-122.25
 21
-71.75
  0
LINE
  8
ﾊｯﾁﾝｸﾞ
 10
-123.3
 20
-72.1
 11
-122.95
 21
-71.75
  0
LINE
  8
ﾊｯﾁﾝｸﾞ
 10
-123.325
 20
-74.2
 11
-123.1
 21
-74.425
  0
LINE
  8
ﾊｯﾁﾝｸﾞ
 10
-123.325
 20
-73.5
 11
-122.4
 21
-74.425
  0
LINE
  8
ﾊｯﾁﾝｸﾞ
 10
-123.325
 20
-72.8
 11
-121.7
 21
-74.425
  0
LINE
  8
ﾊｯﾁﾝｸﾞ
 10
-123.325
 20
-72.1
 11
-121.0
 21
-74.425
  0
LINE
  8
ﾊｯﾁﾝｸﾞ
 10
-122.95
 20
-71.75
 11
-120.275
 21
-74.425
  0
LINE
  8
ﾊｯﾁﾝｸﾞ
 10
-122.25
 20
-71.75
 11
-119.575
 21
-74.425
  0
LINE
  8
ﾊｯﾁﾝｸﾞ
 10
-121.55
 20
-71.75
 11
-118.875
 21
-74.425
  0
LINE
  8
ﾊｯﾁﾝｸﾞ
 10
-120.825
 20
-71.75
 11
-118.175
 21
-74.425
  0
LINE
  8
ﾊｯﾁﾝｸﾞ
 10
-120.125
 20
-71.75
 11
-117.475
 21
-74.425
  0
LINE
  8
ﾊｯﾁﾝｸﾞ
 10
-119.425
 20
-71.75
 11
-117.25
 21
-73.925
  0
LINE
  8
ﾊｯﾁﾝｸﾞ
 10
-118.725
 20
-71.75
 11
-117.25
 21
-73.225
  0
LINE
  8
ﾊｯﾁﾝｸﾞ
 10
-118.025
 20
-71.75
 11
-117.25
 21
-72.5
  0
LINE
  8
ﾊｯﾁﾝｸﾞ
 10
-117.3
 20
-71.75
 11
-117.25
 21
-71.8
  0
ENDBLK
  0
BLOCK
  2
*HAT_0003
 70
    65
 10
0.0
 20
0.0
  0
LINE
  8
ﾊｯﾁﾝｸﾞ
 10
-84.8
 20
-49.125
 11
-84.3
 21
-48.6
  0
LINE
  8
ﾊｯﾁﾝｸﾞ
 10
-85.625
 20
-49.225
 11
-84.3
 21
-47.9
  0
LINE
  8
ﾊｯﾁﾝｸﾞ
 10
-86.45
 20
-49.35
 11
-84.3
 21
-47.2
  0
LINE
  8
ﾊｯﾁﾝｸﾞ
 10
-87.275
 20
-49.45
 11
-84.3
 21
-46.475
  0
LINE
  8
ﾊｯﾁﾝｸﾞ
 10
-88.1
 20
-49.575
 11
-84.3
 21
-45.775
  0
LINE
  8
ﾊｯﾁﾝｸﾞ
 10
-88.45
 20
-49.25
 11
-84.3
 21
-45.075
  0
LINE
  8
ﾊｯﾁﾝｸﾞ
 10
-88.3
 20
-48.375
 11
-84.65
 21
-44.725
  0
LINE
  8
ﾊｯﾁﾝｸﾞ
 10
-88.3
 20
-47.65
 11
-85.375
 21
-44.725
  0
LINE
  8
ﾊｯﾁﾝｸﾞ
 10
-88.3
 20
-46.95
 11
-86.075
 21
-44.725
  0
LINE
  8
ﾊｯﾁﾝｸﾞ
 10
-88.3
 20
-46.25
 11
-86.775
 21
-44.725
  0
LINE
  8
ﾊｯﾁﾝｸﾞ
 10
-88.3
 20
-45.55
 11
-87.475
 21
-44.725
  0
LINE
  8
ﾊｯﾁﾝｸﾞ
 10
-88.3
 20
-44.825
 11
-88.2
 21
-44.725
  0
LINE
  8
ﾊｯﾁﾝｸﾞ
 10
-88.45
 20
-49.15
 11
-88.025
 21
-49.55
  0
LINE
  8
ﾊｯﾁﾝｸﾞ
 10
-88.3
 20
-48.6
 11
-87.425
 21
-49.475
  0
LINE
  8
ﾊｯﾁﾝｸﾞ
 10
-88.3
 20
-47.875
 11
-86.8
 21
-49.4
  0
LINE
  8
ﾊｯﾁﾝｸﾞ
 10
-88.3
 20
-47.175
 11
-86.175
 21
-49.3
  0
LINE
  8
ﾊｯﾁﾝｸﾞ
 10
-88.3
 20
-46.475
 11
-85.55
 21
-49.225
  0
LINE
  8
ﾊｯﾁﾝｸﾞ
 10
-88.3
 20
-45.775
 11
-84.925
 21
-49.125
  0
LINE
  8
ﾊｯﾁﾝｸﾞ
 10
-88.3
 20
-45.05
 11
-84.3
 21
-49.05
  0
LINE
  8
ﾊｯﾁﾝｸﾞ
 10
-87.925
 20
-44.725
 11
-84.3
 21
-48.35
  0
LINE
  8
ﾊｯﾁﾝｸﾞ
 10
-87.225
 20
-44.725
 11
-84.3
 21
-47.65
  0
LINE
  8
ﾊｯﾁﾝｸﾞ
 10
-86.525
 20
-44.725
 11
-84.3
 21
-46.95
  0
LINE
  8
ﾊｯﾁﾝｸﾞ
 10
-85.8
 20
-44.725
 11
-84.3
 21
-46.225
  0
LINE
  8
ﾊｯﾁﾝｸﾞ
 10
-85.1
 20
-44.725
 11
-84.3
 21
-45.525
  0
LINE
  8
ﾊｯﾁﾝｸﾞ
 10
-84.4
 20
-44.725
 11
-84.3
 21
-44.825
  0
ENDBLK
  0
BLOCK
  2
*HAT_0004
 70
    65
 10
0.0
 20
0.0
  0
LINE
  8
ﾊｯﾁﾝｸﾞ
 10
-79.3
 20
-36.375
 11
-79.025
 21
-36.1
  0
LINE
  8
ﾊｯﾁﾝｸﾞ
 10
-80.0
 20
-36.375
 11
-79.025
 21
-35.4
  0
LINE
  8
ﾊｯﾁﾝｸﾞ
 10
-80.725
 20
-36.375
 11
-79.025
 21
-34.7
  0
LINE
  8
ﾊｯﾁﾝｸﾞ
 10
-81.425
 20
-36.375
 11
-79.025
 21
-34.0
  0
LINE
  8
ﾊｯﾁﾝｸﾞ
 10
-82.125
 20
-36.375
 11
-79.025
 21
-33.275
  0
LINE
  8
ﾊｯﾁﾝｸﾞ
 10
-82.275
 20
-35.825
 11
-79.4
 21
-32.95
  0
LINE
  8
ﾊｯﾁﾝｸﾞ
 10
-82.275
 20
-35.125
 11
-80.1
 21
-32.95
  0
LINE
  8
ﾊｯﾁﾝｸﾞ
 10
-82.275
 20
-34.4
 11
-80.8
 21
-32.95
  0
LINE
  8
ﾊｯﾁﾝｸﾞ
 10
-82.275
 20
-33.7
 11
-81.525
 21
-32.95
  0
LINE
  8
ﾊｯﾁﾝｸﾞ
 10
-82.275
 20
-33.0
 11
-82.225
 21
-32.95
  0
LINE
  8
ﾊｯﾁﾝｸﾞ
 10
-82.275
 20
-36.1
 11
-82.0
 21
-36.375
  0
LINE
  8
ﾊｯﾁﾝｸﾞ
 10
-82.275
 20
-35.375
 11
-81.3
 21
-36.375
  0
LINE
  8
ﾊｯﾁﾝｸﾞ
 10
-82.275
 20
-34.675
 11
-80.6
 21
-36.375
  0
LINE
  8
ﾊｯﾁﾝｸﾞ
 10
-82.275
 20
-33.975
 11
-79.875
 21
-36.375
  0
LINE
  8
ﾊｯﾁﾝｸﾞ
 10
-82.275
 20
-33.275
 11
-79.175
 21
-36.375
  0
LINE
  8
ﾊｯﾁﾝｸﾞ
 10
-81.9
 20
-32.95
 11
-79.025
 21
-35.8
  0
LINE
  8
ﾊｯﾁﾝｸﾞ
 10
-81.2
 20
-32.95
 11
-79.025
 21
-35.1
  0
LINE
  8
ﾊｯﾁﾝｸﾞ
 10
-80.5
 20
-32.95
 11
-79.025
 21
-34.4
  0
LINE
  8
ﾊｯﾁﾝｸﾞ
 10
-79.8
 20
-32.95
 11
-79.05
 21
-33.7
  0
LINE
  8
ﾊｯﾁﾝｸﾞ
 10
-79.075
 20
-32.95
 11
-79.05
 21
-32.975
  0
ENDBLK
  0
BLOCK
  2
*HAT_0005
 70
    65
 10
0.0
 20
0.0
  0
LINE
  8
ﾊｯﾁﾝｸﾞ
  6
DOT
 10
67.4
 20
-27.275
 11
67.025
 21
-26.9
  0
LINE
  8
ﾊｯﾁﾝｸﾞ
  6
DOT
 10
68.325
 20
-27.275
 11
67.025
 21
-25.95
  0
LINE
  8
ﾊｯﾁﾝｸﾞ
  6
DOT
 10
69.275
 20
-27.275
 11
67.025
 21
-25.0
  0
LINE
  8
ﾊｯﾁﾝｸﾞ
  6
DOT
 10
70.2
 20
-27.225
 11
67.025
 21
-24.075
  0
LINE
  8
ﾊｯﾁﾝｸﾞ
  6
DOT
 10
70.2
 20
-26.3
 11
67.675
 21
-23.775
  0
LINE
  8
ﾊｯﾁﾝｸﾞ
  6
DOT
 10
70.2
 20
-25.35
 11
68.6
 21
-23.775
  0
LINE
  8
ﾊｯﾁﾝｸﾞ
  6
DOT
 10
70.2
 20
-24.4
 11
69.55
 21
-23.775
  0
ENDBLK
  0
BLOCK
  2
*HAT_0006
 70
    65
 10
0.0
 20
0.0
  0
LINE
  8
ﾊｯﾁﾝｸﾞ
 10
124.425
 20
-74.425
 11
123.825
 21
-73.8
  0
LINE
  8
ﾊｯﾁﾝｸﾞ
 10
125.125
 20
-74.425
 11
123.825
 21
-73.1
  0
LINE
  8
ﾊｯﾁﾝｸﾞ
 10
125.85
 20
-74.425
 11
123.825
 21
-72.4
  0
LINE
  8
ﾊｯﾁﾝｸﾞ
 10
126.55
 20
-74.425
 11
123.875
 21
-71.75
  0
LINE
  8
ﾊｯﾁﾝｸﾞ
 10
127.25
 20
-74.425
 11
124.575
 21
-71.75
  0
LINE
  8
ﾊｯﾁﾝｸﾞ
 10
127.95
 20
-74.425
 11
125.3
 21
-71.75
  0
LINE
  8
ﾊｯﾁﾝｸﾞ
 10
128.675
 20
-74.425
 11
126.0
 21
-71.75
  0
LINE
  8
ﾊｯﾁﾝｸﾞ
 10
129.375
 20
-74.425
 11
126.7
 21
-71.75
  0
LINE
  8
ﾊｯﾁﾝｸﾞ
 10
129.9
 20
-74.225
 11
127.4
 21
-71.75
  0
LINE
  8
ﾊｯﾁﾝｸﾞ
 10
129.9
 20
-73.525
 11
128.125
 21
-71.75
  0
LINE
  8
ﾊｯﾁﾝｸﾞ
 10
129.875
 20
-72.825
 11
128.825
 21
-71.75
  0
LINE
  8
ﾊｯﾁﾝｸﾞ
 10
129.875
 20
-72.1
 11
129.525
 21
-71.75
  0
LINE
  8
ﾊｯﾁﾝｸﾞ
 10
129.9
 20
-74.2
 11
129.675
 21
-74.425
  0
LINE
  8
ﾊｯﾁﾝｸﾞ
 10
129.9
 20
-73.5
 11
128.975
 21
-74.425
  0
LINE
  8
ﾊｯﾁﾝｸﾞ
 10
129.9
 20
-72.8
 11
128.275
 21
-74.425
  0
LINE
  8
ﾊｯﾁﾝｸﾞ
 10
129.9
 20
-72.1
 11
127.575
 21
-74.425
  0
LINE
  8
ﾊｯﾁﾝｸﾞ
 10
129.525
 20
-71.75
 11
126.85
 21
-74.425
  0
LINE
  8
ﾊｯﾁﾝｸﾞ
 10
128.825
 20
-71.75
 11
126.15
 21
-74.425
  0
LINE
  8
ﾊｯﾁﾝｸﾞ
 10
128.125
 20
-71.75
 11
125.45
 21
-74.425
  0
LINE
  8
ﾊｯﾁﾝｸﾞ
 10
127.4
 20
-71.75
 11
124.75
 21
-74.425
  0
LINE
  8
ﾊｯﾁﾝｸﾞ
 10
126.7
 20
-71.75
 11
124.05
 21
-74.425
  0
LINE
  8
ﾊｯﾁﾝｸﾞ
 10
126.0
 20
-71.75
 11
123.825
 21
-73.925
  0
LINE
  8
ﾊｯﾁﾝｸﾞ
 10
125.3
 20
-71.75
 11
123.825
 21
-73.225
  0
LINE
  8
ﾊｯﾁﾝｸﾞ
 10
124.6
 20
-71.75
 11
123.825
 21
-72.5
  0
LINE
  8
ﾊｯﾁﾝｸﾞ
 10
123.875
 20
-71.75
 11
123.825
 21
-71.8
  0
ENDBLK
  0
BLOCK
  2
*HAT_0007
 70
    65
 10
0.0
 20
0.0
  0
LINE
  8
ﾊｯﾁﾝｸﾞ
 10
91.375
 20
-49.125
 11
90.875
 21
-48.6
  0
LINE
  8
ﾊｯﾁﾝｸﾞ
 10
92.2
 20
-49.225
 11
90.875
 21
-47.9
  0
LINE
  8
ﾊｯﾁﾝｸﾞ
 10
93.025
 20
-49.35
 11
90.875
 21
-47.2
  0
LINE
  8
ﾊｯﾁﾝｸﾞ
 10
93.85
 20
-49.45
 11
90.875
 21
-46.475
  0
LINE
  8
ﾊｯﾁﾝｸﾞ
 10
94.675
 20
-49.575
 11
90.875
 21
-45.775
  0
LINE
  8
ﾊｯﾁﾝｸﾞ
 10
95.025
 20
-49.25
 11
90.875
 21
-45.075
  0
LINE
  8
ﾊｯﾁﾝｸﾞ
 10
94.875
 20
-48.375
 11
91.225
 21
-44.725
  0
LINE
  8
ﾊｯﾁﾝｸﾞ
 10
94.875
 20
-47.65
 11
91.95
 21
-44.725
  0
LINE
  8
ﾊｯﾁﾝｸﾞ
 10
94.875
 20
-46.95
 11
92.65
 21
-44.725
  0
LINE
  8
ﾊｯﾁﾝｸﾞ
 10
94.875
 20
-46.25
 11
93.35
 21
-44.725
  0
LINE
  8
ﾊｯﾁﾝｸﾞ
 10
94.875
 20
-45.55
 11
94.05
 21
-44.725
  0
LINE
  8
ﾊｯﾁﾝｸﾞ
 10
94.875
 20
-44.825
 11
94.775
 21
-44.725
  0
LINE
  8
ﾊｯﾁﾝｸﾞ
 10
95.025
 20
-49.15
 11
94.6
 21
-49.55
  0
LINE
  8
ﾊｯﾁﾝｸﾞ
 10
94.875
 20
-48.6
 11
94.0
 21
-49.475
  0
LINE
  8
ﾊｯﾁﾝｸﾞ
 10
94.875
 20
-47.875
 11
93.375
 21
-49.4
  0
LINE
  8
ﾊｯﾁﾝｸﾞ
 10
94.875
 20
-47.175
 11
92.75
 21
-49.3
  0
LINE
  8
ﾊｯﾁﾝｸﾞ
 10
94.875
 20
-46.475
 11
92.125
 21
-49.225
  0
LINE
  8
ﾊｯﾁﾝｸﾞ
 10
94.875
 20
-45.775
 11
91.5
 21
-49.125
  0
LINE
  8
ﾊｯﾁﾝｸﾞ
 10
94.875
 20
-45.05
 11
90.875
 21
-49.05
  0
LINE
  8
ﾊｯﾁﾝｸﾞ
 10
94.5
 20
-44.725
 11
90.875
 21
-48.35
  0
LINE
  8
ﾊｯﾁﾝｸﾞ
 10
93.8
 20
-44.725
 11
90.875
 21
-47.65
  0
LINE
  8
ﾊｯﾁﾝｸﾞ
 10
93.1
 20
-44.725
 11
90.875
 21
-46.95
  0
LINE
  8
ﾊｯﾁﾝｸﾞ
 10
92.375
 20
-44.725
 11
90.875
 21
-46.225
  0
LINE
  8
ﾊｯﾁﾝｸﾞ
 10
91.675
 20
-44.725
 11
90.875
 21
-45.525
  0
LINE
  8
ﾊｯﾁﾝｸﾞ
 10
90.975
 20
-44.725
 11
90.875
 21
-44.825
  0
ENDBLK
  0
BLOCK
  2
*HAT_0008
 70
    65
 10
0.0
 20
0.0
  0
LINE
  8
ﾊｯﾁﾝｸﾞ
 10
85.875
 20
-36.375
 11
85.6
 21
-36.1
  0
LINE
  8
ﾊｯﾁﾝｸﾞ
 10
86.575
 20
-36.375
 11
85.6
 21
-35.4
  0
LINE
  8
ﾊｯﾁﾝｸﾞ
 10
87.3
 20
-36.375
 11
85.6
 21
-34.7
  0
LINE
  8
ﾊｯﾁﾝｸﾞ
 10
88.0
 20
-36.375
 11
85.6
 21
-34.0
  0
LINE
  8
ﾊｯﾁﾝｸﾞ
 10
88.7
 20
-36.375
 11
85.6
 21
-33.275
  0
LINE
  8
ﾊｯﾁﾝｸﾞ
 10
88.85
 20
-35.825
 11
85.975
 21
-32.95
  0
LINE
  8
ﾊｯﾁﾝｸﾞ
 10
88.85
 20
-35.125
 11
86.675
 21
-32.95
  0
LINE
  8
ﾊｯﾁﾝｸﾞ
 10
88.85
 20
-34.4
 11
87.375
 21
-32.95
  0
LINE
  8
ﾊｯﾁﾝｸﾞ
 10
88.85
 20
-33.7
 11
88.1
 21
-32.95
  0
LINE
  8
ﾊｯﾁﾝｸﾞ
 10
88.85
 20
-33.0
 11
88.8
 21
-32.95
  0
LINE
  8
ﾊｯﾁﾝｸﾞ
 10
88.85
 20
-36.1
 11
88.575
 21
-36.375
  0
LINE
  8
ﾊｯﾁﾝｸﾞ
 10
88.85
 20
-35.375
 11
87.875
 21
-36.375
  0
LINE
  8
ﾊｯﾁﾝｸﾞ
 10
88.85
 20
-34.675
 11
87.175
 21
-36.375
  0
LINE
  8
ﾊｯﾁﾝｸﾞ
 10
88.85
 20
-33.975
 11
86.45
 21
-36.375
  0
LINE
  8
ﾊｯﾁﾝｸﾞ
 10
88.85
 20
-33.275
 11
85.75
 21
-36.375
  0
LINE
  8
ﾊｯﾁﾝｸﾞ
 10
88.475
 20
-32.95
 11
85.6
 21
-35.8
  0
LINE
  8
ﾊｯﾁﾝｸﾞ
 10
87.775
 20
-32.95
 11
85.6
 21
-35.1
  0
LINE
  8
ﾊｯﾁﾝｸﾞ
 10
87.075
 20
-32.95
 11
85.6
 21
-34.4
  0
LINE
  8
ﾊｯﾁﾝｸﾞ
 10
86.375
 20
-32.95
 11
85.625
 21
-33.7
  0
LINE
  8
ﾊｯﾁﾝｸﾞ
 10
85.65
 20
-32.95
 11
85.625
 21
-32.975
  0
ENDBLK
  0
BLOCK
  2
*HAT_0009
 70
    65
 10
0.0
 20
0.0
  0
LINE
  8
ﾊｯﾁﾝｸﾞ
 10
-60.35
 20
-1.05
 11
-60.3
 21
-1.0
  0
LINE
  8
ﾊｯﾁﾝｸﾞ
 10
-61.075
 20
-1.05
 11
-60.3
 21
-0.3
  0
LINE
  8
ﾊｯﾁﾝｸﾞ
 10
-61.775
 20
-1.05
 11
-60.3
 21
0.4
  0
LINE
  8
ﾊｯﾁﾝｸﾞ
 10
-62.475
 20
-1.05
 11
-60.475
 21
0.95
  0
LINE
  8
ﾊｯﾁﾝｸﾞ
 10
-63.175
 20
-1.05
 11
-61.175
 21
0.95
  0
LINE
  8
ﾊｯﾁﾝｸﾞ
 10
-63.875
 20
-1.05
 11
-61.875
 21
0.95
  0
LINE
  8
ﾊｯﾁﾝｸﾞ
 10
-64.6
 20
-1.05
 11
-62.6
 21
0.95
  0
LINE
  8
ﾊｯﾁﾝｸﾞ
 10
-64.65
 20
-0.4
 11
-63.3
 21
0.95
  0
LINE
  8
ﾊｯﾁﾝｸﾞ
 10
-64.625
 20
0.325
 11
-64.0
 21
0.95
  0
ENDBLK
  0
BLOCK
  2
*HAT_0010
 70
    65
 10
0.0
 20
0.0
  0
LINE
  8
ﾊｯﾁﾝｸﾞ
 10
70.95
 20
-1.05
 11
71.2
 21
-0.8
  0
LINE
  8
ﾊｯﾁﾝｸﾞ
 10
70.25
 20
-1.05
 11
71.2
 21
-0.1
  0
LINE
  8
ﾊｯﾁﾝｸﾞ
 10
69.55
 20
-1.05
 11
71.2
 21
0.6
  0
LINE
  8
ﾊｯﾁﾝｸﾞ
 10
68.825
 20
-1.05
 11
70.85
 21
0.95
  0
LINE
  8
ﾊｯﾁﾝｸﾞ
 10
68.125
 20
-1.05
 11
70.125
 21
0.95
  0
LINE
  8
ﾊｯﾁﾝｸﾞ
 10
67.425
 20
-1.05
 11
69.425
 21
0.95
  0
LINE
  8
ﾊｯﾁﾝｸﾞ
 10
66.875
 20
-0.9
 11
68.725
 21
0.95
  0
LINE
  8
ﾊｯﾁﾝｸﾞ
 10
66.875
 20
-0.2
 11
68.025
 21
0.95
  0
LINE
  8
ﾊｯﾁﾝｸﾞ
 10
66.875
 20
0.5
 11
67.3
 21
0.95
  0
ENDBLK
  0
BLOCK
  2
*GRP_0001
 70
    65
 10
0.0
 20
0.0
  0
LINE
  8
型材断面
  6
CONTINUOUS
 10
195.0
 20
133.5
 11
195.0
 21
-133.5
  0
LINE
  8
型材断面
  6
CONTINUOUS
 10
195.0
 20
-133.5
 11
-185.0
 21
-133.5
  0
LINE
  8
型材断面
  6
CONTINUOUS
 10
-185.0
 20
-133.5
 11
-185.0
 21
133.5
  0
LINE
  8
型材断面
  6
CONTINUOUS
 10
195.0
 20
133.5
 11
-185.0
 21
133.5
  0
LINE
  8
型材断面
  6
CONTINUOUS
 10
145.0
 20
-133.5
 11
145.0
 21
-118.5
  0
LINE
  8
型材断面
  6
CONTINUOUS
 10
195.0
 20
-118.5
 11
145.0
 21
-118.5
  0
ENDBLK
  0
BLOCK
  2
*GRP_0002
 70
    65
 10
0.0
 20
0.0
  0
LINE
  8
型材断面
  6
CONTINUOUS
 10
-81.126785
 20
-46.47015
 11
-81.226785
 21
-46.37015
  0
LINE
  8
型材断面
  6
CONTINUOUS
 10
-81.126785
 20
-46.47015
 11
-81.226785
 21
-46.57015
  0
LINE
  8
型材断面
  6
CONTINUOUS
 62
    47
 10
-123.960157
 20
-74.350878
 11
-123.360157
 21
-74.350878
  0
LINE
  8
型材断面
  6
CONTINUOUS
 10
-123.360153
 20
-71.68421
 11
-123.360157
 21
-74.350878
  0
LINE
  8
型材断面
  6
CONTINUOUS
 10
-123.36015
 20
-71.18421
 11
-123.36012
 21
-54.874773
  0
LINE
  8
型材断面
  6
CONTINUOUS
 62
    47
 10
-123.960157
 20
-74.350878
 11
-123.960117
 21
-54.350878
  0
LINE
  8
型材断面
  6
CONTINUOUS
 10
-119.651005
 20
-54.37013
 11
-123.36012
 21
-54.874773
  0
LINE
  8
型材断面
  6
CONTINUOUS
 10
-99.662195
 20
-51.650565
 11
-119.155567
 21
-54.302725
  0
LINE
  8
型材断面
  6
CONTINUOUS
 10
-99.16676
 20
-51.58316
 11
-81.126785
 21
-49.12874
  0
LINE
  8
型材断面
  6
CONTINUOUS
 10
-123.960117
 20
-54.350878
 11
-81.226785
 21
-48.536817
  0
LINE
  8
型材断面
  6
CONTINUOUS
 10
-80.626785
 20
-44.636817
 11
-81.226785
 21
-44.636817
  0
LINE
  8
型材断面
  6
CONTINUOUS
 10
-81.226785
 20
-48.536817
 11
-81.226785
 21
-46.57015
  0
LINE
  8
型材断面
  6
CONTINUOUS
 10
-81.226785
 20
-46.37015
 11
-81.226785
 21
-44.636817
  0
LINE
  8
型材断面
  6
CONTINUOUS
 10
-119.073025
 20
-54.897023
 11
-117.817915
 21
-54.72626
  0
LINE
  8
型材断面
  6
CONTINUOUS
 10
-117.817915
 20
-54.72626
 11
-117.74913
 21
-55.22151
  0
LINE
  8
型材断面
  6
CONTINUOUS
 10
-117.74913
 20
-55.22151
 11
-119.499675
 21
-55.45968
  0
LINE
  8
型材断面
  6
CONTINUOUS
 10
-99.583335
 20
-52.245357
 11
-100.838443
 21
-52.41612
  0
LINE
  8
型材断面
  6
CONTINUOUS
 10
-100.838443
 20
-52.41612
 11
-100.772415
 21
-52.911745
  0
LINE
  8
型材断面
  6
CONTINUOUS
 10
-100.772415
 20
-52.911745
 11
-99.02187
 21
-52.673575
  0
LINE
  8
型材断面
  6
CONTINUOUS
 10
-119.072473
 20
-54.896947
 11
-119.155015
 21
-54.30265
  0
LINE
  8
型材断面
  6
CONTINUOUS
 10
-119.499125
 20
-55.459605
 11
-119.650455
 21
-54.370055
  0
LINE
  8
型材断面
  6
CONTINUOUS
 10
-99.583335
 20
-52.245357
 11
-99.662565
 21
-51.650615
  0
LINE
  8
型材断面
  6
CONTINUOUS
 10
-99.02187
 20
-52.673575
 11
-99.167127
 21
-51.58321
  0
LINE
  8
型材断面
  6
CONTINUOUS
 10
-82.386585
 20
-50.41028
 11
-82.453992
 21
-49.914843
  0
LINE
  8
型材断面
  6
CONTINUOUS
 62
    47
 10
-80.626785
 20
-44.636817
 11
-80.626785
 21
-50.17085
  0
LINE
  8
型材断面
  6
CONTINUOUS
 10
-82.386585
 20
-50.41028
 11
-80.626785
 21
-50.17085
  0
LINE
  8
型材断面
  6
CONTINUOUS
 10
-82.453992
 20
-49.914843
 11
-81.126785
 21
-49.73427
  0
LINE
  8
型材断面
  6
CONTINUOUS
 10
-81.126785
 20
-49.12874
 11
-81.126785
 21
-49.73427
  0
LINE
  8
型材断面
  6
CONTINUOUS
 10
-122.26015
 20
-70.350878
 11
-122.76015
 21
-70.350878
  0
LINE
  8
型材断面
  6
CONTINUOUS
 10
-122.76015
 20
-71.18421
 11
-122.76015
 21
-70.350878
  0
LINE
  8
型材断面
  6
CONTINUOUS
 10
-122.26015
 20
-71.350878
 11
-122.26015
 21
-70.350878
  0
ARC
  8
型材断面
  6
CONTINUOUS
 10
-122.593486
 20
-71.350879
 40
0.333333
 50
-90.0
 51
0.0
  0
LINE
  8
型材断面
  6
CONTINUOUS
 10
-122.76015
 20
-71.18421
 11
-123.36015
 21
-71.18421
  0
LINE
  8
型材断面
  6
CONTINUOUS
 10
-122.593483
 20
-71.68421
 11
-123.360153
 21
-71.68421
  0
ENDBLK
  0
BLOCK
  2
*GRP_0003
 70
    65
 10
0.0
 20
0.0
  0
LINE
  8
型材断面
  6
CONTINUOUS
 10
87.70942
 20
-46.47015
 11
87.80942
 21
-46.37015
  0
LINE
  8
型材断面
  6
CONTINUOUS
 10
87.70942
 20
-46.47015
 11
87.80942
 21
-46.57015
  0
LINE
  8
型材断面
  6
CONTINUOUS
 62
    47
 10
130.542792
 20
-74.350878
 11
129.942793
 21
-74.350878
  0
LINE
  8
型材断面
  6
CONTINUOUS
 10
129.942787
 20
-71.68421
 11
129.942793
 21
-74.350878
  0
LINE
  8
型材断面
  6
CONTINUOUS
 10
129.942785
 20
-71.18421
 11
129.942755
 21
-54.874773
  0
LINE
  8
型材断面
  6
CONTINUOUS
 62
    47
 10
130.542792
 20
-74.350878
 11
130.542752
 21
-54.350878
  0
LINE
  8
型材断面
  6
CONTINUOUS
 10
126.23364
 20
-54.37013
 11
129.942755
 21
-54.874773
  0
LINE
  8
型材断面
  6
CONTINUOUS
 10
106.24483
 20
-51.650565
 11
125.738203
 21
-54.302725
  0
LINE
  8
型材断面
  6
CONTINUOUS
 10
105.749395
 20
-51.58316
 11
87.70942
 21
-49.12874
  0
LINE
  8
型材断面
  6
CONTINUOUS
 10
130.542752
 20
-54.350878
 11
87.80942
 21
-48.536817
  0
LINE
  8
型材断面
  6
CONTINUOUS
 10
87.20942
 20
-44.636817
 11
87.80942
 21
-44.636817
  0
LINE
  8
型材断面
  6
CONTINUOUS
 10
87.80942
 20
-48.536817
 11
87.80942
 21
-46.57015
  0
LINE
  8
型材断面
  6
CONTINUOUS
 10
87.80942
 20
-46.37015
 11
87.80942
 21
-44.636817
  0
LINE
  8
型材断面
  6
CONTINUOUS
 10
125.65566
 20
-54.897023
 11
124.40055
 21
-54.72626
  0
LINE
  8
型材断面
  6
CONTINUOUS
 10
124.40055
 20
-54.72626
 11
124.331765
 21
-55.22151
  0
LINE
  8
型材断面
  6
CONTINUOUS
 10
124.331765
 20
-55.22151
 11
126.08231
 21
-55.45968
  0
LINE
  8
型材断面
  6
CONTINUOUS
 10
106.16597
 20
-52.245357
 11
107.421077
 21
-52.41612
  0
LINE
  8
型材断面
  6
CONTINUOUS
 10
107.421077
 20
-52.41612
 11
107.35505
 21
-52.911745
  0
LINE
  8
型材断面
  6
CONTINUOUS
 10
107.35505
 20
-52.911745
 11
105.604505
 21
-52.673575
  0
LINE
  8
型材断面
  6
CONTINUOUS
 10
125.655107
 20
-54.896947
 11
125.73765
 21
-54.30265
  0
LINE
  8
型材断面
  6
CONTINUOUS
 10
126.08176
 20
-55.459605
 11
126.23309
 21
-54.370055
  0
LINE
  8
型材断面
  6
CONTINUOUS
 10
106.16597
 20
-52.245357
 11
106.2452
 21
-51.650615
  0
LINE
  8
型材断面
  6
CONTINUOUS
 10
105.604505
 20
-52.673575
 11
105.749763
 21
-51.58321
  0
LINE
  8
型材断面
  6
CONTINUOUS
 10
88.96922
 20
-50.41028
 11
89.036628
 21
-49.914843
  0
LINE
  8
型材断面
  6
CONTINUOUS
 62
    47
 10
87.20942
 20
-44.636817
 11
87.20942
 21
-50.17085
  0
LINE
  8
型材断面
  6
CONTINUOUS
 10
88.96922
 20
-50.41028
 11
87.20942
 21
-50.17085
  0
LINE
  8
型材断面
  6
CONTINUOUS
 10
89.036628
 20
-49.914843
 11
87.70942
 21
-49.73427
  0
LINE
  8
型材断面
  6
CONTINUOUS
 10
87.70942
 20
-49.12874
 11
87.70942
 21
-49.73427
  0
LINE
  8
型材断面
  6
CONTINUOUS
 10
128.842785
 20
-70.350878
 11
129.342785
 21
-70.350878
  0
LINE
  8
型材断面
  6
CONTINUOUS
 10
129.342785
 20
-71.18421
 11
129.342785
 21
-70.350878
  0
LINE
  8
型材断面
  6
CONTINUOUS
 10
128.842785
 20
-71.350878
 11
128.842785
 21
-70.350878
  0
ARC
  8
型材断面
  6
CONTINUOUS
 10
129.176121
 20
-71.350879
 40
0.333333
 50
180.0
 51
270.0
  0
LINE
  8
型材断面
  6
CONTINUOUS
 10
129.342785
 20
-71.18421
 11
129.942785
 21
-71.18421
  0
LINE
  8
型材断面
  6
CONTINUOUS
 10
129.176117
 20
-71.68421
 11
129.942787
 21
-71.68421
  0
ENDBLK
  0
BLOCK
  2
*GRP_0004
 70
    65
 10
0.0
 20
0.0
  0
LINE
  8
03
  6
DOT
 62
    47
 10
-64.460117
 20
-4.97015
 11
-63.260117
 21
-4.97015
  0
LINE
  8
03
  6
DOT
 62
    47
 10
-61.660117
 20
-4.97015
 11
-60.460117
 21
-4.97015
  0
LINE
  8
03
  6
DOT
 62
    47
 10
-61.326782
 20
-5.57015
 11
-61.660117
 21
-5.57015
  0
LINE
  8
03
  6
DOT
 62
    47
 10
-63.260117
 20
-5.57015
 11
-63.59345
 21
-5.57015
  0
LINE
  8
03
  6
DOT
 62
    47
 10
-61.660117
 20
-4.97015
 11
-61.660117
 21
-5.57015
  0
LINE
  8
03
  6
DOT
 62
    47
 10
-63.260117
 20
-4.97015
 11
-63.260117
 21
-5.57015
  0
LINE
  8
03
  6
DOT
 62
    47
 10
-61.326782
 20
-5.736817
 11
-62.126782
 21
-6.47015
  0
LINE
  8
03
  6
DOT
 62
    47
 10
-63.59345
 20
-5.736817
 11
-62.79345
 21
-6.47015
  0
LINE
  8
03
  6
DOT
 62
    47
 10
-63.59345
 20
-5.57015
 11
-63.59345
 21
-5.736817
  0
LINE
  8
03
  6
DOT
 62
    47
 10
-61.326782
 20
-5.57015
 11
-61.326782
 21
-5.736817
  0
LINE
  8
03
  6
DOT
 62
    47
 10
-62.126782
 20
-6.47015
 11
-62.79345
 21
-6.47015
  0
ARC
  8
03
  6
DOT
 62
    47
 10
-62.460122
 20
-5.303489
 40
0.333333
 50
0.0
 51
180.0
  0
ARC
  8
03
  6
DOT
 62
    47
 10
-62.460122
 20
-5.836822
 40
0.333333
 50
180.0
 51
360.0
  0
LINE
  8
03
  6
DOT
 62
    47
 10
-62.126782
 20
-5.303482
 11
-62.126782
 21
-5.836817
  0
LINE
  8
03
  6
DOT
 62
    47
 10
-62.79345
 20
-5.303482
 11
-62.79345
 21
-5.836817
  0
LINE
  8
03
  6
DOT
 62
    47
 10
-64.460117
 20
-4.075525
 11
-63.565492
 21
-4.970143
  0
LINE
  8
03
  6
DOT
 62
    47
 10
-63.260117
 20
-5.275525
 11
-62.79345
 21
-5.742192
  0
LINE
  8
03
  6
DOT
 62
    47
 10
-62.376217
 20
-6.159418
 11
-62.0948
 21
-6.440833
  0
LINE
  8
03
  6
DOT
 62
    47
 10
-62.126782
 20
-5.46605
 11
-61.6029
 21
-5.989925
  0
LINE
  8
03
  6
DOT
 62
    47
 10
-60.460117
 20
-4.97015
 11
-60.460117
 21
-3.303482
  0
LINE
  8
03
  6
DOT
 62
    47
 10
-61.29345
 20
-3.47015
 11
-63.626782
 21
-3.47015
  0
ARC
  8
03
  6
DOT
 62
    47
 10
-61.293455
 20
-3.303489
 40
0.166667
 50
270.0
 51
360.0
  0
ARC
  8
03
  6
DOT
 62
    47
 10
-63.626788
 20
-3.303489
 40
0.166667
 50
180.0
 51
270.0
  0
LINE
  8
03
  6
DOT
 62
    47
 10
-61.126782
 20
-3.303482
 11
-60.460117
 21
-3.303482
  0
LINE
  8
03
  6
DOT
 62
    47
 10
-63.79345
 20
-3.303482
 11
-64.460117
 21
-3.303482
  0
LINE
  8
03
  6
DOT
 62
    47
 10
-61.660117
 20
-4.9899
 11
-63.179868
 21
-3.47015
  0
LINE
  8
03
  6
DOT
 62
    47
 10
-60.737068
 20
-4.970143
 11
-62.237057
 21
-3.47015
  0
LINE
  8
03
  6
DOT
 62
    47
 10
-62.594425
 20
-4.9984
 11
-64.28935
 21
-3.303482
  0
LINE
  8
03
  6
DOT
 62
    47
 10
-64.460117
 20
-4.97015
 11
-64.460117
 21
-3.303482
  0
LINE
  8
03
  6
DOT
 62
    47
 10
-60.460117
 20
-4.304283
 11
-61.29425
 21
-3.47015
  0
ENDBLK
  0
BLOCK
  2
*GRP_0005
 70
    65
 10
0.0
 20
0.0
  0
LINE
  8
03
  6
DOT
 62
    47
 10
71.042752
 20
-4.97015
 11
69.842752
 21
-4.97015
  0
LINE
  8
03
  6
DOT
 62
    47
 10
68.242752
 20
-4.97015
 11
67.042752
 21
-4.97015
  0
LINE
  8
03
  6
DOT
 62
    47
 10
67.909418
 20
-5.57015
 11
68.242752
 21
-5.57015
  0
LINE
  8
03
  6
DOT
 62
    47
 10
69.842752
 20
-5.57015
 11
70.176085
 21
-5.57015
  0
LINE
  8
03
  6
DOT
 62
    47
 10
68.242752
 20
-4.97015
 11
68.242752
 21
-5.57015
  0
LINE
  8
03
  6
DOT
 62
    47
 10
69.842752
 20
-4.97015
 11
69.842752
 21
-5.57015
  0
LINE
  8
03
  6
DOT
 62
    47
 10
67.909418
 20
-5.736817
 11
68.709418
 21
-6.47015
  0
LINE
  8
03
  6
DOT
 62
    47
 10
70.176085
 20
-5.736817
 11
69.376085
 21
-6.47015
  0
LINE
  8
03
  6
DOT
 62
    47
 10
70.176085
 20
-5.57015
 11
70.176085
 21
-5.736817
  0
LINE
  8
03
  6
DOT
 62
    47
 10
67.909418
 20
-5.57015
 11
67.909418
 21
-5.736817
  0
LINE
  8
03
  6
DOT
 62
    47
 10
68.709418
 20
-6.47015
 11
69.376085
 21
-6.47015
  0
ARC
  8
03
  6
DOT
 62
    47
 10
69.042757
 20
-5.303489
 40
0.333333
 50
0.0
 51
180.0
  0
ARC
  8
03
  6
DOT
 62
    47
 10
69.042757
 20
-5.836822
 40
0.333333
 50
180.0
 51
360.0
  0
LINE
  8
03
  6
DOT
 62
    47
 10
68.709418
 20
-5.303482
 11
68.709418
 21
-5.836817
  0
LINE
  8
03
  6
DOT
 62
    47
 10
69.376085
 20
-5.303482
 11
69.376085
 21
-5.836817
  0
LINE
  8
03
  6
DOT
 62
    47
 10
71.042752
 20
-4.075525
 11
70.148128
 21
-4.970143
  0
LINE
  8
03
  6
DOT
 62
    47
 10
69.842752
 20
-5.275525
 11
69.376085
 21
-5.742192
  0
LINE
  8
03
  6
DOT
 62
    47
 10
68.958852
 20
-6.159418
 11
68.677435
 21
-6.440833
  0
LINE
  8
03
  6
DOT
 62
    47
 10
68.709418
 20
-5.46605
 11
68.185535
 21
-5.989925
  0
LINE
  8
03
  6
DOT
 62
    47
 10
67.042752
 20
-4.97015
 11
67.042752
 21
-3.303482
  0
LINE
  8
03
  6
DOT
 62
    47
 10
67.876085
 20
-3.47015
 11
70.209418
 21
-3.47015
  0
ARC
  8
03
  6
DOT
 62
    47
 10
67.87609
 20
-3.303489
 40
0.166667
 50
180.0
 51
270.0
  0
ARC
  8
03
  6
DOT
 62
    47
 10
70.209423
 20
-3.303489
 40
0.166667
 50
270.0
 51
360.0
  0
LINE
  8
03
  6
DOT
 62
    47
 10
67.709418
 20
-3.303482
 11
67.042752
 21
-3.303482
  0
LINE
  8
03
  6
DOT
 62
    47
 10
70.376085
 20
-3.303482
 11
71.042752
 21
-3.303482
  0
LINE
  8
03
  6
DOT
 62
    47
 10
68.242752
 20
-4.9899
 11
69.762502
 21
-3.47015
  0
LINE
  8
03
  6
DOT
 62
    47
 10
67.319702
 20
-4.970143
 11
68.819693
 21
-3.47015
  0
LINE
  8
03
  6
DOT
 62
    47
 10
69.17706
 20
-4.9984
 11
70.871985
 21
-3.303482
  0
LINE
  8
03
  6
DOT
 62
    47
 10
71.042752
 20
-4.97015
 11
71.042752
 21
-3.303482
  0
LINE
  8
03
  6
DOT
 62
    47
 10
67.042752
 20
-4.304283
 11
67.876885
 21
-3.47015
  0
ENDBLK
  0
BLOCK
  2
*GRP_0006
 70
    65
 10
0.0
 20
0.0
  0
LINE
  8
断面線01
  6
CONTINUOUS
 62
    47
 10
-55.626785
 20
-28.0368
 11
-63.126785
 21
-28.0368
  0
LINE
  8
断面線01
  6
CONTINUOUS
 62
    47
 10
-82.29345
 20
-28.870133
 11
-82.29345
 21
-32.870132
  0
LINE
  8
断面線01
  6
CONTINUOUS
 62
    47
 10
-76.626785
 20
-36.303482
 11
-77.29345
 21
-36.303482
  0
LINE
  8
断面線01
  6
CONTINUOUS
 62
    47
 10
-77.29345
 20
-32.870132
 11
-77.29345
 21
-36.303482
  0
LINE
  8
断面線01
  6
CONTINUOUS
 62
    47
 10
-73.460117
 20
-10.636817
 11
-73.460117
 21
-10.303482
  0
LINE
  8
断面線01
  6
CONTINUOUS
 62
    47
 10
-73.460117
 20
-10.303482
 11
-73.29345
 21
-10.136817
  0
LINE
  8
断面線01
  6
CONTINUOUS
 62
    47
 10
-73.460117
 20
-8.303482
 11
-73.29345
 21
-8.47015
  0
LINE
  8
断面線01
  6
CONTINUOUS
 62
    47
 10
-73.29345
 20
-10.136817
 11
-73.29345
 21
-8.47015
  0
LINE
  8
断面線01
  6
CONTINUOUS
 62
    47
 10
-73.460117
 20
-10.636817
 11
-74.29345
 21
-10.636817
  0
LINE
  8
断面線01
  6
CONTINUOUS
 62
    47
 10
-74.19345
 20
-9.303482
 11
-74.29345
 21
-9.203482
  0
LINE
  8
断面線01
  6
CONTINUOUS
 62
    47
 10
-74.19345
 20
-9.303482
 11
-74.29345
 21
-9.403482
  0
LINE
  8
断面線01
  6
CONTINUOUS
 62
    47
 10
-74.29345
 20
-9.403482
 11
-74.29345
 21
-10.636817
  0
LINE
  8
断面線01
  6
CONTINUOUS
 62
    47
 10
-61.626785
 20
-5.47015
 11
-60.79345
 21
-5.47015
  0
LINE
  8
断面線01
  6
CONTINUOUS
 62
    47
 10
-63.29345
 20
-5.47015
 11
-64.126785
 21
-5.47015
  0
LINE
  8
断面線01
  6
CONTINUOUS
 62
    47
 10
-63.29345
 20
-5.17015
 11
-63.29345
 21
-5.47015
  0
LINE
  8
断面線01
  6
CONTINUOUS
 62
    47
 10
-63.49345
 20
-4.97015
 11
-63.29345
 21
-5.17015
  0
LINE
  8
断面線01
  6
CONTINUOUS
 62
    47
 10
-61.626785
 20
-5.17015
 11
-61.626785
 21
-5.47015
  0
LINE
  8
断面線01
  6
CONTINUOUS
 62
    47
 10
-60.29345
 20
-4.97015
 11
-61.426785
 21
-4.97015
  0
LINE
  8
断面線01
  6
CONTINUOUS
 62
    47
 10
-61.626785
 20
-5.17015
 11
-61.426785
 21
-4.97015
  0
LINE
  8
断面線01
  6
CONTINUOUS
 62
    47
 10
-64.126785
 20
-6.636817
 11
-60.79345
 21
-6.636817
  0
LINE
  8
断面線01
  6
CONTINUOUS
 62
    47
 10
-64.126785
 20
-5.47015
 11
-64.126785
 21
-6.636817
  0
LINE
  8
断面線01
  6
CONTINUOUS
 62
    47
 10
-60.79345
 20
-5.47015
 11
-60.79345
 21
-6.636817
  0
LINE
  8
断面線01
  6
CONTINUOUS
 62
    47
 10
-60.29345
 20
-4.97015
 11
-60.29345
 21
-7.47015
  0
LINE
  8
断面線01
  6
CONTINUOUS
 62
    47
 10
-64.79345
 20
-27.203467
 11
-65.960117
 21
-27.203467
  0
LINE
  8
断面線01
  6
CONTINUOUS
 62
    47
 10
-64.226785
 20
-10.47015
 11
-64.126785
 21
-10.37015
  0
LINE
  8
断面線01
  6
CONTINUOUS
 62
    47
 10
-64.226785
 20
-10.47015
 11
-64.126785
 21
-10.57015
  0
LINE
  8
断面線01
  6
CONTINUOUS
 62
    47
 10
-64.226785
 20
-17.1368
 11
-64.126785
 21
-17.0368
  0
LINE
  8
断面線01
  6
CONTINUOUS
 62
    47
 10
-64.226785
 20
-17.1368
 11
-64.126785
 21
-17.2368
  0
LINE
  8
断面線01
  6
CONTINUOUS
 62
    47
 10
-64.126785
 20
-7.47015
 11
-64.126785
 21
-10.37015
  0
LINE
  8
断面線01
  6
CONTINUOUS
 62
    47
 10
-64.126785
 20
-10.57015
 11
-64.126785
 21
-17.0368
  0
LINE
  8
断面線01
  6
CONTINUOUS
 62
    47
 10
-60.29345
 20
-7.47015
 11
-64.126785
 21
-7.47015
  0
LINE
  8
断面線01
  6
CONTINUOUS
 62
    47
 10
-56.126785
 20
-27.203467
 11
-64.126785
 21
-27.203467
  0
LINE
  8
断面線01
  6
CONTINUOUS
 62
    47
 10
-70.360117
 20
-25.870133
 11
-70.460117
 21
-25.770132
  0
LINE
  8
断面線01
  6
CONTINUOUS
 62
    47
 10
-70.360117
 20
-25.870133
 11
-70.460117
 21
-25.970132
  0
LINE
  8
断面線01
  6
CONTINUOUS
 62
    47
 10
-70.460117
 20
-27.203467
 11
-70.460117
 21
-25.970132
  0
LINE
  8
断面線01
  6
CONTINUOUS
 62
    47
 10
-69.79345
 20
-27.203467
 11
-69.79345
 21
-7.47015
  0
LINE
  8
断面線01
  6
CONTINUOUS
 62
    47
 10
-66.460117
 20
-27.203467
 11
-69.79345
 21
-27.203467
  0
LINE
  8
断面線01
  6
CONTINUOUS
 62
    47
 10
-70.460117
 20
-27.203467
 11
-82.29345
 21
-28.870133
  0
LINE
  8
断面線01
  6
CONTINUOUS
 62
    47
 10
-63.79345
 20
-28.0368
 11
-70.401717
 21
-28.0368
  0
LINE
  8
断面線01
  6
CONTINUOUS
 62
    47
 10
-73.460117
 20
-8.303482
 11
-73.460117
 21
-7.9009
  0
LINE
  8
断面線01
  6
CONTINUOUS
 62
    47
 10
-73.460117
 20
-7.9009
 11
-70.460117
 21
-7.478367
  0
LINE
  8
断面線01
  6
CONTINUOUS
 62
    47
 10
-70.460117
 20
-25.770132
 11
-70.460117
 21
-7.478367
  0
LINE
  8
断面線01
  6
CONTINUOUS
 62
    47
 10
-74.29345
 20
-9.203482
 11
-74.29345
 21
-7.176717
  0
LINE
  8
断面線01
  6
CONTINUOUS
 62
    47
 10
-70.460117
 20
-6.636817
 11
-74.29345
 21
-7.176717
  0
LINE
  8
断面線01
  6
DASHDOT
 62
    47
 10
-73.29345
 20
-9.303482
 11
-74.29345
 21
-9.303482
  0
LINE
  8
断面線01
  6
CONTINUOUS
 62
    47
 10
-64.126785
 20
-27.203467
 11
-64.126785
 21
-17.2368
  0
LINE
  8
断面線01
  6
CONTINUOUS
 62
    47
 10
-67.126785
 20
-5.47015
 11
-67.960117
 21
-5.47015
  0
LINE
  8
断面線01
  6
CONTINUOUS
 62
    47
 10
-65.460117
 20
-5.17015
 11
-65.460117
 21
-5.47015
  0
LINE
  8
断面線01
  6
CONTINUOUS
 62
    47
 10
-67.126785
 20
-5.17015
 11
-67.126785
 21
-5.47015
  0
LINE
  8
断面線01
  6
CONTINUOUS
 62
    47
 10
-68.460117
 20
-4.97015
 11
-67.326785
 21
-4.97015
  0
LINE
  8
断面線01
  6
CONTINUOUS
 62
    47
 10
-67.126785
 20
-5.17015
 11
-67.326785
 21
-4.97015
  0
LINE
  8
断面線01
  6
CONTINUOUS
 62
    47
 10
-67.960117
 20
-5.47015
 11
-67.960117
 21
-6.636817
  0
LINE
  8
断面線01
  6
CONTINUOUS
 62
    47
 10
-65.460117
 20
-5.47015
 11
-64.626785
 21
-5.47015
  0
LINE
  8
断面線01
  6
CONTINUOUS
 62
    47
 10
-64.626785
 20
-6.636817
 11
-64.626785
 21
-5.47015
  0
LINE
  8
断面線01
  6
CONTINUOUS
 62
    47
 10
-65.460117
 20
-5.17015
 11
-65.260117
 21
-4.97015
  0
LINE
  8
断面線01
  6
CONTINUOUS
 62
    47
 10
-63.49345
 20
-4.97015
 11
-65.260117
 21
-4.97015
  0
LINE
  8
断面線01
  6
CONTINUOUS
 62
    47
 10
-68.460117
 20
-4.97015
 11
-68.460117
 21
-6.636817
  0
LINE
  8
断面線01
  6
CONTINUOUS
 62
    47
 10
-64.626785
 20
-6.636817
 11
-67.960117
 21
-6.636817
  0
LINE
  8
断面線01
  6
CONTINUOUS
 62
    47
 10
-68.460117
 20
-6.636817
 11
-70.460117
 21
-6.636817
  0
LINE
  8
断面線01
  6
CONTINUOUS
 62
    47
 10
-64.79345
 20
-27.203467
 11
-64.79345
 21
-7.47015
  0
LINE
  8
断面線01
  6
CONTINUOUS
 62
    47
 10
-69.79345
 20
-7.47015
 11
-64.79345
 21
-7.47015
  0
LINE
  8
断面線01
  6
CONTINUOUS
 62
    47
 10
-65.960117
 20
-27.203467
 11
-65.960117
 21
-26.6368
  0
LINE
  8
断面線01
  6
CONTINUOUS
 62
    47
 10
-65.960117
 20
-26.6368
 11
-66.460117
 21
-26.6368
  0
LINE
  8
断面線01
  6
CONTINUOUS
 62
    47
 10
-66.460117
 20
-27.203467
 11
-66.460117
 21
-26.6368
  0
LINE
  8
断面線01
  6
CONTINUOUS
 62
    47
 10
-56.126785
 20
-27.203467
 11
-56.126785
 21
-24.97015
  0
LINE
  8
断面線01
  6
CONTINUOUS
 62
    47
 10
-56.126785
 20
-24.97015
 11
-55.626785
 21
-24.97015
  0
LINE
  8
断面線01
  6
CONTINUOUS
 62
    47
 10
-55.626785
 20
-28.0368
 11
-55.626785
 21
-24.97015
  0
LINE
  8
断面線01
  6
CONTINUOUS
 62
    47
 10
-81.626785
 20
-32.203467
 11
-73.29345
 21
-32.203467
  0
LINE
  8
断面線01
  6
CONTINUOUS
 62
    47
 10
-73.29345
 20
-32.203467
 11
-73.29345
 21
-32.870132
  0
LINE
  8
断面線01
  6
CONTINUOUS
 62
    47
 10
-76.626785
 20
-36.303482
 11
-76.626785
 21
-32.870132
  0
LINE
  8
断面線01
  6
CONTINUOUS
 62
    47
 10
-82.29345
 20
-32.870132
 11
-77.29345
 21
-32.870132
  0
LINE
  8
断面線01
  6
CONTINUOUS
 62
    47
 10
-76.626785
 20
-32.870132
 11
-73.29345
 21
-32.870132
  0
LINE
  8
断面線01
  6
CONTINUOUS
 62
    47
 10
-63.126785
 20
-28.0368
 11
-63.126785
 21
-32.870132
  0
LINE
  8
断面線01
  6
CONTINUOUS
 62
    47
 10
-66.460117
 20
-32.203467
 11
-66.460117
 21
-32.870132
  0
LINE
  8
断面線01
  6
CONTINUOUS
 62
    47
 10
-66.460117
 20
-32.203467
 11
-63.79345
 21
-32.203467
  0
LINE
  8
断面線01
  6
CONTINUOUS
 62
    47
 10
-66.460117
 20
-32.870132
 11
-63.126785
 21
-32.870132
  0
LINE
  8
断面線01
  6
CONTINUOUS
 62
    47
 10
-63.79345
 20
-28.0368
 11
-63.79345
 21
-32.203467
  0
LINE
  8
断面線01
  6
CONTINUOUS
 62
    47
 10
-70.401717
 20
-28.0368
 11
-81.626785
 21
-29.6178
  0
LINE
  8
断面線01
  6
CONTINUOUS
 62
    47
 10
-81.626785
 20
-32.203467
 11
-81.626785
 21
-29.6178
  0
ENDBLK
  0
BLOCK
  2
*GRP_0007
 70
    65
 10
0.0
 20
0.0
  0
LINE
  8
断面線01
  6
CONTINUOUS
 62
    47
 10
-60.29345
 20
0.963183
 11
-64.626785
 21
0.963183
  0
LINE
  8
断面線01
  6
CONTINUOUS
 62
    47
 10
-64.626785
 20
0.963183
 11
-64.626785
 21
1.196515
  0
LINE
  8
断面線01
  6
CONTINUOUS
 62
    47
 10
-70.626785
 20
-2.636817
 11
-74.29345
 21
-2.636817
  0
ARC
  8
断面線01
  6
CONTINUOUS
 62
    47
 10
-73.293465
 20
0.363204
 40
1.666667
 50
90.0
 51
180.0
  0
LINE
  8
断面線01
  6
CONTINUOUS
 62
    47
 10
-69.960117
 20
-1.97015
 11
-74.126785
 21
-1.97015
  0
LINE
  8
断面線01
  6
CONTINUOUS
 62
    47
 10
-69.960117
 20
-1.97015
 11
-69.960117
 21
-6.636817
  0
LINE
  8
断面線01
  6
CONTINUOUS
 62
    47
 10
-70.626785
 20
-2.636817
 11
-70.626785
 21
-6.636817
  0
LINE
  8
断面線01
  6
CONTINUOUS
 62
    47
 10
-70.626785
 20
-6.636817
 11
-69.960117
 21
-6.636817
  0
LINE
  8
断面線01
  6
CONTINUOUS
 62
    47
 10
-60.29345
 20
1.863183
 11
-60.29345
 21
0.963183
  0
ARC
  8
断面線01
  6
CONTINUOUS
 62
    47
 10
-60.46013
 20
1.863204
 40
0.166667
 50
0.0
 51
90.0
  0
LINE
  8
断面線01
  6
CONTINUOUS
 62
    47
 10
-74.860117
 20
-13.303485
 11
-74.960117
 21
-13.203485
  0
LINE
  8
断面線01
  6
CONTINUOUS
 62
    47
 10
-74.860117
 20
-13.303485
 11
-74.960117
 21
-13.403485
  0
LINE
  8
断面線01
  6
CONTINUOUS
 62
    47
 10
-74.860117
 20
-11.303485
 11
-74.960117
 21
-11.203485
  0
LINE
  8
断面線01
  6
CONTINUOUS
 62
    47
 10
-74.860117
 20
-11.303485
 11
-74.960117
 21
-11.403485
  0
LINE
  8
断面線01
  6
CONTINUOUS
 62
    47
 10
-74.860117
 20
-10.37015
 11
-74.960117
 21
-10.27015
  0
LINE
  8
断面線01
  6
CONTINUOUS
 62
    47
 10
-74.860117
 20
-10.37015
 11
-74.960117
 21
-10.47015
  0
LINE
  8
断面線01
  6
CONTINUOUS
 62
    47
 10
-74.860117
 20
-9.303485
 11
-74.960117
 21
-9.203485
  0
LINE
  8
断面線01
  6
CONTINUOUS
 62
    47
 10
-74.860117
 20
-9.303485
 11
-74.960117
 21
-9.403485
  0
LINE
  8
断面線01
  6
CONTINUOUS
 62
    47
 10
-67.29345
 20
1.92985
 11
-67.19345
 21
2.02985
  0
LINE
  8
断面線01
  6
CONTINUOUS
 62
    47
 10
-67.29345
 20
1.92985
 11
-67.39345
 21
2.02985
  0
LINE
  8
断面線01
  6
CONTINUOUS
 62
    47
 10
-74.960117
 20
-11.403485
 11
-74.960117
 21
-13.203485
  0
LINE
  8
断面線01
  6
CONTINUOUS
 62
    47
 10
-74.960117
 20
-10.47015
 11
-74.960117
 21
-11.203485
  0
LINE
  8
断面線01
  6
CONTINUOUS
 62
    47
 10
-74.960117
 20
0.363183
 11
-74.960117
 21
-9.203485
  0
LINE
  8
断面線01
  6
CONTINUOUS
 62
    47
 10
-74.960117
 20
-9.403485
 11
-74.960117
 21
-10.27015
  0
LINE
  8
断面線01
  6
CONTINUOUS
 62
    47
 10
-73.29345
 20
2.02985
 11
-67.39345
 21
2.02985
  0
LINE
  8
断面線01
  6
CONTINUOUS
 62
    47
 10
-67.19345
 20
2.02985
 11
-60.460117
 21
2.02985
  0
LINE
  8
断面線01
  6
CONTINUOUS
 62
    47
 10
-74.960117
 20
-13.403485
 11
-74.960117
 21
-15.97015
  0
LINE
  8
断面線01
  6
CONTINUOUS
 62
    47
 10
-65.960117
 20
0.963183
 11
-65.726785
 21
1.196515
  0
LINE
  8
断面線01
  6
CONTINUOUS
 62
    47
 10
-64.626785
 20
1.196515
 11
-65.726785
 21
1.196515
  0
LINE
  8
断面線01
  6
CONTINUOUS
 62
    47
 10
-68.626785
 20
0.963183
 11
-68.860117
 21
1.196515
  0
LINE
  8
断面線01
  6
CONTINUOUS
 62
    47
 10
-74.460117
 20
-15.303485
 11
-70.626785
 21
-15.303485
  0
LINE
  8
断面線01
  6
CONTINUOUS
 62
    47
 10
-74.460117
 20
-15.303485
 11
-74.460117
 21
-15.97015
  0
LINE
  8
断面線01
  6
CONTINUOUS
 62
    47
 10
-74.960117
 20
-15.97015
 11
-74.460117
 21
-15.97015
  0
LINE
  8
断面線01
  6
CONTINUOUS
 62
    47
 10
-70.626785
 20
-15.303485
 11
-70.626785
 21
-13.97015
  0
LINE
  8
断面線01
  6
CONTINUOUS
 62
    47
 10
-72.680868
 20
-14.636817
 11
-74.29345
 21
-14.636817
  0
LINE
  8
断面線01
  6
CONTINUOUS
 62
    47
 10
-72.406017
 20
1.196515
 11
-68.860117
 21
1.196515
  0
LINE
  8
断面線01
  6
CONTINUOUS
 62
    47
 10
-74.126785
 20
-0.524235
 11
-74.126785
 21
-1.97015
  0
LINE
  8
断面線01
  6
CONTINUOUS
 62
    47
 10
-74.29345
 20
-2.636817
 11
-74.29345
 21
-4.5127
  0
LINE
  8
断面線01
  6
CONTINUOUS
 62
    47
 10
-74.29345
 20
-6.427567
 11
-74.29345
 21
-14.636817
  0
ARC
  8
断面線01
  6
CONTINUOUS
 62
    47
 10
-72.179372
 20
-13.346356
 40
0.166667
 50
30.00004
 51
131.536964
  0
LINE
  8
断面線01
  6
CONTINUOUS
 62
    47
 10
-71.9924
 20
-13.336867
 11
-72.035017
 21
-13.263035
  0
ARC
  8
断面線01
  6
CONTINUOUS
 62
    47
 10
-72.136747
 20
-13.420184
 40
0.166667
 50
312.839522
 51
390.000045
  0
ARC
  8
断面線01
  6
CONTINUOUS
 62
    47
 10
-71.626787
 20
-13.97013
 40
0.583333
 50
132.839522
 51
407.160342
  0
ARC
  8
断面線01
  6
CONTINUOUS
 62
    47
 10
-71.116825
 20
-13.420185
 40
0.166667
 50
150.000074
 51
227.160342
  0
LINE
  8
断面線01
  6
CONTINUOUS
 62
    47
 10
-71.26115
 20
-13.336867
 11
-71.218535
 21
-13.263035
  0
ARC
  8
断面線01
  6
CONTINUOUS
 62
    47
 10
-71.0742
 20
-13.346356
 40
0.166667
 50
48.463
 51
150.000119
  0
ARC
  8
断面線01
  6
CONTINUOUS
 62
    47
 10
-71.626786
 20
-13.970129
 40
1.0
 50
0.0
 51
48.463
  0
ARC
  8
断面線01
  6
CONTINUOUS
 62
    47
 10
-71.626786
 20
-13.970129
 40
1.0
 50
131.536964
 51
205.376934
  0
ARC
  8
断面線01
  6
CONTINUOUS
 62
    47
 10
-72.680879
 20
-14.470129
 40
0.166667
 50
-90.0
 51
25.376934
  0
ARC
  8
断面線01
  6
CONTINUOUS
 62
    47
 10
-72.628314
 20
0.479539
 40
0.166667
 50
255.00004
 51
356.536964
  0
LINE
  8
断面線01
  6
CONTINUOUS
 62
    47
 10
-72.753785
 20
0.3406
 11
-72.671435
 21
0.318533
  0
ARC
  8
断面線01
  6
CONTINUOUS
 62
    47
 10
-72.710658
 20
0.501603
 40
0.166667
 50
177.839522
 51
255.000045
  0
ARC
  8
断面線01
  6
CONTINUOUS
 62
    47
 10
-73.460125
 20
0.529877
 40
0.583333
 50
357.839522
 51
632.160342
  0
ARC
  8
断面線01
  6
CONTINUOUS
 62
    47
 10
-73.431853
 20
-0.21959
 40
0.166667
 50
15.000074
 51
92.160342
  0
LINE
  8
断面線01
  6
CONTINUOUS
 62
    47
 10
-73.27085
 20
-0.176468
 11
-73.2488
 21
-0.258817
  0
ARC
  8
断面線01
  6
CONTINUOUS
 62
    47
 10
-73.409789
 20
-0.301935
 40
0.166667
 50
273.463
 51
375.000119
  0
ARC
  8
断面線01
  6
CONTINUOUS
 62
    47
 10
-67.846038
 20
-0.260567
 40
0.166667
 50
228.463036
 51
329.99996
  0
LINE
  8
断面線01
  6
CONTINUOUS
 62
    47
 10
-67.659068
 20
-0.270085
 11
-67.701685
 21
-0.343918
  0
ARC
  8
断面線01
  6
CONTINUOUS
 62
    47
 10
-67.803414
 20
-0.186739
 40
0.166667
 50
329.999955
 51
407.160478
  0
ARC
  8
断面線01
  6
CONTINUOUS
 62
    47
 10
-67.293453
 20
0.363207
 40
0.583333
 50
312.839658
 51
587.160478
  0
ARC
  8
断面線01
  6
CONTINUOUS
 62
    47
 10
-66.783491
 20
-0.186737
 40
0.166667
 50
132.839658
 51
209.999926
  0
LINE
  8
断面線01
  6
CONTINUOUS
 62
    47
 10
-66.927818
 20
-0.270085
 11
-66.8852
 21
-0.343918
  0
ARC
  8
断面線01
  6
CONTINUOUS
 62
    47
 10
-66.740866
 20
-0.260566
 40
0.166667
 50
209.999881
 51
311.537
  0
ARC
  8
断面線01
  6
CONTINUOUS
 62
    47
 10
-72.836359
 20
-4.917535
 40
0.166667
 50
-59.99996
 51
41.536964
  0
LINE
  8
断面線01
  6
CONTINUOUS
 62
    47
 10
-72.82685
 20
-5.104518
 11
-72.753017
 21
-5.061885
  0
ARC
  8
断面線01
  6
CONTINUOUS
 62
    47
 10
-72.910187
 20
-4.96016
 40
0.166667
 50
222.839522
 51
300.000045
  0
ARC
  8
断面線01
  6
CONTINUOUS
 62
    47
 10
-73.460133
 20
-5.47012
 40
0.583333
 50
42.839522
 51
317.160342
  0
ARC
  8
断面線01
  6
CONTINUOUS
 62
    47
 10
-72.910188
 20
-5.980082
 40
0.166667
 50
60.000074
 51
137.160342
  0
LINE
  8
断面線01
  6
CONTINUOUS
 62
    47
 10
-72.82685
 20
-5.835768
 11
-72.753017
 21
-5.878385
  0
ARC
  8
断面線01
  6
CONTINUOUS
 62
    47
 10
-72.836359
 20
-6.022707
 40
0.166667
 50
318.463
 51
420.000119
  0
LINE
  8
断面線01
  6
CONTINUOUS
 62
    47
 10
-68.626785
 20
0.963183
 11
-68.37665
 21
0.963183
  0
ARC
  8
断面線01
  6
CONTINUOUS
 62
    47
 10
-67.293453
 20
0.363207
 40
1.0
 50
158.196392
 51
228.463036
  0
ARC
  8
断面線01
  6
CONTINUOUS
 62
    47
 10
-68.376659
 20
0.796537
 40
0.166667
 50
338.196392
 51
450.0
  0
ARC
  8
断面線01
  6
CONTINUOUS
 62
    47
 10
-67.293453
 20
0.363207
 40
1.0
 50
311.537
 51
381.803608
  0
ARC
  8
断面線01
  6
CONTINUOUS
 62
    47
 10
-66.210246
 20
0.796537
 40
0.166667
 50
90.0
 51
201.803608
  0
ARC
  8
断面線01
  6
CONTINUOUS
 62
    47
 10
-73.460125
 20
0.529876
 40
1.0
 50
356.536964
 51
385.37662
  0
ARC
  8
断面線01
  6
CONTINUOUS
 62
    47
 10
-72.40603
 20
1.029871
 40
0.166667
 50
90.0
 51
205.37662
  0
ARC
  8
断面線01
  6
CONTINUOUS
 62
    47
 10
-73.460125
 20
0.529876
 40
1.0
 50
244.622757
 51
273.463
  0
ARC
  8
断面線01
  6
CONTINUOUS
 62
    47
 10
-73.960131
 20
-0.524213
 40
0.166667
 50
64.622757
 51
180.0
  0
ARC
  8
断面線01
  6
CONTINUOUS
 62
    47
 10
-73.460132
 20
-5.470121
 40
1.0
 50
41.536964
 51
124.849845
  0
ARC
  8
断面線01
  6
CONTINUOUS
 62
    47
 10
-74.126798
 20
-4.512693
 40
0.166667
 50
180.0
 51
304.849845
  0
ARC
  8
断面線01
  6
CONTINUOUS
 62
    47
 10
-73.460132
 20
-5.470121
 40
1.0
 50
235.150155
 51
318.463
  0
ARC
  8
断面線01
  6
CONTINUOUS
 62
    47
 10
-74.126798
 20
-6.427549
 40
0.166667
 50
55.150155
 51
180.0
  0
LINE
  8
断面線01
  6
CONTINUOUS
 62
    47
 10
-65.960117
 20
0.963183
 11
-66.210235
 21
0.963183
  0
ENDBLK
  0
BLOCK
  2
*GRP_0008
 70
    65
 10
0.0
 20
0.0
  0
LINE
  8
断面線01
  6
CONTINUOUS
 62
    47
 10
62.20942
 20
-28.0368
 11
69.70942
 21
-28.0368
  0
LINE
  8
断面線01
  6
CONTINUOUS
 62
    47
 10
88.876085
 20
-28.870133
 11
88.876085
 21
-32.870132
  0
LINE
  8
断面線01
  6
CONTINUOUS
 62
    47
 10
83.20942
 20
-36.303482
 11
83.876085
 21
-36.303482
  0
LINE
  8
断面線01
  6
CONTINUOUS
 62
    47
 10
83.876085
 20
-32.870132
 11
83.876085
 21
-36.303482
  0
LINE
  8
断面線01
  6
CONTINUOUS
 62
    47
 10
80.042752
 20
-10.636817
 11
80.042752
 21
-10.303482
  0
LINE
  8
断面線01
  6
CONTINUOUS
 62
    47
 10
80.042752
 20
-10.303482
 11
79.876085
 21
-10.136817
  0
LINE
  8
断面線01
  6
CONTINUOUS
 62
    47
 10
80.042752
 20
-8.303482
 11
79.876085
 21
-8.47015
  0
LINE
  8
断面線01
  6
CONTINUOUS
 62
    47
 10
79.876085
 20
-10.136817
 11
79.876085
 21
-8.47015
  0
LINE
  8
断面線01
  6
CONTINUOUS
 62
    47
 10
80.042752
 20
-10.636817
 11
80.876085
 21
-10.636817
  0
LINE
  8
断面線01
  6
CONTINUOUS
 62
    47
 10
80.776085
 20
-9.303482
 11
80.876085
 21
-9.203482
  0
LINE
  8
断面線01
  6
CONTINUOUS
 62
    47
 10
80.776085
 20
-9.303482
 11
80.876085
 21
-9.403482
  0
LINE
  8
断面線01
  6
CONTINUOUS
 62
    47
 10
80.876085
 20
-9.403482
 11
80.876085
 21
-10.636817
  0
LINE
  8
断面線01
  6
CONTINUOUS
 62
    47
 10
68.20942
 20
-5.47015
 11
67.376085
 21
-5.47015
  0
LINE
  8
断面線01
  6
CONTINUOUS
 62
    47
 10
69.876085
 20
-5.47015
 11
70.70942
 21
-5.47015
  0
LINE
  8
断面線01
  6
CONTINUOUS
 62
    47
 10
69.876085
 20
-5.17015
 11
69.876085
 21
-5.47015
  0
LINE
  8
断面線01
  6
CONTINUOUS
 62
    47
 10
70.076085
 20
-4.97015
 11
69.876085
 21
-5.17015
  0
LINE
  8
断面線01
  6
CONTINUOUS
 62
    47
 10
68.20942
 20
-5.17015
 11
68.20942
 21
-5.47015
  0
LINE
  8
断面線01
  6
CONTINUOUS
 62
    47
 10
66.876085
 20
-4.97015
 11
68.00942
 21
-4.97015
  0
LINE
  8
断面線01
  6
CONTINUOUS
 62
    47
 10
68.20942
 20
-5.17015
 11
68.00942
 21
-4.97015
  0
LINE
  8
断面線01
  6
CONTINUOUS
 62
    47
 10
70.70942
 20
-6.636817
 11
67.376085
 21
-6.636817
  0
LINE
  8
断面線01
  6
CONTINUOUS
 62
    47
 10
70.70942
 20
-5.47015
 11
70.70942
 21
-6.636817
  0
LINE
  8
断面線01
  6
CONTINUOUS
 62
    47
 10
67.376085
 20
-5.47015
 11
67.376085
 21
-6.636817
  0
LINE
  8
断面線01
  6
CONTINUOUS
 62
    47
 10
66.876085
 20
-4.97015
 11
66.876085
 21
-7.47015
  0
LINE
  8
断面線01
  6
CONTINUOUS
 62
    47
 10
71.376085
 20
-27.203467
 11
72.542752
 21
-27.203467
  0
LINE
  8
断面線01
  6
CONTINUOUS
 62
    47
 10
70.80942
 20
-10.47015
 11
70.70942
 21
-10.37015
  0
LINE
  8
断面線01
  6
CONTINUOUS
 62
    47
 10
70.80942
 20
-10.47015
 11
70.70942
 21
-10.57015
  0
LINE
  8
断面線01
  6
CONTINUOUS
 62
    47
 10
70.80942
 20
-17.1368
 11
70.70942
 21
-17.0368
  0
LINE
  8
断面線01
  6
CONTINUOUS
 62
    47
 10
70.80942
 20
-17.1368
 11
70.70942
 21
-17.2368
  0
LINE
  8
断面線01
  6
CONTINUOUS
 62
    47
 10
70.70942
 20
-7.47015
 11
70.70942
 21
-10.37015
  0
LINE
  8
断面線01
  6
CONTINUOUS
 62
    47
 10
70.70942
 20
-10.57015
 11
70.70942
 21
-17.0368
  0
LINE
  8
断面線01
  6
CONTINUOUS
 62
    47
 10
66.876085
 20
-7.47015
 11
70.70942
 21
-7.47015
  0
LINE
  8
断面線01
  6
CONTINUOUS
 62
    47
 10
62.70942
 20
-27.203467
 11
70.70942
 21
-27.203467
  0
LINE
  8
断面線01
  6
CONTINUOUS
 62
    47
 10
76.942752
 20
-25.870133
 11
77.042752
 21
-25.770132
  0
LINE
  8
断面線01
  6
CONTINUOUS
 62
    47
 10
76.942752
 20
-25.870133
 11
77.042752
 21
-25.970132
  0
LINE
  8
断面線01
  6
CONTINUOUS
 62
    47
 10
77.042752
 20
-27.203467
 11
77.042752
 21
-25.970132
  0
LINE
  8
断面線01
  6
CONTINUOUS
 62
    47
 10
76.376085
 20
-27.203467
 11
76.376085
 21
-7.47015
  0
LINE
  8
断面線01
  6
CONTINUOUS
 62
    47
 10
73.042752
 20
-27.203467
 11
76.376085
 21
-27.203467
  0
LINE
  8
断面線01
  6
CONTINUOUS
 62
    47
 10
77.042752
 20
-27.203467
 11
88.876085
 21
-28.870133
  0
LINE
  8
断面線01
  6
CONTINUOUS
 62
    47
 10
70.376085
 20
-28.0368
 11
76.984353
 21
-28.0368
  0
LINE
  8
断面線01
  6
CONTINUOUS
 62
    47
 10
80.042752
 20
-8.303482
 11
80.042752
 21
-7.9009
  0
LINE
  8
断面線01
  6
CONTINUOUS
 62
    47
 10
80.042752
 20
-7.9009
 11
77.042752
 21
-7.478367
  0
LINE
  8
断面線01
  6
CONTINUOUS
 62
    47
 10
77.042752
 20
-25.770132
 11
77.042752
 21
-7.478367
  0
LINE
  8
断面線01
  6
CONTINUOUS
 62
    47
 10
80.876085
 20
-9.203482
 11
80.876085
 21
-7.176717
  0
LINE
  8
断面線01
  6
CONTINUOUS
 62
    47
 10
77.042752
 20
-6.636817
 11
80.876085
 21
-7.176717
  0
LINE
  8
断面線01
  6
DASHDOT
 62
    47
 10
79.876085
 20
-9.303482
 11
80.876085
 21
-9.303482
  0
LINE
  8
断面線01
  6
CONTINUOUS
 62
    47
 10
70.70942
 20
-27.203467
 11
70.70942
 21
-17.2368
  0
LINE
  8
断面線01
  6
CONTINUOUS
 62
    47
 10
73.70942
 20
-5.47015
 11
74.542752
 21
-5.47015
  0
LINE
  8
断面線01
  6
CONTINUOUS
 62
    47
 10
72.042752
 20
-5.17015
 11
72.042752
 21
-5.47015
  0
LINE
  8
断面線01
  6
CONTINUOUS
 62
    47
 10
73.70942
 20
-5.17015
 11
73.70942
 21
-5.47015
  0
LINE
  8
断面線01
  6
CONTINUOUS
 62
    47
 10
75.042752
 20
-4.97015
 11
73.90942
 21
-4.97015
  0
LINE
  8
断面線01
  6
CONTINUOUS
 62
    47
 10
73.70942
 20
-5.17015
 11
73.90942
 21
-4.97015
  0
LINE
  8
断面線01
  6
CONTINUOUS
 62
    47
 10
74.542752
 20
-5.47015
 11
74.542752
 21
-6.636817
  0
LINE
  8
断面線01
  6
CONTINUOUS
 62
    47
 10
72.042752
 20
-5.47015
 11
71.20942
 21
-5.47015
  0
LINE
  8
断面線01
  6
CONTINUOUS
 62
    47
 10
71.20942
 20
-6.636817
 11
71.20942
 21
-5.47015
  0
LINE
  8
断面線01
  6
CONTINUOUS
 62
    47
 10
72.042752
 20
-5.17015
 11
71.842752
 21
-4.97015
  0
LINE
  8
断面線01
  6
CONTINUOUS
 62
    47
 10
70.076085
 20
-4.97015
 11
71.842752
 21
-4.97015
  0
LINE
  8
断面線01
  6
CONTINUOUS
 62
    47
 10
75.042752
 20
-4.97015
 11
75.042752
 21
-6.636817
  0
LINE
  8
断面線01
  6
CONTINUOUS
 62
    47
 10
71.20942
 20
-6.636817
 11
74.542752
 21
-6.636817
  0
LINE
  8
断面線01
  6
CONTINUOUS
 62
    47
 10
75.042752
 20
-6.636817
 11
77.042752
 21
-6.636817
  0
LINE
  8
断面線01
  6
CONTINUOUS
 62
    47
 10
71.376085
 20
-27.203467
 11
71.376085
 21
-7.47015
  0
LINE
  8
断面線01
  6
CONTINUOUS
 62
    47
 10
76.376085
 20
-7.47015
 11
71.376085
 21
-7.47015
  0
LINE
  8
断面線01
  6
CONTINUOUS
 62
    47
 10
72.542752
 20
-27.203467
 11
72.542752
 21
-26.6368
  0
LINE
  8
断面線01
  6
CONTINUOUS
 62
    47
 10
72.542752
 20
-26.6368
 11
73.042752
 21
-26.6368
  0
LINE
  8
断面線01
  6
CONTINUOUS
 62
    47
 10
73.042752
 20
-27.203467
 11
73.042752
 21
-26.6368
  0
LINE
  8
断面線01
  6
CONTINUOUS
 62
    47
 10
62.70942
 20
-27.203467
 11
62.70942
 21
-24.97015
  0
LINE
  8
断面線01
  6
CONTINUOUS
 62
    47
 10
62.70942
 20
-24.97015
 11
62.20942
 21
-24.97015
  0
LINE
  8
断面線01
  6
CONTINUOUS
 62
    47
 10
62.20942
 20
-28.0368
 11
62.20942
 21
-24.97015
  0
LINE
  8
断面線01
  6
CONTINUOUS
 62
    47
 10
88.20942
 20
-32.203467
 11
79.876085
 21
-32.203467
  0
LINE
  8
断面線01
  6
CONTINUOUS
 62
    47
 10
79.876085
 20
-32.203467
 11
79.876085
 21
-32.870132
  0
LINE
  8
断面線01
  6
CONTINUOUS
 62
    47
 10
83.20942
 20
-36.303482
 11
83.20942
 21
-32.870132
  0
LINE
  8
断面線01
  6
CONTINUOUS
 62
    47
 10
88.876085
 20
-32.870132
 11
83.876085
 21
-32.870132
  0
LINE
  8
断面線01
  6
CONTINUOUS
 62
    47
 10
83.20942
 20
-32.870132
 11
79.876085
 21
-32.870132
  0
LINE
  8
断面線01
  6
CONTINUOUS
 62
    47
 10
69.70942
 20
-28.0368
 11
69.70942
 21
-32.870132
  0
LINE
  8
断面線01
  6
CONTINUOUS
 62
    47
 10
73.042752
 20
-32.203467
 11
73.042752
 21
-32.870132
  0
LINE
  8
断面線01
  6
CONTINUOUS
 62
    47
 10
73.042752
 20
-32.203467
 11
70.376085
 21
-32.203467
  0
LINE
  8
断面線01
  6
CONTINUOUS
 62
    47
 10
73.042752
 20
-32.870132
 11
69.70942
 21
-32.870132
  0
LINE
  8
断面線01
  6
CONTINUOUS
 62
    47
 10
70.376085
 20
-28.0368
 11
70.376085
 21
-32.203467
  0
LINE
  8
断面線01
  6
CONTINUOUS
 62
    47
 10
76.984353
 20
-28.0368
 11
88.20942
 21
-29.6178
  0
LINE
  8
断面線01
  6
CONTINUOUS
 62
    47
 10
88.20942
 20
-32.203467
 11
88.20942
 21
-29.6178
  0
ENDBLK
  0
BLOCK
  2
*GRP_0009
 70
    65
 10
0.0
 20
0.0
  0
LINE
  8
断面線01
  6
CONTINUOUS
 62
    47
 10
66.876085
 20
0.963183
 11
71.20942
 21
0.963183
  0
LINE
  8
断面線01
  6
CONTINUOUS
 62
    47
 10
71.20942
 20
0.963183
 11
71.20942
 21
1.196515
  0
LINE
  8
断面線01
  6
CONTINUOUS
 62
    47
 10
77.20942
 20
-2.636817
 11
80.876085
 21
-2.636817
  0
ARC
  8
断面線01
  6
CONTINUOUS
 62
    47
 10
79.8761
 20
0.363204
 40
1.666667
 50
0.0
 51
90.0
  0
LINE
  8
断面線01
  6
CONTINUOUS
 62
    47
 10
76.542752
 20
-1.97015
 11
80.70942
 21
-1.97015
  0
LINE
  8
断面線01
  6
CONTINUOUS
 62
    47
 10
76.542752
 20
-1.97015
 11
76.542752
 21
-6.636817
  0
LINE
  8
断面線01
  6
CONTINUOUS
 62
    47
 10
77.20942
 20
-2.636817
 11
77.20942
 21
-6.636817
  0
LINE
  8
断面線01
  6
CONTINUOUS
 62
    47
 10
77.20942
 20
-6.636817
 11
76.542752
 21
-6.636817
  0
LINE
  8
断面線01
  6
CONTINUOUS
 62
    47
 10
66.876085
 20
1.863183
 11
66.876085
 21
0.963183
  0
ARC
  8
断面線01
  6
CONTINUOUS
 62
    47
 10
67.042765
 20
1.863204
 40
0.166667
 50
90.0
 51
180.0
  0
LINE
  8
断面線01
  6
CONTINUOUS
 62
    47
 10
81.442752
 20
-13.303485
 11
81.542752
 21
-13.203485
  0
LINE
  8
断面線01
  6
CONTINUOUS
 62
    47
 10
81.442752
 20
-13.303485
 11
81.542752
 21
-13.403485
  0
LINE
  8
断面線01
  6
CONTINUOUS
 62
    47
 10
81.442752
 20
-11.303485
 11
81.542752
 21
-11.203485
  0
LINE
  8
断面線01
  6
CONTINUOUS
 62
    47
 10
81.442752
 20
-11.303485
 11
81.542752
 21
-11.403485
  0
LINE
  8
断面線01
  6
CONTINUOUS
 62
    47
 10
81.442752
 20
-10.37015
 11
81.542752
 21
-10.27015
  0
LINE
  8
断面線01
  6
CONTINUOUS
 62
    47
 10
81.442752
 20
-10.37015
 11
81.542752
 21
-10.47015
  0
LINE
  8
断面線01
  6
CONTINUOUS
 62
    47
 10
81.442752
 20
-9.303485
 11
81.542752
 21
-9.203485
  0
LINE
  8
断面線01
  6
CONTINUOUS
 62
    47
 10
81.442752
 20
-9.303485
 11
81.542752
 21
-9.403485
  0
LINE
  8
断面線01
  6
CONTINUOUS
 62
    47
 10
73.876085
 20
1.92985
 11
73.776085
 21
2.02985
  0
LINE
  8
断面線01
  6
CONTINUOUS
 62
    47
 10
73.876085
 20
1.92985
 11
73.976085
 21
2.02985
  0
LINE
  8
断面線01
  6
CONTINUOUS
 62
    47
 10
81.542752
 20
-11.403485
 11
81.542752
 21
-13.203485
  0
LINE
  8
断面線01
  6
CONTINUOUS
 62
    47
 10
81.542752
 20
-10.47015
 11
81.542752
 21
-11.203485
  0
LINE
  8
断面線01
  6
CONTINUOUS
 62
    47
 10
81.542752
 20
0.363183
 11
81.542752
 21
-9.203485
  0
LINE
  8
断面線01
  6
CONTINUOUS
 62
    47
 10
81.542752
 20
-9.403485
 11
81.542752
 21
-10.27015
  0
LINE
  8
断面線01
  6
CONTINUOUS
 62
    47
 10
79.876085
 20
2.02985
 11
73.976085
 21
2.02985
  0
LINE
  8
断面線01
  6
CONTINUOUS
 62
    47
 10
73.776085
 20
2.02985
 11
67.042752
 21
2.02985
  0
LINE
  8
断面線01
  6
CONTINUOUS
 62
    47
 10
81.542752
 20
-13.403485
 11
81.542752
 21
-15.97015
  0
LINE
  8
断面線01
  6
CONTINUOUS
 62
    47
 10
72.542752
 20
0.963183
 11
72.30942
 21
1.196515
  0
LINE
  8
断面線01
  6
CONTINUOUS
 62
    47
 10
71.20942
 20
1.196515
 11
72.30942
 21
1.196515
  0
LINE
  8
断面線01
  6
CONTINUOUS
 62
    47
 10
75.20942
 20
0.963183
 11
75.442752
 21
1.196515
  0
LINE
  8
断面線01
  6
CONTINUOUS
 62
    47
 10
81.042752
 20
-15.303485
 11
77.20942
 21
-15.303485
  0
LINE
  8
断面線01
  6
CONTINUOUS
 62
    47
 10
81.042752
 20
-15.303485
 11
81.042752
 21
-15.97015
  0
LINE
  8
断面線01
  6
CONTINUOUS
 62
    47
 10
81.542752
 20
-15.97015
 11
81.042752
 21
-15.97015
  0
LINE
  8
断面線01
  6
CONTINUOUS
 62
    47
 10
77.20942
 20
-15.303485
 11
77.20942
 21
-13.97015
  0
LINE
  8
断面線01
  6
CONTINUOUS
 62
    47
 10
79.263502
 20
-14.636817
 11
80.876085
 21
-14.636817
  0
LINE
  8
断面線01
  6
CONTINUOUS
 62
    47
 10
78.988652
 20
1.196515
 11
75.442752
 21
1.196515
  0
LINE
  8
断面線01
  6
CONTINUOUS
 62
    47
 10
80.70942
 20
-0.524235
 11
80.70942
 21
-1.97015
  0
LINE
  8
断面線01
  6
CONTINUOUS
 62
    47
 10
80.876085
 20
-2.636817
 11
80.876085
 21
-4.5127
  0
LINE
  8
断面線01
  6
CONTINUOUS
 62
    47
 10
80.876085
 20
-6.427567
 11
80.876085
 21
-14.636817
  0
ARC
  8
断面線01
  6
CONTINUOUS
 62
    47
 10
78.762007
 20
-13.346356
 40
0.166667
 50
48.463036
 51
149.99996
  0
LINE
  8
断面線01
  6
CONTINUOUS
 62
    47
 10
78.575035
 20
-13.336867
 11
78.617653
 21
-13.263035
  0
ARC
  8
断面線01
  6
CONTINUOUS
 62
    47
 10
78.719382
 20
-13.420184
 40
0.166667
 50
149.999955
 51
227.160478
  0
ARC
  8
断面線01
  6
CONTINUOUS
 62
    47
 10
78.209422
 20
-13.97013
 40
0.583333
 50
132.839658
 51
407.160478
  0
ARC
  8
断面線01
  6
CONTINUOUS
 62
    47
 10
77.69946
 20
-13.420185
 40
0.166667
 50
-47.160342
 51
29.999926
  0
LINE
  8
断面線01
  6
CONTINUOUS
 62
    47
 10
77.843785
 20
-13.336867
 11
77.80117
 21
-13.263035
  0
ARC
  8
断面線01
  6
CONTINUOUS
 62
    47
 10
77.656835
 20
-13.346356
 40
0.166667
 50
29.999881
 51
131.537
  0
ARC
  8
断面線01
  6
CONTINUOUS
 62
    47
 10
78.209421
 20
-13.970129
 40
1.0
 50
131.537
 51
180.0
  0
ARC
  8
断面線01
  6
CONTINUOUS
 62
    47
 10
78.209421
 20
-13.970129
 40
1.0
 50
334.623066
 51
408.463036
  0
ARC
  8
断面線01
  6
CONTINUOUS
 62
    47
 10
79.263514
 20
-14.470129
 40
0.166667
 50
154.623066
 51
270.0
  0
ARC
  8
断面線01
  6
CONTINUOUS
 62
    47
 10
79.210949
 20
0.479539
 40
0.166667
 50
183.463036
 51
284.99996
  0
LINE
  8
断面線01
  6
CONTINUOUS
 62
    47
 10
79.33642
 20
0.3406
 11
79.25407
 21
0.318533
  0
ARC
  8
断面線01
  6
CONTINUOUS
 62
    47
 10
79.293293
 20
0.501603
 40
0.166667
 50
284.999955
 51
362.160478
  0
ARC
  8
断面線01
  6
CONTINUOUS
 62
    47
 10
80.04276
 20
0.529877
 40
0.583333
 50
267.839658
 51
542.160478
  0
ARC
  8
断面線01
  6
CONTINUOUS
 62
    47
 10
80.014488
 20
-0.21959
 40
0.166667
 50
87.839658
 51
164.999926
  0
LINE
  8
断面線01
  6
CONTINUOUS
 62
    47
 10
79.853485
 20
-0.176468
 11
79.831435
 21
-0.258817
  0
ARC
  8
断面線01
  6
CONTINUOUS
 62
    47
 10
79.992424
 20
-0.301935
 40
0.166667
 50
164.999881
 51
266.537
  0
ARC
  8
断面線01
  6
CONTINUOUS
 62
    47
 10
74.428673
 20
-0.260567
 40
0.166667
 50
210.00004
 51
311.536964
  0
LINE
  8
断面線01
  6
CONTINUOUS
 62
    47
 10
74.241703
 20
-0.270085
 11
74.28432
 21
-0.343918
  0
ARC
  8
断面線01
  6
CONTINUOUS
 62
    47
 10
74.386049
 20
-0.186739
 40
0.166667
 50
132.839522
 51
210.000045
  0
ARC
  8
断面線01
  6
CONTINUOUS
 62
    47
 10
73.876088
 20
0.363207
 40
0.583333
 50
312.839522
 51
587.160342
  0
ARC
  8
断面線01
  6
CONTINUOUS
 62
    47
 10
73.366126
 20
-0.186737
 40
0.166667
 50
-29.999926
 51
47.160342
  0
LINE
  8
断面線01
  6
CONTINUOUS
 62
    47
 10
73.510453
 20
-0.270085
 11
73.467835
 21
-0.343918
  0
ARC
  8
断面線01
  6
CONTINUOUS
 62
    47
 10
73.323501
 20
-0.260566
 40
0.166667
 50
228.463
 51
330.000119
  0
ARC
  8
断面線01
  6
CONTINUOUS
 62
    47
 10
79.418994
 20
-4.917535
 40
0.166667
 50
138.463036
 51
239.99996
  0
LINE
  8
断面線01
  6
CONTINUOUS
 62
    47
 10
79.409485
 20
-5.104518
 11
79.335652
 21
-5.061885
  0
ARC
  8
断面線01
  6
CONTINUOUS
 62
    47
 10
79.492822
 20
-4.96016
 40
0.166667
 50
239.999955
 51
317.160478
  0
ARC
  8
断面線01
  6
CONTINUOUS
 62
    47
 10
80.042768
 20
-5.47012
 40
0.583333
 50
222.839658
 51
497.160478
  0
ARC
  8
断面線01
  6
CONTINUOUS
 62
    47
 10
79.492823
 20
-5.980082
 40
0.166667
 50
42.839658
 51
119.999926
  0
LINE
  8
断面線01
  6
CONTINUOUS
 62
    47
 10
79.409485
 20
-5.835768
 11
79.335652
 21
-5.878385
  0
ARC
  8
断面線01
  6
CONTINUOUS
 62
    47
 10
79.418994
 20
-6.022707
 40
0.166667
 50
119.999881
 51
221.537
  0
LINE
  8
断面線01
  6
CONTINUOUS
 62
    47
 10
75.20942
 20
0.963183
 11
74.959285
 21
0.963183
  0
ARC
  8
断面線01
  6
CONTINUOUS
 62
    47
 10
73.876088
 20
0.363207
 40
1.0
 50
311.536964
 51
381.803608
  0
ARC
  8
断面線01
  6
CONTINUOUS
 62
    47
 10
74.959294
 20
0.796537
 40
0.166667
 50
90.0
 51
201.803608
  0
ARC
  8
断面線01
  6
CONTINUOUS
 62
    47
 10
73.876088
 20
0.363207
 40
1.0
 50
158.196392
 51
228.463
  0
ARC
  8
断面線01
  6
CONTINUOUS
 62
    47
 10
72.792881
 20
0.796537
 40
0.166667
 50
-21.803608
 51
90.0
  0
ARC
  8
断面線01
  6
CONTINUOUS
 62
    47
 10
80.04276
 20
0.529876
 40
1.0
 50
154.62338
 51
183.463036
  0
ARC
  8
断面線01
  6
CONTINUOUS
 62
    47
 10
78.988665
 20
1.029871
 40
0.166667
 50
-25.37662
 51
90.0
  0
ARC
  8
断面線01
  6
CONTINUOUS
 62
    47
 10
80.04276
 20
0.529876
 40
1.0
 50
266.537
 51
295.377243
  0
ARC
  8
断面線01
  6
CONTINUOUS
 62
    47
 10
80.542766
 20
-0.524213
 40
0.166667
 50
0.0
 51
115.377243
  0
ARC
  8
断面線01
  6
CONTINUOUS
 62
    47
 10
80.042767
 20
-5.470121
 40
1.0
 50
55.150155
 51
138.463036
  0
ARC
  8
断面線01
  6
CONTINUOUS
 62
    47
 10
80.709433
 20
-4.512693
 40
0.166667
 50
-124.849845
 51
0.0
  0
ARC
  8
断面線01
  6
CONTINUOUS
 62
    47
 10
80.042767
 20
-5.470121
 40
1.0
 50
221.537
 51
304.849845
  0
ARC
  8
断面線01
  6
CONTINUOUS
 62
    47
 10
80.709433
 20
-6.427549
 40
0.166667
 50
0.0
 51
124.849845
  0
LINE
  8
断面線01
  6
CONTINUOUS
 62
    47
 10
72.542752
 20
0.963183
 11
72.79287
 21
0.963183
  0
ENDBLK
  0
BLOCK
  2
*GRP_0010
 70
    65
 10
0.0
 20
0.0
  0
POLYLINE
  8
ガラス
  6
CONTINUOUS
 62
     7
 66
     1
 70
     4
  0
VERTEX
  8
ガラス
 10
-71.5
 20
-26.775
 70
     8
  0
VERTEX
  8
ガラス
 10
-71.475
 20
-26.775
 70
     8
  0
VERTEX
  8
ガラス
 10
-71.475
 20
-26.775
 70
     8
  0
VERTEX
  8
ガラス
 10
-71.45
 20
-26.775
 70
     8
  0
VERTEX
  8
ガラス
 10
-71.425
 20
-26.775
 70
     8
  0
VERTEX
  8
ガラス
 10
-71.4
 20
-26.75
 70
     8
  0
VERTEX
  8
ガラス
 10
-71.375
 20
-26.75
 70
     8
  0
VERTEX
  8
ガラス
 10
-71.35
 20
-26.75
 70
     8
  0
VERTEX
  8
ガラス
 10
-71.325
 20
-26.75
 70
     8
  0
VERTEX
  8
ガラス
 10
-71.325
 20
-26.75
 70
     8
  0
VERTEX
  8
ガラス
 10
-71.3
 20
-26.75
 70
     8
  0
VERTEX
  8
ガラス
 10
-71.275
 20
-26.75
 70
     8
  0
VERTEX
  8
ガラス
 10
-71.25
 20
-26.75
 70
     8
  0
VERTEX
  8
ガラス
 10
-71.225
 20
-26.75
 70
     8
  0
VERTEX
  8
ガラス
 10
-71.2
 20
-26.775
 70
     8
  0
VERTEX
  8
ガラス
 10
-71.2
 20
-26.775
 70
     8
  0
VERTEX
  8
ガラス
 10
-71.175
 20
-26.775
 70
     8
  0
VERTEX
  8
ガラス
 10
-71.15
 20
-26.775
 70
     8
  0
VERTEX
  8
ガラス
 10
-71.125
 20
-26.775
 70
     8
  0
VERTEX
  8
ガラス
 10
-71.125
 20
-26.775
 70
     8
  0
VERTEX
  8
ガラス
 10
-71.1
 20
-26.8
 70
     8
  0
VERTEX
  8
ガラス
 10
-71.075
 20
-26.8
 70
     8
  0
VERTEX
  8
ガラス
 10
-71.05
 20
-26.8
 70
     8
  0
VERTEX
  8
ガラス
 10
-71.05
 20
-26.825
 70
     8
  0
VERTEX
  8
ガラス
 10
-71.025
 20
-26.825
 70
     8
  0
VERTEX
  8
ガラス
 10
-71.0
 20
-26.825
 70
     8
  0
VERTEX
  8
ガラス
 10
-71.0
 20
-26.85
 70
     8
  0
VERTEX
  8
ガラス
 10
-70.975
 20
-26.85
 70
     8
  0
VERTEX
  8
ガラス
 10
-70.975
 20
-26.875
 70
     8
  0
VERTEX
  8
ガラス
 10
-70.95
 20
-26.875
 70
     8
  0
VERTEX
  8
ガラス
 10
-70.925
 20
-26.9
 70
     8
  0
VERTEX
  8
ガラス
 10
-70.925
 20
-26.925
 70
     8
  0
VERTEX
  8
ガラス
 10
-70.9
 20
-26.925
 70
     8
  0
VERTEX
  8
ガラス
 10
-70.9
 20
-26.95
 70
     8
  0
VERTEX
  8
ガラス
 10
-70.875
 20
-26.95
 70
     8
  0
VERTEX
  8
ガラス
 10
-70.85
 20
-26.975
 70
     8
  0
VERTEX
  8
ガラス
 10
-70.85
 20
-27.0
 70
     8
  0
VERTEX
  8
ガラス
 10
-70.825
 20
-27.0
 70
     8
  0
VERTEX
  8
ガラス
 10
-70.825
 20
-27.025
 70
     8
  0
VERTEX
  8
ガラス
 10
-70.8
 20
-27.05
 70
     8
  0
VERTEX
  8
ガラス
 10
-70.8
 20
-27.05
 70
     8
  0
SEQEND
  0
POLYLINE
  8
ガラス
  6
CONTINUOUS
 62
     7
 66
     1
 70
     4
  0
VERTEX
  8
ガラス
 10
-70.8
 20
-27.05
 70
     8
  0
VERTEX
  8
ガラス
 10
-70.8
 20
-27.05
 70
     8
  0
VERTEX
  8
ガラス
 10
-70.825
 20
-27.05
 70
     8
  0
VERTEX
  8
ガラス
 10
-70.825
 20
-27.05
 70
     8
  0
VERTEX
  8
ガラス
 10
-70.85
 20
-27.075
 70
     8
  0
VERTEX
  8
ガラス
 10
-70.85
 20
-27.075
 70
     8
  0
VERTEX
  8
ガラス
 10
-70.875
 20
-27.075
 70
     8
  0
VERTEX
  8
ガラス
 10
-70.9
 20
-27.075
 70
     8
  0
VERTEX
  8
ガラス
 10
-70.9
 20
-27.075
 70
     8
  0
VERTEX
  8
ガラス
 10
-70.925
 20
-27.075
 70
     8
  0
VERTEX
  8
ガラス
 10
-70.925
 20
-27.075
 70
     8
  0
VERTEX
  8
ガラス
 10
-70.95
 20
-27.075
 70
     8
  0
VERTEX
  8
ガラス
 10
-70.95
 20
-27.075
 70
     8
  0
VERTEX
  8
ガラス
 10
-70.975
 20
-27.075
 70
     8
  0
VERTEX
  8
ガラス
 10
-71.0
 20
-27.075
 70
     8
  0
VERTEX
  8
ガラス
 10
-71.0
 20
-27.075
 70
     8
  0
VERTEX
  8
ガラス
 10
-71.025
 20
-27.075
 70
     8
  0
VERTEX
  8
ガラス
 10
-71.025
 20
-27.075
 70
     8
  0
VERTEX
  8
ガラス
 10
-71.05
 20
-27.1
 70
     8
  0
VERTEX
  8
ガラス
 10
-71.05
 20
-27.1
 70
     8
  0
VERTEX
  8
ガラス
 10
-71.075
 20
-27.1
 70
     8
  0
VERTEX
  8
ガラス
 10
-71.1
 20
-27.1
 70
     8
  0
VERTEX
  8
ガラス
 10
-71.1
 20
-27.1
 70
     8
  0
VERTEX
  8
ガラス
 10
-71.125
 20
-27.1
 70
     8
  0
VERTEX
  8
ガラス
 10
-71.125
 20
-27.1
 70
     8
  0
VERTEX
  8
ガラス
 10
-71.15
 20
-27.125
 70
     8
  0
VERTEX
  8
ガラス
 10
-71.15
 20
-27.125
 70
     8
  0
VERTEX
  8
ガラス
 10
-71.175
 20
-27.125
 70
     8
  0
VERTEX
  8
ガラス
 10
-71.175
 20
-27.125
 70
     8
  0
VERTEX
  8
ガラス
 10
-71.2
 20
-27.125
 70
     8
  0
VERTEX
  8
ガラス
 10
-71.2
 20
-27.125
 70
     8
  0
VERTEX
  8
ガラス
 10
-71.225
 20
-27.15
 70
     8
  0
VERTEX
  8
ガラス
 10
-71.25
 20
-27.15
 70
     8
  0
VERTEX
  8
ガラス
 10
-71.25
 20
-27.15
 70
     8
  0
VERTEX
  8
ガラス
 10
-71.275
 20
-27.15
 70
     8
  0
VERTEX
  8
ガラス
 10
-71.275
 20
-27.15
 70
     8
  0
VERTEX
  8
ガラス
 10
-71.3
 20
-27.175
 70
     8
  0
VERTEX
  8
ガラス
 10
-71.3
 20
-27.175
 70
     8
  0
VERTEX
  8
ガラス
 10
-71.325
 20
-27.175
 70
     8
  0
VERTEX
  8
ガラス
 10
-71.325
 20
-27.175
 70
     8
  0
VERTEX
  8
ガラス
 10
-71.35
 20
-27.175
 70
     8
  0
SEQEND
  0
ARC
  8
ガラス
  6
CONTINUOUS
 62
     7
 10
-71.413057
 20
-26.966942
 40
0.222865
 50
111.203091
 51
291.203091
  0
ENDBLK
  0
BLOCK
  2
*GRP_0011
 70
    65
 10
0.0
 20
0.0
  0
POLYLINE
  8
ガラス
  6
CONTINUOUS
 62
     7
 66
     1
 70
     4
  0
VERTEX
  8
ガラス
 10
-74.925
 20
-27.3
 70
     8
  0
VERTEX
  8
ガラス
 10
-74.9
 20
-27.3
 70
     8
  0
VERTEX
  8
ガラス
 10
-74.875
 20
-27.3
 70
     8
  0
VERTEX
  8
ガラス
 10
-74.85
 20
-27.3
 70
     8
  0
VERTEX
  8
ガラス
 10
-74.825
 20
-27.275
 70
     8
  0
VERTEX
  8
ガラス
 10
-74.8
 20
-27.275
 70
     8
  0
VERTEX
  8
ガラス
 10
-74.775
 20
-27.275
 70
     8
  0
VERTEX
  8
ガラス
 10
-74.775
 20
-27.275
 70
     8
  0
VERTEX
  8
ガラス
 10
-74.75
 20
-27.275
 70
     8
  0
VERTEX
  8
ガラス
 10
-74.725
 20
-27.275
 70
     8
  0
VERTEX
  8
ガラス
 10
-74.7
 20
-27.275
 70
     8
  0
VERTEX
  8
ガラス
 10
-74.675
 20
-27.275
 70
     8
  0
VERTEX
  8
ガラス
 10
-74.65
 20
-27.275
 70
     8
  0
VERTEX
  8
ガラス
 10
-74.65
 20
-27.275
 70
     8
  0
VERTEX
  8
ガラス
 10
-74.625
 20
-27.275
 70
     8
  0
VERTEX
  8
ガラス
 10
-74.6
 20
-27.3
 70
     8
  0
VERTEX
  8
ガラス
 10
-74.575
 20
-27.3
 70
     8
  0
VERTEX
  8
ガラス
 10
-74.55
 20
-27.3
 70
     8
  0
VERTEX
  8
ガラス
 10
-74.55
 20
-27.3
 70
     8
  0
VERTEX
  8
ガラス
 10
-74.525
 20
-27.3
 70
     8
  0
VERTEX
  8
ガラス
 10
-74.5
 20
-27.3
 70
     8
  0
VERTEX
  8
ガラス
 10
-74.5
 20
-27.325
 70
     8
  0
VERTEX
  8
ガラス
 10
-74.475
 20
-27.325
 70
     8
  0
VERTEX
  8
ガラス
 10
-74.45
 20
-27.325
 70
     8
  0
VERTEX
  8
ガラス
 10
-74.425
 20
-27.35
 70
     8
  0
VERTEX
  8
ガラス
 10
-74.425
 20
-27.35
 70
     8
  0
VERTEX
  8
ガラス
 10
-74.4
 20
-27.375
 70
     8
  0
VERTEX
  8
ガラス
 10
-74.4
 20
-27.375
 70
     8
  0
VERTEX
  8
ガラス
 10
-74.375
 20
-27.4
 70
     8
  0
VERTEX
  8
ガラス
 10
-74.35
 20
-27.4
 70
     8
  0
VERTEX
  8
ガラス
 10
-74.35
 20
-27.425
 70
     8
  0
VERTEX
  8
ガラス
 10
-74.325
 20
-27.425
 70
     8
  0
VERTEX
  8
ガラス
 10
-74.325
 20
-27.45
 70
     8
  0
VERTEX
  8
ガラス
 10
-74.3
 20
-27.475
 70
     8
  0
VERTEX
  8
ガラス
 10
-74.275
 20
-27.475
 70
     8
  0
VERTEX
  8
ガラス
 10
-74.275
 20
-27.5
 70
     8
  0
VERTEX
  8
ガラス
 10
-74.25
 20
-27.525
 70
     8
  0
VERTEX
  8
ガラス
 10
-74.25
 20
-27.525
 70
     8
  0
VERTEX
  8
ガラス
 10
-74.225
 20
-27.55
 70
     8
  0
VERTEX
  8
ガラス
 10
-74.225
 20
-27.575
 70
     8
  0
VERTEX
  8
ガラス
 10
-74.2
 20
-27.575
 70
     8
  0
SEQEND
  0
POLYLINE
  8
ガラス
  6
CONTINUOUS
 62
     7
 66
     1
 70
     4
  0
VERTEX
  8
ガラス
 10
-74.2
 20
-27.575
 70
     8
  0
VERTEX
  8
ガラス
 10
-74.225
 20
-27.575
 70
     8
  0
VERTEX
  8
ガラス
 10
-74.225
 20
-27.575
 70
     8
  0
VERTEX
  8
ガラス
 10
-74.25
 20
-27.575
 70
     8
  0
VERTEX
  8
ガラス
 10
-74.25
 20
-27.575
 70
     8
  0
VERTEX
  8
ガラス
 10
-74.275
 20
-27.575
 70
     8
  0
VERTEX
  8
ガラス
 10
-74.275
 20
-27.6
 70
     8
  0
VERTEX
  8
ガラス
 10
-74.3
 20
-27.6
 70
     8
  0
VERTEX
  8
ガラス
 10
-74.325
 20
-27.6
 70
     8
  0
VERTEX
  8
ガラス
 10
-74.325
 20
-27.6
 70
     8
  0
VERTEX
  8
ガラス
 10
-74.35
 20
-27.6
 70
     8
  0
VERTEX
  8
ガラス
 10
-74.35
 20
-27.6
 70
     8
  0
VERTEX
  8
ガラス
 10
-74.375
 20
-27.6
 70
     8
  0
VERTEX
  8
ガラス
 10
-74.375
 20
-27.6
 70
     8
  0
VERTEX
  8
ガラス
 10
-74.4
 20
-27.6
 70
     8
  0
VERTEX
  8
ガラス
 10
-74.425
 20
-27.6
 70
     8
  0
VERTEX
  8
ガラス
 10
-74.425
 20
-27.6
 70
     8
  0
VERTEX
  8
ガラス
 10
-74.45
 20
-27.6
 70
     8
  0
VERTEX
  8
ガラス
 10
-74.45
 20
-27.6
 70
     8
  0
VERTEX
  8
ガラス
 10
-74.475
 20
-27.625
 70
     8
  0
VERTEX
  8
ガラス
 10
-74.475
 20
-27.625
 70
     8
  0
VERTEX
  8
ガラス
 10
-74.5
 20
-27.625
 70
     8
  0
VERTEX
  8
ガラス
 10
-74.5
 20
-27.625
 70
     8
  0
VERTEX
  8
ガラス
 10
-74.525
 20
-27.625
 70
     8
  0
VERTEX
  8
ガラス
 10
-74.55
 20
-27.625
 70
     8
  0
VERTEX
  8
ガラス
 10
-74.55
 20
-27.625
 70
     8
  0
VERTEX
  8
ガラス
 10
-74.575
 20
-27.65
 70
     8
  0
VERTEX
  8
ガラス
 10
-74.575
 20
-27.65
 70
     8
  0
VERTEX
  8
ガラス
 10
-74.6
 20
-27.65
 70
     8
  0
VERTEX
  8
ガラス
 10
-74.6
 20
-27.65
 70
     8
  0
VERTEX
  8
ガラス
 10
-74.625
 20
-27.65
 70
     8
  0
VERTEX
  8
ガラス
 10
-74.625
 20
-27.675
 70
     8
  0
VERTEX
  8
ガラス
 10
-74.65
 20
-27.675
 70
     8
  0
VERTEX
  8
ガラス
 10
-74.65
 20
-27.675
 70
     8
  0
VERTEX
  8
ガラス
 10
-74.675
 20
-27.675
 70
     8
  0
VERTEX
  8
ガラス
 10
-74.7
 20
-27.675
 70
     8
  0
VERTEX
  8
ガラス
 10
-74.7
 20
-27.7
 70
     8
  0
VERTEX
  8
ガラス
 10
-74.725
 20
-27.7
 70
     8
  0
VERTEX
  8
ガラス
 10
-74.725
 20
-27.7
 70
     8
  0
VERTEX
  8
ガラス
 10
-74.75
 20
-27.7
 70
     8
  0
VERTEX
  8
ガラス
 10
-74.75
 20
-27.7
 70
     8
  0
SEQEND
  0
ARC
  8
ガラス
  6
CONTINUOUS
 62
     7
 10
-74.822787
 20
-27.488874
 40
0.222865
 50
111.203091
 51
291.203091
  0
ENDBLK
  0
BLOCK
  2
*GRP_0012
 70
    65
 10
0.0
 20
0.0
  0
POLYLINE
  8
ガラス
  6
CONTINUOUS
 62
     7
 66
     1
 70
     4
  0
VERTEX
  8
ガラス
 10
-68.6
 20
-26.675
 70
     8
  0
VERTEX
  8
ガラス
 10
-68.575
 20
-26.675
 70
     8
  0
VERTEX
  8
ガラス
 10
-68.55
 20
-26.675
 70
     8
  0
VERTEX
  8
ガラス
 10
-68.55
 20
-26.675
 70
     8
  0
VERTEX
  8
ガラス
 10
-68.525
 20
-26.675
 70
     8
  0
VERTEX
  8
ガラス
 10
-68.5
 20
-26.675
 70
     8
  0
VERTEX
  8
ガラス
 10
-68.475
 20
-26.675
 70
     8
  0
VERTEX
  8
ガラス
 10
-68.45
 20
-26.675
 70
     8
  0
VERTEX
  8
ガラス
 10
-68.425
 20
-26.675
 70
     8
  0
VERTEX
  8
ガラス
 10
-68.4
 20
-26.675
 70
     8
  0
VERTEX
  8
ガラス
 10
-68.4
 20
-26.675
 70
     8
  0
VERTEX
  8
ガラス
 10
-68.375
 20
-26.675
 70
     8
  0
VERTEX
  8
ガラス
 10
-68.35
 20
-26.675
 70
     8
  0
VERTEX
  8
ガラス
 10
-68.325
 20
-26.675
 70
     8
  0
VERTEX
  8
ガラス
 10
-68.3
 20
-26.675
 70
     8
  0
VERTEX
  8
ガラス
 10
-68.3
 20
-26.675
 70
     8
  0
VERTEX
  8
ガラス
 10
-68.275
 20
-26.675
 70
     8
  0
VERTEX
  8
ガラス
 10
-68.25
 20
-26.675
 70
     8
  0
VERTEX
  8
ガラス
 10
-68.225
 20
-26.675
 70
     8
  0
VERTEX
  8
ガラス
 10
-68.225
 20
-26.7
 70
     8
  0
VERTEX
  8
ガラス
 10
-68.2
 20
-26.7
 70
     8
  0
VERTEX
  8
ガラス
 10
-68.175
 20
-26.7
 70
     8
  0
VERTEX
  8
ガラス
 10
-68.15
 20
-26.7
 70
     8
  0
VERTEX
  8
ガラス
 10
-68.15
 20
-26.725
 70
     8
  0
VERTEX
  8
ガラス
 10
-68.125
 20
-26.725
 70
     8
  0
VERTEX
  8
ガラス
 10
-68.1
 20
-26.75
 70
     8
  0
VERTEX
  8
ガラス
 10
-68.1
 20
-26.75
 70
     8
  0
VERTEX
  8
ガラス
 10
-68.075
 20
-26.775
 70
     8
  0
VERTEX
  8
ガラス
 10
-68.05
 20
-26.775
 70
     8
  0
VERTEX
  8
ガラス
 10
-68.05
 20
-26.8
 70
     8
  0
VERTEX
  8
ガラス
 10
-68.025
 20
-26.8
 70
     8
  0
VERTEX
  8
ガラス
 10
-68.025
 20
-26.825
 70
     8
  0
VERTEX
  8
ガラス
 10
-68.0
 20
-26.825
 70
     8
  0
VERTEX
  8
ガラス
 10
-67.975
 20
-26.85
 70
     8
  0
VERTEX
  8
ガラス
 10
-67.975
 20
-26.875
 70
     8
  0
VERTEX
  8
ガラス
 10
-67.95
 20
-26.875
 70
     8
  0
VERTEX
  8
ガラス
 10
-67.95
 20
-26.9
 70
     8
  0
VERTEX
  8
ガラス
 10
-67.925
 20
-26.925
 70
     8
  0
VERTEX
  8
ガラス
 10
-67.925
 20
-26.925
 70
     8
  0
VERTEX
  8
ガラス
 10
-67.9
 20
-26.95
 70
     8
  0
VERTEX
  8
ガラス
 10
-67.9
 20
-26.975
 70
     8
  0
SEQEND
  0
POLYLINE
  8
ガラス
  6
CONTINUOUS
 62
     7
 66
     1
 70
     4
  0
VERTEX
  8
ガラス
 10
-67.9
 20
-26.975
 70
     8
  0
VERTEX
  8
ガラス
 10
-67.9
 20
-26.975
 70
     8
  0
VERTEX
  8
ガラス
 10
-67.925
 20
-26.975
 70
     8
  0
VERTEX
  8
ガラス
 10
-67.925
 20
-26.975
 70
     8
  0
VERTEX
  8
ガラス
 10
-67.95
 20
-26.975
 70
     8
  0
VERTEX
  8
ガラス
 10
-67.95
 20
-26.975
 70
     8
  0
VERTEX
  8
ガラス
 10
-67.975
 20
-26.975
 70
     8
  0
VERTEX
  8
ガラス
 10
-68.0
 20
-26.975
 70
     8
  0
VERTEX
  8
ガラス
 10
-68.0
 20
-26.975
 70
     8
  0
VERTEX
  8
ガラス
 10
-68.025
 20
-26.975
 70
     8
  0
VERTEX
  8
ガラス
 10
-68.025
 20
-26.975
 70
     8
  0
VERTEX
  8
ガラス
 10
-68.05
 20
-26.975
 70
     8
  0
VERTEX
  8
ガラス
 10
-68.05
 20
-26.975
 70
     8
  0
VERTEX
  8
ガラス
 10
-68.075
 20
-26.975
 70
     8
  0
VERTEX
  8
ガラス
 10
-68.1
 20
-26.975
 70
     8
  0
VERTEX
  8
ガラス
 10
-68.1
 20
-27.0
 70
     8
  0
VERTEX
  8
ガラス
 10
-68.125
 20
-27.0
 70
     8
  0
VERTEX
  8
ガラス
 10
-68.125
 20
-27.0
 70
     8
  0
VERTEX
  8
ガラス
 10
-68.15
 20
-27.0
 70
     8
  0
VERTEX
  8
ガラス
 10
-68.15
 20
-27.0
 70
     8
  0
VERTEX
  8
ガラス
 10
-68.175
 20
-27.0
 70
     8
  0
VERTEX
  8
ガラス
 10
-68.175
 20
-27.0
 70
     8
  0
VERTEX
  8
ガラス
 10
-68.2
 20
-27.0
 70
     8
  0
VERTEX
  8
ガラス
 10
-68.225
 20
-27.025
 70
     8
  0
VERTEX
  8
ガラス
 10
-68.225
 20
-27.025
 70
     8
  0
VERTEX
  8
ガラス
 10
-68.25
 20
-27.025
 70
     8
  0
VERTEX
  8
ガラス
 10
-68.25
 20
-27.025
 70
     8
  0
VERTEX
  8
ガラス
 10
-68.275
 20
-27.025
 70
     8
  0
VERTEX
  8
ガラス
 10
-68.275
 20
-27.025
 70
     8
  0
VERTEX
  8
ガラス
 10
-68.3
 20
-27.05
 70
     8
  0
VERTEX
  8
ガラス
 10
-68.3
 20
-27.05
 70
     8
  0
VERTEX
  8
ガラス
 10
-68.325
 20
-27.05
 70
     8
  0
VERTEX
  8
ガラス
 10
-68.325
 20
-27.05
 70
     8
  0
VERTEX
  8
ガラス
 10
-68.35
 20
-27.05
 70
     8
  0
VERTEX
  8
ガラス
 10
-68.375
 20
-27.05
 70
     8
  0
VERTEX
  8
ガラス
 10
-68.375
 20
-27.075
 70
     8
  0
VERTEX
  8
ガラス
 10
-68.4
 20
-27.075
 70
     8
  0
VERTEX
  8
ガラス
 10
-68.4
 20
-27.075
 70
     8
  0
VERTEX
  8
ガラス
 10
-68.425
 20
-27.075
 70
     8
  0
VERTEX
  8
ガラス
 10
-68.425
 20
-27.1
 70
     8
  0
VERTEX
  8
ガラス
 10
-68.45
 20
-27.1
 70
     8
  0
SEQEND
  0
ARC
  8
ガラス
  6
CONTINUOUS
 62
     7
 10
-68.51127
 20
-26.873385
 40
0.222865
 50
111.203091
 51
291.203091
  0
ENDBLK
  0
BLOCK
  2
*GRP_0013
 70
    65
 10
0.0
 20
0.0
  0
POLYLINE
  8
ガラス
  6
CONTINUOUS
 62
     7
 66
     1
 70
     4
  0
VERTEX
  8
ガラス
 10
-65.925
 20
-26.675
 70
     8
  0
VERTEX
  8
ガラス
 10
-65.9
 20
-26.675
 70
     8
  0
VERTEX
  8
ガラス
 10
-65.875
 20
-26.675
 70
     8
  0
VERTEX
  8
ガラス
 10
-65.85
 20
-26.675
 70
     8
  0
VERTEX
  8
ガラス
 10
-65.825
 20
-26.675
 70
     8
  0
VERTEX
  8
ガラス
 10
-65.825
 20
-26.675
 70
     8
  0
VERTEX
  8
ガラス
 10
-65.8
 20
-26.675
 70
     8
  0
VERTEX
  8
ガラス
 10
-65.775
 20
-26.675
 70
     8
  0
VERTEX
  8
ガラス
 10
-65.75
 20
-26.675
 70
     8
  0
VERTEX
  8
ガラス
 10
-65.725
 20
-26.675
 70
     8
  0
VERTEX
  8
ガラス
 10
-65.7
 20
-26.675
 70
     8
  0
VERTEX
  8
ガラス
 10
-65.675
 20
-26.675
 70
     8
  0
VERTEX
  8
ガラス
 10
-65.675
 20
-26.675
 70
     8
  0
VERTEX
  8
ガラス
 10
-65.65
 20
-26.675
 70
     8
  0
VERTEX
  8
ガラス
 10
-65.625
 20
-26.675
 70
     8
  0
VERTEX
  8
ガラス
 10
-65.6
 20
-26.675
 70
     8
  0
VERTEX
  8
ガラス
 10
-65.575
 20
-26.675
 70
     8
  0
VERTEX
  8
ガラス
 10
-65.575
 20
-26.675
 70
     8
  0
VERTEX
  8
ガラス
 10
-65.55
 20
-26.675
 70
     8
  0
VERTEX
  8
ガラス
 10
-65.525
 20
-26.7
 70
     8
  0
VERTEX
  8
ガラス
 10
-65.5
 20
-26.7
 70
     8
  0
VERTEX
  8
ガラス
 10
-65.5
 20
-26.7
 70
     8
  0
VERTEX
  8
ガラス
 10
-65.475
 20
-26.7
 70
     8
  0
VERTEX
  8
ガラス
 10
-65.45
 20
-26.725
 70
     8
  0
VERTEX
  8
ガラス
 10
-65.45
 20
-26.725
 70
     8
  0
VERTEX
  8
ガラス
 10
-65.425
 20
-26.75
 70
     8
  0
VERTEX
  8
ガラス
 10
-65.4
 20
-26.75
 70
     8
  0
VERTEX
  8
ガラス
 10
-65.4
 20
-26.775
 70
     8
  0
VERTEX
  8
ガラス
 10
-65.375
 20
-26.775
 70
     8
  0
VERTEX
  8
ガラス
 10
-65.375
 20
-26.8
 70
     8
  0
VERTEX
  8
ガラス
 10
-65.35
 20
-26.8
 70
     8
  0
VERTEX
  8
ガラス
 10
-65.325
 20
-26.825
 70
     8
  0
VERTEX
  8
ガラス
 10
-65.325
 20
-26.825
 70
     8
  0
VERTEX
  8
ガラス
 10
-65.3
 20
-26.85
 70
     8
  0
VERTEX
  8
ガラス
 10
-65.3
 20
-26.875
 70
     8
  0
VERTEX
  8
ガラス
 10
-65.275
 20
-26.875
 70
     8
  0
VERTEX
  8
ガラス
 10
-65.25
 20
-26.9
 70
     8
  0
VERTEX
  8
ガラス
 10
-65.25
 20
-26.925
 70
     8
  0
VERTEX
  8
ガラス
 10
-65.225
 20
-26.925
 70
     8
  0
VERTEX
  8
ガラス
 10
-65.225
 20
-26.95
 70
     8
  0
VERTEX
  8
ガラス
 10
-65.2
 20
-26.975
 70
     8
  0
SEQEND
  0
POLYLINE
  8
ガラス
  6
CONTINUOUS
 62
     7
 66
     1
 70
     4
  0
VERTEX
  8
ガラス
 10
-65.2
 20
-26.975
 70
     8
  0
VERTEX
  8
ガラス
 10
-65.225
 20
-26.975
 70
     8
  0
VERTEX
  8
ガラス
 10
-65.225
 20
-26.975
 70
     8
  0
VERTEX
  8
ガラス
 10
-65.25
 20
-26.975
 70
     8
  0
VERTEX
  8
ガラス
 10
-65.275
 20
-26.975
 70
     8
  0
VERTEX
  8
ガラス
 10
-65.275
 20
-26.975
 70
     8
  0
VERTEX
  8
ガラス
 10
-65.3
 20
-26.975
 70
     8
  0
VERTEX
  8
ガラス
 10
-65.3
 20
-26.975
 70
     8
  0
VERTEX
  8
ガラス
 10
-65.325
 20
-26.975
 70
     8
  0
VERTEX
  8
ガラス
 10
-65.325
 20
-26.975
 70
     8
  0
VERTEX
  8
ガラス
 10
-65.35
 20
-26.975
 70
     8
  0
VERTEX
  8
ガラス
 10
-65.35
 20
-26.975
 70
     8
  0
VERTEX
  8
ガラス
 10
-65.375
 20
-26.975
 70
     8
  0
VERTEX
  8
ガラス
 10
-65.4
 20
-26.975
 70
     8
  0
VERTEX
  8
ガラス
 10
-65.4
 20
-26.975
 70
     8
  0
VERTEX
  8
ガラス
 10
-65.425
 20
-27.0
 70
     8
  0
VERTEX
  8
ガラス
 10
-65.425
 20
-27.0
 70
     8
  0
VERTEX
  8
ガラス
 10
-65.45
 20
-27.0
 70
     8
  0
VERTEX
  8
ガラス
 10
-65.45
 20
-27.0
 70
     8
  0
VERTEX
  8
ガラス
 10
-65.475
 20
-27.0
 70
     8
  0
VERTEX
  8
ガラス
 10
-65.5
 20
-27.0
 70
     8
  0
VERTEX
  8
ガラス
 10
-65.5
 20
-27.0
 70
     8
  0
VERTEX
  8
ガラス
 10
-65.525
 20
-27.0
 70
     8
  0
VERTEX
  8
ガラス
 10
-65.525
 20
-27.025
 70
     8
  0
VERTEX
  8
ガラス
 10
-65.55
 20
-27.025
 70
     8
  0
VERTEX
  8
ガラス
 10
-65.55
 20
-27.025
 70
     8
  0
VERTEX
  8
ガラス
 10
-65.575
 20
-27.025
 70
     8
  0
VERTEX
  8
ガラス
 10
-65.575
 20
-27.025
 70
     8
  0
VERTEX
  8
ガラス
 10
-65.6
 20
-27.025
 70
     8
  0
VERTEX
  8
ガラス
 10
-65.6
 20
-27.05
 70
     8
  0
VERTEX
  8
ガラス
 10
-65.625
 20
-27.05
 70
     8
  0
VERTEX
  8
ガラス
 10
-65.65
 20
-27.05
 70
     8
  0
VERTEX
  8
ガラス
 10
-65.65
 20
-27.05
 70
     8
  0
VERTEX
  8
ガラス
 10
-65.675
 20
-27.05
 70
     8
  0
VERTEX
  8
ガラス
 10
-65.675
 20
-27.05
 70
     8
  0
VERTEX
  8
ガラス
 10
-65.7
 20
-27.075
 70
     8
  0
VERTEX
  8
ガラス
 10
-65.7
 20
-27.075
 70
     8
  0
VERTEX
  8
ガラス
 10
-65.725
 20
-27.075
 70
     8
  0
VERTEX
  8
ガラス
 10
-65.725
 20
-27.075
 70
     8
  0
VERTEX
  8
ガラス
 10
-65.75
 20
-27.1
 70
     8
  0
VERTEX
  8
ガラス
 10
-65.75
 20
-27.1
 70
     8
  0
SEQEND
  0
ARC
  8
ガラス
  6
CONTINUOUS
 62
     7
 10
-65.827976
 20
-26.873385
 40
0.222865
 50
111.203091
 51
291.203091
  0
ENDBLK
  0
BLOCK
  2
*GRP_0014
 70
    65
 10
0.0
 20
0.0
  0
POLYLINE
  8
ガラス
  6
CONTINUOUS
 62
     7
 66
     1
 70
     4
  0
VERTEX
  8
ガラス
 10
-62.45
 20
-26.675
 70
     8
  0
VERTEX
  8
ガラス
 10
-62.425
 20
-26.675
 70
     8
  0
VERTEX
  8
ガラス
 10
-62.4
 20
-26.675
 70
     8
  0
VERTEX
  8
ガラス
 10
-62.375
 20
-26.675
 70
     8
  0
VERTEX
  8
ガラス
 10
-62.35
 20
-26.675
 70
     8
  0
VERTEX
  8
ガラス
 10
-62.35
 20
-26.675
 70
     8
  0
VERTEX
  8
ガラス
 10
-62.325
 20
-26.675
 70
     8
  0
VERTEX
  8
ガラス
 10
-62.3
 20
-26.675
 70
     8
  0
VERTEX
  8
ガラス
 10
-62.275
 20
-26.675
 70
     8
  0
VERTEX
  8
ガラス
 10
-62.25
 20
-26.675
 70
     8
  0
VERTEX
  8
ガラス
 10
-62.225
 20
-26.675
 70
     8
  0
VERTEX
  8
ガラス
 10
-62.225
 20
-26.675
 70
     8
  0
VERTEX
  8
ガラス
 10
-62.2
 20
-26.675
 70
     8
  0
VERTEX
  8
ガラス
 10
-62.175
 20
-26.675
 70
     8
  0
VERTEX
  8
ガラス
 10
-62.15
 20
-26.675
 70
     8
  0
VERTEX
  8
ガラス
 10
-62.125
 20
-26.675
 70
     8
  0
VERTEX
  8
ガラス
 10
-62.125
 20
-26.675
 70
     8
  0
VERTEX
  8
ガラス
 10
-62.1
 20
-26.675
 70
     8
  0
VERTEX
  8
ガラス
 10
-62.075
 20
-26.675
 70
     8
  0
VERTEX
  8
ガラス
 10
-62.05
 20
-26.7
 70
     8
  0
VERTEX
  8
ガラス
 10
-62.05
 20
-26.7
 70
     8
  0
VERTEX
  8
ガラス
 10
-62.025
 20
-26.7
 70
     8
  0
VERTEX
  8
ガラス
 10
-62.0
 20
-26.7
 70
     8
  0
VERTEX
  8
ガラス
 10
-61.975
 20
-26.725
 70
     8
  0
VERTEX
  8
ガラス
 10
-61.975
 20
-26.725
 70
     8
  0
VERTEX
  8
ガラス
 10
-61.95
 20
-26.75
 70
     8
  0
VERTEX
  8
ガラス
 10
-61.925
 20
-26.75
 70
     8
  0
VERTEX
  8
ガラス
 10
-61.925
 20
-26.775
 70
     8
  0
VERTEX
  8
ガラス
 10
-61.9
 20
-26.775
 70
     8
  0
VERTEX
  8
ガラス
 10
-61.9
 20
-26.8
 70
     8
  0
VERTEX
  8
ガラス
 10
-61.875
 20
-26.8
 70
     8
  0
VERTEX
  8
ガラス
 10
-61.85
 20
-26.825
 70
     8
  0
VERTEX
  8
ガラス
 10
-61.85
 20
-26.825
 70
     8
  0
VERTEX
  8
ガラス
 10
-61.825
 20
-26.85
 70
     8
  0
VERTEX
  8
ガラス
 10
-61.825
 20
-26.875
 70
     8
  0
VERTEX
  8
ガラス
 10
-61.8
 20
-26.875
 70
     8
  0
VERTEX
  8
ガラス
 10
-61.8
 20
-26.9
 70
     8
  0
VERTEX
  8
ガラス
 10
-61.775
 20
-26.925
 70
     8
  0
VERTEX
  8
ガラス
 10
-61.75
 20
-26.925
 70
     8
  0
VERTEX
  8
ガラス
 10
-61.75
 20
-26.95
 70
     8
  0
VERTEX
  8
ガラス
 10
-61.725
 20
-26.975
 70
     8
  0
SEQEND
  0
POLYLINE
  8
ガラス
  6
CONTINUOUS
 62
     7
 66
     1
 70
     4
  0
VERTEX
  8
ガラス
 10
-61.725
 20
-26.975
 70
     8
  0
VERTEX
  8
ガラス
 10
-61.75
 20
-26.975
 70
     8
  0
VERTEX
  8
ガラス
 10
-61.75
 20
-26.975
 70
     8
  0
VERTEX
  8
ガラス
 10
-61.775
 20
-26.975
 70
     8
  0
VERTEX
  8
ガラス
 10
-61.8
 20
-26.975
 70
     8
  0
VERTEX
  8
ガラス
 10
-61.8
 20
-26.975
 70
     8
  0
VERTEX
  8
ガラス
 10
-61.825
 20
-26.975
 70
     8
  0
VERTEX
  8
ガラス
 10
-61.825
 20
-26.975
 70
     8
  0
VERTEX
  8
ガラス
 10
-61.85
 20
-26.975
 70
     8
  0
VERTEX
  8
ガラス
 10
-61.85
 20
-26.975
 70
     8
  0
VERTEX
  8
ガラス
 10
-61.875
 20
-26.975
 70
     8
  0
VERTEX
  8
ガラス
 10
-61.9
 20
-26.975
 70
     8
  0
VERTEX
  8
ガラス
 10
-61.9
 20
-26.975
 70
     8
  0
VERTEX
  8
ガラス
 10
-61.925
 20
-26.975
 70
     8
  0
VERTEX
  8
ガラス
 10
-61.925
 20
-26.975
 70
     8
  0
VERTEX
  8
ガラス
 10
-61.95
 20
-27.0
 70
     8
  0
VERTEX
  8
ガラス
 10
-61.95
 20
-27.0
 70
     8
  0
VERTEX
  8
ガラス
 10
-61.975
 20
-27.0
 70
     8
  0
VERTEX
  8
ガラス
 10
-62.0
 20
-27.0
 70
     8
  0
VERTEX
  8
ガラス
 10
-62.0
 20
-27.0
 70
     8
  0
VERTEX
  8
ガラス
 10
-62.025
 20
-27.0
 70
     8
  0
VERTEX
  8
ガラス
 10
-62.025
 20
-27.0
 70
     8
  0
VERTEX
  8
ガラス
 10
-62.05
 20
-27.0
 70
     8
  0
VERTEX
  8
ガラス
 10
-62.05
 20
-27.025
 70
     8
  0
VERTEX
  8
ガラス
 10
-62.075
 20
-27.025
 70
     8
  0
VERTEX
  8
ガラス
 10
-62.075
 20
-27.025
 70
     8
  0
VERTEX
  8
ガラス
 10
-62.1
 20
-27.025
 70
     8
  0
VERTEX
  8
ガラス
 10
-62.1
 20
-27.025
 70
     8
  0
VERTEX
  8
ガラス
 10
-62.125
 20
-27.025
 70
     8
  0
VERTEX
  8
ガラス
 10
-62.15
 20
-27.05
 70
     8
  0
VERTEX
  8
ガラス
 10
-62.15
 20
-27.05
 70
     8
  0
VERTEX
  8
ガラス
 10
-62.175
 20
-27.05
 70
     8
  0
VERTEX
  8
ガラス
 10
-62.175
 20
-27.05
 70
     8
  0
VERTEX
  8
ガラス
 10
-62.2
 20
-27.05
 70
     8
  0
VERTEX
  8
ガラス
 10
-62.2
 20
-27.05
 70
     8
  0
VERTEX
  8
ガラス
 10
-62.225
 20
-27.075
 70
     8
  0
VERTEX
  8
ガラス
 10
-62.225
 20
-27.075
 70
     8
  0
VERTEX
  8
ガラス
 10
-62.25
 20
-27.075
 70
     8
  0
VERTEX
  8
ガラス
 10
-62.25
 20
-27.075
 70
     8
  0
VERTEX
  8
ガラス
 10
-62.275
 20
-27.1
 70
     8
  0
VERTEX
  8
ガラス
 10
-62.275
 20
-27.1
 70
     8
  0
SEQEND
  0
ARC
  8
ガラス
  6
CONTINUOUS
 62
     7
 10
-62.354641
 20
-26.873385
 40
0.222865
 50
111.203091
 51
291.203091
  0
ENDBLK
  0
BLOCK
  2
*GRP_0015
 70
    65
 10
0.0
 20
0.0
  0
POLYLINE
  8
ガラス
  6
CONTINUOUS
 62
     7
 66
     1
 70
     4
  0
VERTEX
  8
ガラス
 10
-59.6
 20
-26.75
 70
     8
  0
VERTEX
  8
ガラス
 10
-59.6
 20
-26.725
 70
     8
  0
VERTEX
  8
ガラス
 10
-59.575
 20
-26.7
 70
     8
  0
VERTEX
  8
ガラス
 10
-59.575
 20
-26.675
 70
     8
  0
VERTEX
  8
ガラス
 10
-59.575
 20
-26.65
 70
     8
  0
VERTEX
  8
ガラス
 10
-59.575
 20
-26.625
 70
     8
  0
VERTEX
  8
ガラス
 10
-59.55
 20
-26.625
 70
     8
  0
VERTEX
  8
ガラス
 10
-59.55
 20
-26.6
 70
     8
  0
VERTEX
  8
ガラス
 10
-59.55
 20
-26.575
 70
     8
  0
VERTEX
  8
ガラス
 10
-59.55
 20
-26.55
 70
     8
  0
VERTEX
  8
ガラス
 10
-59.525
 20
-26.525
 70
     8
  0
VERTEX
  8
ガラス
 10
-59.525
 20
-26.525
 70
     8
  0
VERTEX
  8
ガラス
 10
-59.525
 20
-26.5
 70
     8
  0
VERTEX
  8
ガラス
 10
-59.5
 20
-26.475
 70
     8
  0
VERTEX
  8
ガラス
 10
-59.5
 20
-26.475
 70
     8
  0
VERTEX
  8
ガラス
 10
-59.475
 20
-26.45
 70
     8
  0
VERTEX
  8
ガラス
 10
-59.475
 20
-26.425
 70
     8
  0
VERTEX
  8
ガラス
 10
-59.475
 20
-26.4
 70
     8
  0
VERTEX
  8
ガラス
 10
-59.45
 20
-26.4
 70
     8
  0
VERTEX
  8
ガラス
 10
-59.45
 20
-26.375
 70
     8
  0
VERTEX
  8
ガラス
 10
-59.425
 20
-26.375
 70
     8
  0
VERTEX
  8
ガラス
 10
-59.425
 20
-26.35
 70
     8
  0
VERTEX
  8
ガラス
 10
-59.4
 20
-26.35
 70
     8
  0
VERTEX
  8
ガラス
 10
-59.4
 20
-26.325
 70
     8
  0
VERTEX
  8
ガラス
 10
-59.375
 20
-26.325
 70
     8
  0
VERTEX
  8
ガラス
 10
-59.35
 20
-26.3
 70
     8
  0
VERTEX
  8
ガラス
 10
-59.35
 20
-26.3
 70
     8
  0
VERTEX
  8
ガラス
 10
-59.325
 20
-26.275
 70
     8
  0
VERTEX
  8
ガラス
 10
-59.3
 20
-26.275
 70
     8
  0
VERTEX
  8
ガラス
 10
-59.275
 20
-26.275
 70
     8
  0
VERTEX
  8
ガラス
 10
-59.275
 20
-26.25
 70
     8
  0
VERTEX
  8
ガラス
 10
-59.25
 20
-26.25
 70
     8
  0
VERTEX
  8
ガラス
 10
-59.225
 20
-26.225
 70
     8
  0
VERTEX
  8
ガラス
 10
-59.2
 20
-26.225
 70
     8
  0
VERTEX
  8
ガラス
 10
-59.2
 20
-26.225
 70
     8
  0
VERTEX
  8
ガラス
 10
-59.175
 20
-26.225
 70
     8
  0
VERTEX
  8
ガラス
 10
-59.15
 20
-26.2
 70
     8
  0
VERTEX
  8
ガラス
 10
-59.125
 20
-26.2
 70
     8
  0
VERTEX
  8
ガラス
 10
-59.1
 20
-26.2
 70
     8
  0
VERTEX
  8
ガラス
 10
-59.1
 20
-26.175
 70
     8
  0
VERTEX
  8
ガラス
 10
-59.075
 20
-26.175
 70
     8
  0
SEQEND
  0
POLYLINE
  8
ガラス
  6
CONTINUOUS
 62
     7
 66
     1
 70
     4
  0
VERTEX
  8
ガラス
 10
-59.075
 20
-26.175
 70
     8
  0
VERTEX
  8
ガラス
 10
-59.075
 20
-26.2
 70
     8
  0
VERTEX
  8
ガラス
 10
-59.075
 20
-26.2
 70
     8
  0
VERTEX
  8
ガラス
 10
-59.075
 20
-26.225
 70
     8
  0
VERTEX
  8
ガラス
 10
-59.075
 20
-26.225
 70
     8
  0
VERTEX
  8
ガラス
 10
-59.1
 20
-26.25
 70
     8
  0
VERTEX
  8
ガラス
 10
-59.1
 20
-26.25
 70
     8
  0
VERTEX
  8
ガラス
 10
-59.1
 20
-26.275
 70
     8
  0
VERTEX
  8
ガラス
 10
-59.1
 20
-26.3
 70
     8
  0
VERTEX
  8
ガラス
 10
-59.1
 20
-26.3
 70
     8
  0
VERTEX
  8
ガラス
 10
-59.1
 20
-26.325
 70
     8
  0
VERTEX
  8
ガラス
 10
-59.1
 20
-26.325
 70
     8
  0
VERTEX
  8
ガラス
 10
-59.125
 20
-26.35
 70
     8
  0
VERTEX
  8
ガラス
 10
-59.125
 20
-26.35
 70
     8
  0
VERTEX
  8
ガラス
 10
-59.125
 20
-26.375
 70
     8
  0
VERTEX
  8
ガラス
 10
-59.125
 20
-26.375
 70
     8
  0
VERTEX
  8
ガラス
 10
-59.125
 20
-26.4
 70
     8
  0
VERTEX
  8
ガラス
 10
-59.125
 20
-26.425
 70
     8
  0
VERTEX
  8
ガラス
 10
-59.125
 20
-26.425
 70
     8
  0
VERTEX
  8
ガラス
 10
-59.125
 20
-26.45
 70
     8
  0
VERTEX
  8
ガラス
 10
-59.125
 20
-26.45
 70
     8
  0
VERTEX
  8
ガラス
 10
-59.15
 20
-26.475
 70
     8
  0
VERTEX
  8
ガラス
 10
-59.15
 20
-26.475
 70
     8
  0
VERTEX
  8
ガラス
 10
-59.15
 20
-26.5
 70
     8
  0
VERTEX
  8
ガラス
 10
-59.15
 20
-26.5
 70
     8
  0
VERTEX
  8
ガラス
 10
-59.15
 20
-26.525
 70
     8
  0
VERTEX
  8
ガラス
 10
-59.15
 20
-26.55
 70
     8
  0
VERTEX
  8
ガラス
 10
-59.15
 20
-26.55
 70
     8
  0
VERTEX
  8
ガラス
 10
-59.15
 20
-26.575
 70
     8
  0
VERTEX
  8
ガラス
 10
-59.15
 20
-26.575
 70
     8
  0
VERTEX
  8
ガラス
 10
-59.15
 20
-26.6
 70
     8
  0
VERTEX
  8
ガラス
 10
-59.15
 20
-26.6
 70
     8
  0
VERTEX
  8
ガラス
 10
-59.15
 20
-26.625
 70
     8
  0
VERTEX
  8
ガラス
 10
-59.15
 20
-26.65
 70
     8
  0
VERTEX
  8
ガラス
 10
-59.15
 20
-26.65
 70
     8
  0
VERTEX
  8
ガラス
 10
-59.15
 20
-26.675
 70
     8
  0
VERTEX
  8
ガラス
 10
-59.15
 20
-26.675
 70
     8
  0
VERTEX
  8
ガラス
 10
-59.15
 20
-26.7
 70
     8
  0
VERTEX
  8
ガラス
 10
-59.15
 20
-26.725
 70
     8
  0
VERTEX
  8
ガラス
 10
-59.15
 20
-26.725
 70
     8
  0
VERTEX
  8
ガラス
 10
-59.15
 20
-26.75
 70
     8
  0
SEQEND
  0
ARC
  8
ガラス
  6
CONTINUOUS
 62
     7
 10
-59.35997
 20
-26.728912
 40
0.222865
 50
180.0
 51
360.0
  0
ENDBLK
  0
BLOCK
  2
*GRP_0016
 70
    65
 10
0.0
 20
0.0
  0
POLYLINE
  8
ガラス
  6
CONTINUOUS
 62
     7
 66
     1
 70
     4
  0
VERTEX
  8
ガラス
 10
78.075
 20
-26.775
 70
     8
  0
VERTEX
  8
ガラス
 10
78.05
 20
-26.775
 70
     8
  0
VERTEX
  8
ガラス
 10
78.025
 20
-26.775
 70
     8
  0
VERTEX
  8
ガラス
 10
78.0
 20
-26.775
 70
     8
  0
VERTEX
  8
ガラス
 10
77.975
 20
-26.775
 70
     8
  0
VERTEX
  8
ガラス
 10
77.95
 20
-26.75
 70
     8
  0
VERTEX
  8
ガラス
 10
77.925
 20
-26.75
 70
     8
  0
VERTEX
  8
ガラス
 10
77.925
 20
-26.75
 70
     8
  0
VERTEX
  8
ガラス
 10
77.9
 20
-26.75
 70
     8
  0
VERTEX
  8
ガラス
 10
77.875
 20
-26.75
 70
     8
  0
VERTEX
  8
ガラス
 10
77.85
 20
-26.75
 70
     8
  0
VERTEX
  8
ガラス
 10
77.825
 20
-26.75
 70
     8
  0
VERTEX
  8
ガラス
 10
77.8
 20
-26.75
 70
     8
  0
VERTEX
  8
ガラス
 10
77.8
 20
-26.75
 70
     8
  0
VERTEX
  8
ガラス
 10
77.775
 20
-26.775
 70
     8
  0
VERTEX
  8
ガラス
 10
77.75
 20
-26.775
 70
     8
  0
VERTEX
  8
ガラス
 10
77.725
 20
-26.775
 70
     8
  0
VERTEX
  8
ガラス
 10
77.7
 20
-26.775
 70
     8
  0
VERTEX
  8
ガラス
 10
77.7
 20
-26.775
 70
     8
  0
VERTEX
  8
ガラス
 10
77.675
 20
-26.775
 70
     8
  0
VERTEX
  8
ガラス
 10
77.65
 20
-26.8
 70
     8
  0
VERTEX
  8
ガラス
 10
77.625
 20
-26.8
 70
     8
  0
VERTEX
  8
ガラス
 10
77.625
 20
-26.8
 70
     8
  0
VERTEX
  8
ガラス
 10
77.6
 20
-26.825
 70
     8
  0
VERTEX
  8
ガラス
 10
77.575
 20
-26.825
 70
     8
  0
VERTEX
  8
ガラス
 10
77.575
 20
-26.825
 70
     8
  0
VERTEX
  8
ガラス
 10
77.55
 20
-26.85
 70
     8
  0
VERTEX
  8
ガラス
 10
77.525
 20
-26.85
 70
     8
  0
VERTEX
  8
ガラス
 10
77.525
 20
-26.875
 70
     8
  0
VERTEX
  8
ガラス
 10
77.5
 20
-26.875
 70
     8
  0
VERTEX
  8
ガラス
 10
77.5
 20
-26.9
 70
     8
  0
VERTEX
  8
ガラス
 10
77.475
 20
-26.925
 70
     8
  0
VERTEX
  8
ガラス
 10
77.45
 20
-26.925
 70
     8
  0
VERTEX
  8
ガラス
 10
77.45
 20
-26.95
 70
     8
  0
VERTEX
  8
ガラス
 10
77.425
 20
-26.95
 70
     8
  0
VERTEX
  8
ガラス
 10
77.425
 20
-26.975
 70
     8
  0
VERTEX
  8
ガラス
 10
77.4
 20
-27.0
 70
     8
  0
VERTEX
  8
ガラス
 10
77.4
 20
-27.0
 70
     8
  0
VERTEX
  8
ガラス
 10
77.375
 20
-27.025
 70
     8
  0
VERTEX
  8
ガラス
 10
77.35
 20
-27.05
 70
     8
  0
VERTEX
  8
ガラス
 10
77.35
 20
-27.05
 70
     8
  0
SEQEND
  0
POLYLINE
  8
ガラス
  6
CONTINUOUS
 62
     7
 66
     1
 70
     4
  0
VERTEX
  8
ガラス
 10
77.35
 20
-27.05
 70
     8
  0
VERTEX
  8
ガラス
 10
77.35
 20
-27.05
 70
     8
  0
VERTEX
  8
ガラス
 10
77.375
 20
-27.05
 70
     8
  0
VERTEX
  8
ガラス
 10
77.4
 20
-27.05
 70
     8
  0
VERTEX
  8
ガラス
 10
77.4
 20
-27.075
 70
     8
  0
VERTEX
  8
ガラス
 10
77.425
 20
-27.075
 70
     8
  0
VERTEX
  8
ガラス
 10
77.425
 20
-27.075
 70
     8
  0
VERTEX
  8
ガラス
 10
77.45
 20
-27.075
 70
     8
  0
VERTEX
  8
ガラス
 10
77.475
 20
-27.075
 70
     8
  0
VERTEX
  8
ガラス
 10
77.475
 20
-27.075
 70
     8
  0
VERTEX
  8
ガラス
 10
77.5
 20
-27.075
 70
     8
  0
VERTEX
  8
ガラス
 10
77.5
 20
-27.075
 70
     8
  0
VERTEX
  8
ガラス
 10
77.525
 20
-27.075
 70
     8
  0
VERTEX
  8
ガラス
 10
77.525
 20
-27.075
 70
     8
  0
VERTEX
  8
ガラス
 10
77.55
 20
-27.075
 70
     8
  0
VERTEX
  8
ガラス
 10
77.55
 20
-27.075
 70
     8
  0
VERTEX
  8
ガラス
 10
77.575
 20
-27.075
 70
     8
  0
VERTEX
  8
ガラス
 10
77.6
 20
-27.075
 70
     8
  0
VERTEX
  8
ガラス
 10
77.6
 20
-27.1
 70
     8
  0
VERTEX
  8
ガラス
 10
77.625
 20
-27.1
 70
     8
  0
VERTEX
  8
ガラス
 10
77.625
 20
-27.1
 70
     8
  0
VERTEX
  8
ガラス
 10
77.65
 20
-27.1
 70
     8
  0
VERTEX
  8
ガラス
 10
77.65
 20
-27.1
 70
     8
  0
VERTEX
  8
ガラス
 10
77.675
 20
-27.1
 70
     8
  0
VERTEX
  8
ガラス
 10
77.675
 20
-27.1
 70
     8
  0
VERTEX
  8
ガラス
 10
77.7
 20
-27.125
 70
     8
  0
VERTEX
  8
ガラス
 10
77.725
 20
-27.125
 70
     8
  0
VERTEX
  8
ガラス
 10
77.725
 20
-27.125
 70
     8
  0
VERTEX
  8
ガラス
 10
77.75
 20
-27.125
 70
     8
  0
VERTEX
  8
ガラス
 10
77.75
 20
-27.125
 70
     8
  0
VERTEX
  8
ガラス
 10
77.775
 20
-27.125
 70
     8
  0
VERTEX
  8
ガラス
 10
77.775
 20
-27.15
 70
     8
  0
VERTEX
  8
ガラス
 10
77.8
 20
-27.15
 70
     8
  0
VERTEX
  8
ガラス
 10
77.8
 20
-27.15
 70
     8
  0
VERTEX
  8
ガラス
 10
77.825
 20
-27.15
 70
     8
  0
VERTEX
  8
ガラス
 10
77.825
 20
-27.15
 70
     8
  0
VERTEX
  8
ガラス
 10
77.85
 20
-27.175
 70
     8
  0
VERTEX
  8
ガラス
 10
77.85
 20
-27.175
 70
     8
  0
VERTEX
  8
ガラス
 10
77.875
 20
-27.175
 70
     8
  0
VERTEX
  8
ガラス
 10
77.9
 20
-27.175
 70
     8
  0
VERTEX
  8
ガラス
 10
77.9
 20
-27.175
 70
     8
  0
SEQEND
  0
ARC
  8
ガラス
  6
CONTINUOUS
 62
     7
 10
77.995692
 20
-26.966942
 40
0.222865
 50
248.796909
 51
428.796909
  0
ENDBLK
  0
BLOCK
  2
*GRP_0017
 70
    65
 10
0.0
 20
0.0
  0
POLYLINE
  8
ガラス
  6
CONTINUOUS
 62
     7
 66
     1
 70
     4
  0
VERTEX
  8
ガラス
 10
81.475
 20
-27.3
 70
     8
  0
VERTEX
  8
ガラス
 10
81.45
 20
-27.3
 70
     8
  0
VERTEX
  8
ガラス
 10
81.425
 20
-27.3
 70
     8
  0
VERTEX
  8
ガラス
 10
81.4
 20
-27.3
 70
     8
  0
VERTEX
  8
ガラス
 10
81.375
 20
-27.275
 70
     8
  0
VERTEX
  8
ガラス
 10
81.375
 20
-27.275
 70
     8
  0
VERTEX
  8
ガラス
 10
81.35
 20
-27.275
 70
     8
  0
VERTEX
  8
ガラス
 10
81.325
 20
-27.275
 70
     8
  0
VERTEX
  8
ガラス
 10
81.3
 20
-27.275
 70
     8
  0
VERTEX
  8
ガラス
 10
81.275
 20
-27.275
 70
     8
  0
VERTEX
  8
ガラス
 10
81.25
 20
-27.275
 70
     8
  0
VERTEX
  8
ガラス
 10
81.25
 20
-27.275
 70
     8
  0
VERTEX
  8
ガラス
 10
81.225
 20
-27.275
 70
     8
  0
VERTEX
  8
ガラス
 10
81.2
 20
-27.275
 70
     8
  0
VERTEX
  8
ガラス
 10
81.175
 20
-27.275
 70
     8
  0
VERTEX
  8
ガラス
 10
81.15
 20
-27.3
 70
     8
  0
VERTEX
  8
ガラス
 10
81.15
 20
-27.3
 70
     8
  0
VERTEX
  8
ガラス
 10
81.125
 20
-27.3
 70
     8
  0
VERTEX
  8
ガラス
 10
81.1
 20
-27.3
 70
     8
  0
VERTEX
  8
ガラス
 10
81.075
 20
-27.3
 70
     8
  0
VERTEX
  8
ガラス
 10
81.075
 20
-27.3
 70
     8
  0
VERTEX
  8
ガラス
 10
81.05
 20
-27.325
 70
     8
  0
VERTEX
  8
ガラス
 10
81.025
 20
-27.325
 70
     8
  0
VERTEX
  8
ガラス
 10
81.0
 20
-27.325
 70
     8
  0
VERTEX
  8
ガラス
 10
81.0
 20
-27.35
 70
     8
  0
VERTEX
  8
ガラス
 10
80.975
 20
-27.35
 70
     8
  0
VERTEX
  8
ガラス
 10
80.95
 20
-27.375
 70
     8
  0
VERTEX
  8
ガラス
 10
80.95
 20
-27.375
 70
     8
  0
VERTEX
  8
ガラス
 10
80.925
 20
-27.4
 70
     8
  0
VERTEX
  8
ガラス
 10
80.925
 20
-27.4
 70
     8
  0
VERTEX
  8
ガラス
 10
80.9
 20
-27.425
 70
     8
  0
VERTEX
  8
ガラス
 10
80.875
 20
-27.425
 70
     8
  0
VERTEX
  8
ガラス
 10
80.875
 20
-27.45
 70
     8
  0
VERTEX
  8
ガラス
 10
80.85
 20
-27.475
 70
     8
  0
VERTEX
  8
ガラス
 10
80.85
 20
-27.475
 70
     8
  0
VERTEX
  8
ガラス
 10
80.825
 20
-27.5
 70
     8
  0
VERTEX
  8
ガラス
 10
80.825
 20
-27.525
 70
     8
  0
VERTEX
  8
ガラス
 10
80.8
 20
-27.525
 70
     8
  0
VERTEX
  8
ガラス
 10
80.775
 20
-27.55
 70
     8
  0
VERTEX
  8
ガラス
 10
80.775
 20
-27.575
 70
     8
  0
VERTEX
  8
ガラス
 10
80.75
 20
-27.575
 70
     8
  0
SEQEND
  0
POLYLINE
  8
ガラス
  6
CONTINUOUS
 62
     7
 66
     1
 70
     4
  0
VERTEX
  8
ガラス
 10
80.75
 20
-27.575
 70
     8
  0
VERTEX
  8
ガラス
 10
80.775
 20
-27.575
 70
     8
  0
VERTEX
  8
ガラス
 10
80.775
 20
-27.575
 70
     8
  0
VERTEX
  8
ガラス
 10
80.8
 20
-27.575
 70
     8
  0
VERTEX
  8
ガラス
 10
80.825
 20
-27.575
 70
     8
  0
VERTEX
  8
ガラス
 10
80.825
 20
-27.575
 70
     8
  0
VERTEX
  8
ガラス
 10
80.85
 20
-27.6
 70
     8
  0
VERTEX
  8
ガラス
 10
80.85
 20
-27.6
 70
     8
  0
VERTEX
  8
ガラス
 10
80.875
 20
-27.6
 70
     8
  0
VERTEX
  8
ガラス
 10
80.875
 20
-27.6
 70
     8
  0
VERTEX
  8
ガラス
 10
80.9
 20
-27.6
 70
     8
  0
VERTEX
  8
ガラス
 10
80.925
 20
-27.6
 70
     8
  0
VERTEX
  8
ガラス
 10
80.925
 20
-27.6
 70
     8
  0
VERTEX
  8
ガラス
 10
80.95
 20
-27.6
 70
     8
  0
VERTEX
  8
ガラス
 10
80.95
 20
-27.6
 70
     8
  0
VERTEX
  8
ガラス
 10
80.975
 20
-27.6
 70
     8
  0
VERTEX
  8
ガラス
 10
80.975
 20
-27.6
 70
     8
  0
VERTEX
  8
ガラス
 10
81.0
 20
-27.6
 70
     8
  0
VERTEX
  8
ガラス
 10
81.025
 20
-27.6
 70
     8
  0
VERTEX
  8
ガラス
 10
81.025
 20
-27.625
 70
     8
  0
VERTEX
  8
ガラス
 10
81.05
 20
-27.625
 70
     8
  0
VERTEX
  8
ガラス
 10
81.05
 20
-27.625
 70
     8
  0
VERTEX
  8
ガラス
 10
81.075
 20
-27.625
 70
     8
  0
VERTEX
  8
ガラス
 10
81.075
 20
-27.625
 70
     8
  0
VERTEX
  8
ガラス
 10
81.1
 20
-27.625
 70
     8
  0
VERTEX
  8
ガラス
 10
81.1
 20
-27.625
 70
     8
  0
VERTEX
  8
ガラス
 10
81.125
 20
-27.65
 70
     8
  0
VERTEX
  8
ガラス
 10
81.15
 20
-27.65
 70
     8
  0
VERTEX
  8
ガラス
 10
81.15
 20
-27.65
 70
     8
  0
VERTEX
  8
ガラス
 10
81.175
 20
-27.65
 70
     8
  0
VERTEX
  8
ガラス
 10
81.175
 20
-27.65
 70
     8
  0
VERTEX
  8
ガラス
 10
81.2
 20
-27.675
 70
     8
  0
VERTEX
  8
ガラス
 10
81.2
 20
-27.675
 70
     8
  0
VERTEX
  8
ガラス
 10
81.225
 20
-27.675
 70
     8
  0
VERTEX
  8
ガラス
 10
81.225
 20
-27.675
 70
     8
  0
VERTEX
  8
ガラス
 10
81.25
 20
-27.675
 70
     8
  0
VERTEX
  8
ガラス
 10
81.25
 20
-27.7
 70
     8
  0
VERTEX
  8
ガラス
 10
81.275
 20
-27.7
 70
     8
  0
VERTEX
  8
ガラス
 10
81.275
 20
-27.7
 70
     8
  0
VERTEX
  8
ガラス
 10
81.3
 20
-27.7
 70
     8
  0
VERTEX
  8
ガラス
 10
81.3
 20
-27.7
 70
     8
  0
SEQEND
  0
ARC
  8
ガラス
  6
CONTINUOUS
 62
     7
 10
81.405422
 20
-27.488874
 40
0.222865
 50
248.796909
 51
428.796909
  0
ENDBLK
  0
BLOCK
  2
*GRP_0018
 70
    65
 10
0.0
 20
0.0
  0
POLYLINE
  8
ガラス
  6
CONTINUOUS
 62
     7
 66
     1
 70
     4
  0
VERTEX
  8
ガラス
 10
75.15
 20
-26.675
 70
     8
  0
VERTEX
  8
ガラス
 10
75.15
 20
-26.675
 70
     8
  0
VERTEX
  8
ガラス
 10
75.125
 20
-26.675
 70
     8
  0
VERTEX
  8
ガラス
 10
75.1
 20
-26.675
 70
     8
  0
VERTEX
  8
ガラス
 10
75.075
 20
-26.675
 70
     8
  0
VERTEX
  8
ガラス
 10
75.05
 20
-26.675
 70
     8
  0
VERTEX
  8
ガラス
 10
75.025
 20
-26.675
 70
     8
  0
VERTEX
  8
ガラス
 10
75.0
 20
-26.675
 70
     8
  0
VERTEX
  8
ガラス
 10
75.0
 20
-26.675
 70
     8
  0
VERTEX
  8
ガラス
 10
74.975
 20
-26.675
 70
     8
  0
VERTEX
  8
ガラス
 10
74.95
 20
-26.675
 70
     8
  0
VERTEX
  8
ガラス
 10
74.925
 20
-26.675
 70
     8
  0
VERTEX
  8
ガラス
 10
74.9
 20
-26.675
 70
     8
  0
VERTEX
  8
ガラス
 10
74.875
 20
-26.675
 70
     8
  0
VERTEX
  8
ガラス
 10
74.875
 20
-26.675
 70
     8
  0
VERTEX
  8
ガラス
 10
74.85
 20
-26.675
 70
     8
  0
VERTEX
  8
ガラス
 10
74.825
 20
-26.675
 70
     8
  0
VERTEX
  8
ガラス
 10
74.8
 20
-26.675
 70
     8
  0
VERTEX
  8
ガラス
 10
74.8
 20
-26.675
 70
     8
  0
VERTEX
  8
ガラス
 10
74.775
 20
-26.7
 70
     8
  0
VERTEX
  8
ガラス
 10
74.75
 20
-26.7
 70
     8
  0
VERTEX
  8
ガラス
 10
74.725
 20
-26.7
 70
     8
  0
VERTEX
  8
ガラス
 10
74.725
 20
-26.7
 70
     8
  0
VERTEX
  8
ガラス
 10
74.7
 20
-26.725
 70
     8
  0
VERTEX
  8
ガラス
 10
74.675
 20
-26.725
 70
     8
  0
VERTEX
  8
ガラス
 10
74.675
 20
-26.75
 70
     8
  0
VERTEX
  8
ガラス
 10
74.65
 20
-26.75
 70
     8
  0
VERTEX
  8
ガラス
 10
74.625
 20
-26.775
 70
     8
  0
VERTEX
  8
ガラス
 10
74.625
 20
-26.775
 70
     8
  0
VERTEX
  8
ガラス
 10
74.6
 20
-26.8
 70
     8
  0
VERTEX
  8
ガラス
 10
74.6
 20
-26.8
 70
     8
  0
VERTEX
  8
ガラス
 10
74.575
 20
-26.825
 70
     8
  0
VERTEX
  8
ガラス
 10
74.55
 20
-26.825
 70
     8
  0
VERTEX
  8
ガラス
 10
74.55
 20
-26.85
 70
     8
  0
VERTEX
  8
ガラス
 10
74.525
 20
-26.875
 70
     8
  0
VERTEX
  8
ガラス
 10
74.525
 20
-26.875
 70
     8
  0
VERTEX
  8
ガラス
 10
74.5
 20
-26.9
 70
     8
  0
VERTEX
  8
ガラス
 10
74.5
 20
-26.925
 70
     8
  0
VERTEX
  8
ガラス
 10
74.475
 20
-26.925
 70
     8
  0
VERTEX
  8
ガラス
 10
74.45
 20
-26.95
 70
     8
  0
VERTEX
  8
ガラス
 10
74.45
 20
-26.975
 70
     8
  0
SEQEND
  0
POLYLINE
  8
ガラス
  6
CONTINUOUS
 62
     7
 66
     1
 70
     4
  0
VERTEX
  8
ガラス
 10
74.45
 20
-26.975
 70
     8
  0
VERTEX
  8
ガラス
 10
74.45
 20
-26.975
 70
     8
  0
VERTEX
  8
ガラス
 10
74.475
 20
-26.975
 70
     8
  0
VERTEX
  8
ガラス
 10
74.5
 20
-26.975
 70
     8
  0
VERTEX
  8
ガラス
 10
74.5
 20
-26.975
 70
     8
  0
VERTEX
  8
ガラス
 10
74.525
 20
-26.975
 70
     8
  0
VERTEX
  8
ガラス
 10
74.525
 20
-26.975
 70
     8
  0
VERTEX
  8
ガラス
 10
74.55
 20
-26.975
 70
     8
  0
VERTEX
  8
ガラス
 10
74.55
 20
-26.975
 70
     8
  0
VERTEX
  8
ガラス
 10
74.575
 20
-26.975
 70
     8
  0
VERTEX
  8
ガラス
 10
74.6
 20
-26.975
 70
     8
  0
VERTEX
  8
ガラス
 10
74.6
 20
-26.975
 70
     8
  0
VERTEX
  8
ガラス
 10
74.625
 20
-26.975
 70
     8
  0
VERTEX
  8
ガラス
 10
74.625
 20
-26.975
 70
     8
  0
VERTEX
  8
ガラス
 10
74.65
 20
-26.975
 70
     8
  0
VERTEX
  8
ガラス
 10
74.65
 20
-27.0
 70
     8
  0
VERTEX
  8
ガラス
 10
74.675
 20
-27.0
 70
     8
  0
VERTEX
  8
ガラス
 10
74.7
 20
-27.0
 70
     8
  0
VERTEX
  8
ガラス
 10
74.7
 20
-27.0
 70
     8
  0
VERTEX
  8
ガラス
 10
74.725
 20
-27.0
 70
     8
  0
VERTEX
  8
ガラス
 10
74.725
 20
-27.0
 70
     8
  0
VERTEX
  8
ガラス
 10
74.75
 20
-27.0
 70
     8
  0
VERTEX
  8
ガラス
 10
74.75
 20
-27.0
 70
     8
  0
VERTEX
  8
ガラス
 10
74.775
 20
-27.025
 70
     8
  0
VERTEX
  8
ガラス
 10
74.775
 20
-27.025
 70
     8
  0
VERTEX
  8
ガラス
 10
74.8
 20
-27.025
 70
     8
  0
VERTEX
  8
ガラス
 10
74.8
 20
-27.025
 70
     8
  0
VERTEX
  8
ガラス
 10
74.825
 20
-27.025
 70
     8
  0
VERTEX
  8
ガラス
 10
74.85
 20
-27.025
 70
     8
  0
VERTEX
  8
ガラス
 10
74.85
 20
-27.05
 70
     8
  0
VERTEX
  8
ガラス
 10
74.875
 20
-27.05
 70
     8
  0
VERTEX
  8
ガラス
 10
74.875
 20
-27.05
 70
     8
  0
VERTEX
  8
ガラス
 10
74.9
 20
-27.05
 70
     8
  0
VERTEX
  8
ガラス
 10
74.9
 20
-27.05
 70
     8
  0
VERTEX
  8
ガラス
 10
74.925
 20
-27.05
 70
     8
  0
VERTEX
  8
ガラス
 10
74.925
 20
-27.075
 70
     8
  0
VERTEX
  8
ガラス
 10
74.95
 20
-27.075
 70
     8
  0
VERTEX
  8
ガラス
 10
74.95
 20
-27.075
 70
     8
  0
VERTEX
  8
ガラス
 10
74.975
 20
-27.075
 70
     8
  0
VERTEX
  8
ガラス
 10
74.975
 20
-27.1
 70
     8
  0
VERTEX
  8
ガラス
 10
75.0
 20
-27.1
 70
     8
  0
SEQEND
  0
ARC
  8
ガラス
  6
CONTINUOUS
 62
     7
 10
75.093905
 20
-26.873385
 40
0.222865
 50
248.796909
 51
428.796909
  0
ENDBLK
  0
BLOCK
  2
*GRP_0019
 70
    65
 10
0.0
 20
0.0
  0
POLYLINE
  8
ガラス
  6
CONTINUOUS
 62
     7
 66
     1
 70
     4
  0
VERTEX
  8
ガラス
 10
72.475
 20
-26.675
 70
     8
  0
VERTEX
  8
ガラス
 10
72.45
 20
-26.675
 70
     8
  0
VERTEX
  8
ガラス
 10
72.425
 20
-26.675
 70
     8
  0
VERTEX
  8
ガラス
 10
72.425
 20
-26.675
 70
     8
  0
VERTEX
  8
ガラス
 10
72.4
 20
-26.675
 70
     8
  0
VERTEX
  8
ガラス
 10
72.375
 20
-26.675
 70
     8
  0
VERTEX
  8
ガラス
 10
72.35
 20
-26.675
 70
     8
  0
VERTEX
  8
ガラス
 10
72.325
 20
-26.675
 70
     8
  0
VERTEX
  8
ガラス
 10
72.3
 20
-26.675
 70
     8
  0
VERTEX
  8
ガラス
 10
72.275
 20
-26.675
 70
     8
  0
VERTEX
  8
ガラス
 10
72.275
 20
-26.675
 70
     8
  0
VERTEX
  8
ガラス
 10
72.25
 20
-26.675
 70
     8
  0
VERTEX
  8
ガラス
 10
72.225
 20
-26.675
 70
     8
  0
VERTEX
  8
ガラス
 10
72.2
 20
-26.675
 70
     8
  0
VERTEX
  8
ガラス
 10
72.175
 20
-26.675
 70
     8
  0
VERTEX
  8
ガラス
 10
72.175
 20
-26.675
 70
     8
  0
VERTEX
  8
ガラス
 10
72.15
 20
-26.675
 70
     8
  0
VERTEX
  8
ガラス
 10
72.125
 20
-26.675
 70
     8
  0
VERTEX
  8
ガラス
 10
72.1
 20
-26.675
 70
     8
  0
VERTEX
  8
ガラス
 10
72.075
 20
-26.7
 70
     8
  0
VERTEX
  8
ガラス
 10
72.075
 20
-26.7
 70
     8
  0
VERTEX
  8
ガラス
 10
72.05
 20
-26.7
 70
     8
  0
VERTEX
  8
ガラス
 10
72.025
 20
-26.7
 70
     8
  0
VERTEX
  8
ガラス
 10
72.025
 20
-26.725
 70
     8
  0
VERTEX
  8
ガラス
 10
72.0
 20
-26.725
 70
     8
  0
VERTEX
  8
ガラス
 10
71.975
 20
-26.75
 70
     8
  0
VERTEX
  8
ガラス
 10
71.975
 20
-26.75
 70
     8
  0
VERTEX
  8
ガラス
 10
71.95
 20
-26.775
 70
     8
  0
VERTEX
  8
ガラス
 10
71.925
 20
-26.775
 70
     8
  0
VERTEX
  8
ガラス
 10
71.925
 20
-26.8
 70
     8
  0
VERTEX
  8
ガラス
 10
71.9
 20
-26.8
 70
     8
  0
VERTEX
  8
ガラス
 10
71.9
 20
-26.825
 70
     8
  0
VERTEX
  8
ガラス
 10
71.875
 20
-26.825
 70
     8
  0
VERTEX
  8
ガラス
 10
71.85
 20
-26.85
 70
     8
  0
VERTEX
  8
ガラス
 10
71.85
 20
-26.875
 70
     8
  0
VERTEX
  8
ガラス
 10
71.825
 20
-26.875
 70
     8
  0
VERTEX
  8
ガラス
 10
71.825
 20
-26.9
 70
     8
  0
VERTEX
  8
ガラス
 10
71.8
 20
-26.925
 70
     8
  0
VERTEX
  8
ガラス
 10
71.8
 20
-26.925
 70
     8
  0
VERTEX
  8
ガラス
 10
71.775
 20
-26.95
 70
     8
  0
VERTEX
  8
ガラス
 10
71.775
 20
-26.975
 70
     8
  0
SEQEND
  0
POLYLINE
  8
ガラス
  6
CONTINUOUS
 62
     7
 66
     1
 70
     4
  0
VERTEX
  8
ガラス
 10
71.775
 20
-26.975
 70
     8
  0
VERTEX
  8
ガラス
 10
71.775
 20
-26.975
 70
     8
  0
VERTEX
  8
ガラス
 10
71.8
 20
-26.975
 70
     8
  0
VERTEX
  8
ガラス
 10
71.8
 20
-26.975
 70
     8
  0
VERTEX
  8
ガラス
 10
71.825
 20
-26.975
 70
     8
  0
VERTEX
  8
ガラス
 10
71.825
 20
-26.975
 70
     8
  0
VERTEX
  8
ガラス
 10
71.85
 20
-26.975
 70
     8
  0
VERTEX
  8
ガラス
 10
71.875
 20
-26.975
 70
     8
  0
VERTEX
  8
ガラス
 10
71.875
 20
-26.975
 70
     8
  0
VERTEX
  8
ガラス
 10
71.9
 20
-26.975
 70
     8
  0
VERTEX
  8
ガラス
 10
71.9
 20
-26.975
 70
     8
  0
VERTEX
  8
ガラス
 10
71.925
 20
-26.975
 70
     8
  0
VERTEX
  8
ガラス
 10
71.925
 20
-26.975
 70
     8
  0
VERTEX
  8
ガラス
 10
71.95
 20
-26.975
 70
     8
  0
VERTEX
  8
ガラス
 10
71.975
 20
-26.975
 70
     8
  0
VERTEX
  8
ガラス
 10
71.975
 20
-27.0
 70
     8
  0
VERTEX
  8
ガラス
 10
72.0
 20
-27.0
 70
     8
  0
VERTEX
  8
ガラス
 10
72.0
 20
-27.0
 70
     8
  0
VERTEX
  8
ガラス
 10
72.025
 20
-27.0
 70
     8
  0
VERTEX
  8
ガラス
 10
72.025
 20
-27.0
 70
     8
  0
VERTEX
  8
ガラス
 10
72.05
 20
-27.0
 70
     8
  0
VERTEX
  8
ガラス
 10
72.05
 20
-27.0
 70
     8
  0
VERTEX
  8
ガラス
 10
72.075
 20
-27.0
 70
     8
  0
VERTEX
  8
ガラス
 10
72.1
 20
-27.025
 70
     8
  0
VERTEX
  8
ガラス
 10
72.1
 20
-27.025
 70
     8
  0
VERTEX
  8
ガラス
 10
72.125
 20
-27.025
 70
     8
  0
VERTEX
  8
ガラス
 10
72.125
 20
-27.025
 70
     8
  0
VERTEX
  8
ガラス
 10
72.15
 20
-27.025
 70
     8
  0
VERTEX
  8
ガラス
 10
72.15
 20
-27.025
 70
     8
  0
VERTEX
  8
ガラス
 10
72.175
 20
-27.05
 70
     8
  0
VERTEX
  8
ガラス
 10
72.175
 20
-27.05
 70
     8
  0
VERTEX
  8
ガラス
 10
72.2
 20
-27.05
 70
     8
  0
VERTEX
  8
ガラス
 10
72.2
 20
-27.05
 70
     8
  0
VERTEX
  8
ガラス
 10
72.225
 20
-27.05
 70
     8
  0
VERTEX
  8
ガラス
 10
72.225
 20
-27.05
 70
     8
  0
VERTEX
  8
ガラス
 10
72.25
 20
-27.075
 70
     8
  0
VERTEX
  8
ガラス
 10
72.275
 20
-27.075
 70
     8
  0
VERTEX
  8
ガラス
 10
72.275
 20
-27.075
 70
     8
  0
VERTEX
  8
ガラス
 10
72.3
 20
-27.075
 70
     8
  0
VERTEX
  8
ガラス
 10
72.3
 20
-27.1
 70
     8
  0
VERTEX
  8
ガラス
 10
72.325
 20
-27.1
 70
     8
  0
SEQEND
  0
ARC
  8
ガラス
  6
CONTINUOUS
 62
     7
 10
72.410611
 20
-26.873385
 40
0.222865
 50
248.796909
 51
428.796909
  0
ENDBLK
  0
BLOCK
  2
*GRP_0020
 70
    65
 10
0.0
 20
0.0
  0
POLYLINE
  8
ガラス
  6
CONTINUOUS
 62
     7
 66
     1
 70
     4
  0
VERTEX
  8
ガラス
 10
69.0
 20
-26.675
 70
     8
  0
VERTEX
  8
ガラス
 10
68.975
 20
-26.675
 70
     8
  0
VERTEX
  8
ガラス
 10
68.95
 20
-26.675
 70
     8
  0
VERTEX
  8
ガラス
 10
68.95
 20
-26.675
 70
     8
  0
VERTEX
  8
ガラス
 10
68.925
 20
-26.675
 70
     8
  0
VERTEX
  8
ガラス
 10
68.9
 20
-26.675
 70
     8
  0
VERTEX
  8
ガラス
 10
68.875
 20
-26.675
 70
     8
  0
VERTEX
  8
ガラス
 10
68.85
 20
-26.675
 70
     8
  0
VERTEX
  8
ガラス
 10
68.825
 20
-26.675
 70
     8
  0
VERTEX
  8
ガラス
 10
68.8
 20
-26.675
 70
     8
  0
VERTEX
  8
ガラス
 10
68.8
 20
-26.675
 70
     8
  0
VERTEX
  8
ガラス
 10
68.775
 20
-26.675
 70
     8
  0
VERTEX
  8
ガラス
 10
68.75
 20
-26.675
 70
     8
  0
VERTEX
  8
ガラス
 10
68.725
 20
-26.675
 70
     8
  0
VERTEX
  8
ガラス
 10
68.7
 20
-26.675
 70
     8
  0
VERTEX
  8
ガラス
 10
68.7
 20
-26.675
 70
     8
  0
VERTEX
  8
ガラス
 10
68.675
 20
-26.675
 70
     8
  0
VERTEX
  8
ガラス
 10
68.65
 20
-26.675
 70
     8
  0
VERTEX
  8
ガラス
 10
68.625
 20
-26.675
 70
     8
  0
VERTEX
  8
ガラス
 10
68.625
 20
-26.7
 70
     8
  0
VERTEX
  8
ガラス
 10
68.6
 20
-26.7
 70
     8
  0
VERTEX
  8
ガラス
 10
68.575
 20
-26.7
 70
     8
  0
VERTEX
  8
ガラス
 10
68.55
 20
-26.7
 70
     8
  0
VERTEX
  8
ガラス
 10
68.55
 20
-26.725
 70
     8
  0
VERTEX
  8
ガラス
 10
68.525
 20
-26.725
 70
     8
  0
VERTEX
  8
ガラス
 10
68.5
 20
-26.75
 70
     8
  0
VERTEX
  8
ガラス
 10
68.5
 20
-26.75
 70
     8
  0
VERTEX
  8
ガラス
 10
68.475
 20
-26.775
 70
     8
  0
VERTEX
  8
ガラス
 10
68.475
 20
-26.775
 70
     8
  0
VERTEX
  8
ガラス
 10
68.45
 20
-26.8
 70
     8
  0
VERTEX
  8
ガラス
 10
68.425
 20
-26.8
 70
     8
  0
VERTEX
  8
ガラス
 10
68.425
 20
-26.825
 70
     8
  0
VERTEX
  8
ガラス
 10
68.4
 20
-26.825
 70
     8
  0
VERTEX
  8
ガラス
 10
68.4
 20
-26.85
 70
     8
  0
VERTEX
  8
ガラス
 10
68.375
 20
-26.875
 70
     8
  0
VERTEX
  8
ガラス
 10
68.35
 20
-26.875
 70
     8
  0
VERTEX
  8
ガラス
 10
68.35
 20
-26.9
 70
     8
  0
VERTEX
  8
ガラス
 10
68.325
 20
-26.925
 70
     8
  0
VERTEX
  8
ガラス
 10
68.325
 20
-26.925
 70
     8
  0
VERTEX
  8
ガラス
 10
68.3
 20
-26.95
 70
     8
  0
VERTEX
  8
ガラス
 10
68.3
 20
-26.975
 70
     8
  0
SEQEND
  0
POLYLINE
  8
ガラス
  6
CONTINUOUS
 62
     7
 66
     1
 70
     4
  0
VERTEX
  8
ガラス
 10
68.3
 20
-26.975
 70
     8
  0
VERTEX
  8
ガラス
 10
68.3
 20
-26.975
 70
     8
  0
VERTEX
  8
ガラス
 10
68.325
 20
-26.975
 70
     8
  0
VERTEX
  8
ガラス
 10
68.325
 20
-26.975
 70
     8
  0
VERTEX
  8
ガラス
 10
68.35
 20
-26.975
 70
     8
  0
VERTEX
  8
ガラス
 10
68.35
 20
-26.975
 70
     8
  0
VERTEX
  8
ガラス
 10
68.375
 20
-26.975
 70
     8
  0
VERTEX
  8
ガラス
 10
68.4
 20
-26.975
 70
     8
  0
VERTEX
  8
ガラス
 10
68.4
 20
-26.975
 70
     8
  0
VERTEX
  8
ガラス
 10
68.425
 20
-26.975
 70
     8
  0
VERTEX
  8
ガラス
 10
68.425
 20
-26.975
 70
     8
  0
VERTEX
  8
ガラス
 10
68.45
 20
-26.975
 70
     8
  0
VERTEX
  8
ガラス
 10
68.45
 20
-26.975
 70
     8
  0
VERTEX
  8
ガラス
 10
68.475
 20
-26.975
 70
     8
  0
VERTEX
  8
ガラス
 10
68.5
 20
-26.975
 70
     8
  0
VERTEX
  8
ガラス
 10
68.5
 20
-27.0
 70
     8
  0
VERTEX
  8
ガラス
 10
68.525
 20
-27.0
 70
     8
  0
VERTEX
  8
ガラス
 10
68.525
 20
-27.0
 70
     8
  0
VERTEX
  8
ガラス
 10
68.55
 20
-27.0
 70
     8
  0
VERTEX
  8
ガラス
 10
68.55
 20
-27.0
 70
     8
  0
VERTEX
  8
ガラス
 10
68.575
 20
-27.0
 70
     8
  0
VERTEX
  8
ガラス
 10
68.575
 20
-27.0
 70
     8
  0
VERTEX
  8
ガラス
 10
68.6
 20
-27.0
 70
     8
  0
VERTEX
  8
ガラス
 10
68.625
 20
-27.025
 70
     8
  0
VERTEX
  8
ガラス
 10
68.625
 20
-27.025
 70
     8
  0
VERTEX
  8
ガラス
 10
68.65
 20
-27.025
 70
     8
  0
VERTEX
  8
ガラス
 10
68.65
 20
-27.025
 70
     8
  0
VERTEX
  8
ガラス
 10
68.675
 20
-27.025
 70
     8
  0
VERTEX
  8
ガラス
 10
68.675
 20
-27.025
 70
     8
  0
VERTEX
  8
ガラス
 10
68.7
 20
-27.05
 70
     8
  0
VERTEX
  8
ガラス
 10
68.7
 20
-27.05
 70
     8
  0
VERTEX
  8
ガラス
 10
68.725
 20
-27.05
 70
     8
  0
VERTEX
  8
ガラス
 10
68.725
 20
-27.05
 70
     8
  0
VERTEX
  8
ガラス
 10
68.75
 20
-27.05
 70
     8
  0
VERTEX
  8
ガラス
 10
68.775
 20
-27.05
 70
     8
  0
VERTEX
  8
ガラス
 10
68.775
 20
-27.075
 70
     8
  0
VERTEX
  8
ガラス
 10
68.8
 20
-27.075
 70
     8
  0
VERTEX
  8
ガラス
 10
68.8
 20
-27.075
 70
     8
  0
VERTEX
  8
ガラス
 10
68.825
 20
-27.075
 70
     8
  0
VERTEX
  8
ガラス
 10
68.825
 20
-27.1
 70
     8
  0
VERTEX
  8
ガラス
 10
68.85
 20
-27.1
 70
     8
  0
SEQEND
  0
ARC
  8
ガラス
  6
CONTINUOUS
 62
     7
 10
68.937276
 20
-26.873385
 40
0.222865
 50
248.796909
 51
428.796909
  0
ENDBLK
  0
BLOCK
  2
*GRP_0021
 70
    65
 10
0.0
 20
0.0
  0
POLYLINE
  8
ガラス
  6
CONTINUOUS
 62
     7
 66
     1
 70
     4
  0
VERTEX
  8
ガラス
 10
66.15
 20
-26.75
 70
     8
  0
VERTEX
  8
ガラス
 10
66.15
 20
-26.725
 70
     8
  0
VERTEX
  8
ガラス
 10
66.15
 20
-26.7
 70
     8
  0
VERTEX
  8
ガラス
 10
66.125
 20
-26.675
 70
     8
  0
VERTEX
  8
ガラス
 10
66.125
 20
-26.65
 70
     8
  0
VERTEX
  8
ガラス
 10
66.125
 20
-26.625
 70
     8
  0
VERTEX
  8
ガラス
 10
66.125
 20
-26.625
 70
     8
  0
VERTEX
  8
ガラス
 10
66.1
 20
-26.6
 70
     8
  0
VERTEX
  8
ガラス
 10
66.1
 20
-26.575
 70
     8
  0
VERTEX
  8
ガラス
 10
66.1
 20
-26.55
 70
     8
  0
VERTEX
  8
ガラス
 10
66.1
 20
-26.525
 70
     8
  0
VERTEX
  8
ガラス
 10
66.075
 20
-26.525
 70
     8
  0
VERTEX
  8
ガラス
 10
66.075
 20
-26.5
 70
     8
  0
VERTEX
  8
ガラス
 10
66.075
 20
-26.475
 70
     8
  0
VERTEX
  8
ガラス
 10
66.05
 20
-26.475
 70
     8
  0
VERTEX
  8
ガラス
 10
66.05
 20
-26.45
 70
     8
  0
VERTEX
  8
ガラス
 10
66.025
 20
-26.425
 70
     8
  0
VERTEX
  8
ガラス
 10
66.025
 20
-26.4
 70
     8
  0
VERTEX
  8
ガラス
 10
66.0
 20
-26.4
 70
     8
  0
VERTEX
  8
ガラス
 10
66.0
 20
-26.375
 70
     8
  0
VERTEX
  8
ガラス
 10
66.0
 20
-26.375
 70
     8
  0
VERTEX
  8
ガラス
 10
65.975
 20
-26.35
 70
     8
  0
VERTEX
  8
ガラス
 10
65.95
 20
-26.35
 70
     8
  0
VERTEX
  8
ガラス
 10
65.95
 20
-26.325
 70
     8
  0
VERTEX
  8
ガラス
 10
65.925
 20
-26.325
 70
     8
  0
VERTEX
  8
ガラス
 10
65.925
 20
-26.3
 70
     8
  0
VERTEX
  8
ガラス
 10
65.9
 20
-26.3
 70
     8
  0
VERTEX
  8
ガラス
 10
65.875
 20
-26.275
 70
     8
  0
VERTEX
  8
ガラス
 10
65.875
 20
-26.275
 70
     8
  0
VERTEX
  8
ガラス
 10
65.85
 20
-26.275
 70
     8
  0
VERTEX
  8
ガラス
 10
65.825
 20
-26.25
 70
     8
  0
VERTEX
  8
ガラス
 10
65.8
 20
-26.25
 70
     8
  0
VERTEX
  8
ガラス
 10
65.8
 20
-26.225
 70
     8
  0
VERTEX
  8
ガラス
 10
65.775
 20
-26.225
 70
     8
  0
VERTEX
  8
ガラス
 10
65.75
 20
-26.225
 70
     8
  0
VERTEX
  8
ガラス
 10
65.725
 20
-26.225
 70
     8
  0
VERTEX
  8
ガラス
 10
65.7
 20
-26.2
 70
     8
  0
VERTEX
  8
ガラス
 10
65.7
 20
-26.2
 70
     8
  0
VERTEX
  8
ガラス
 10
65.675
 20
-26.2
 70
     8
  0
VERTEX
  8
ガラス
 10
65.65
 20
-26.175
 70
     8
  0
VERTEX
  8
ガラス
 10
65.625
 20
-26.175
 70
     8
  0
SEQEND
  0
POLYLINE
  8
ガラス
  6
CONTINUOUS
 62
     7
 66
     1
 70
     4
  0
VERTEX
  8
ガラス
 10
65.625
 20
-26.175
 70
     8
  0
VERTEX
  8
ガラス
 10
65.625
 20
-26.2
 70
     8
  0
VERTEX
  8
ガラス
 10
65.625
 20
-26.2
 70
     8
  0
VERTEX
  8
ガラス
 10
65.65
 20
-26.225
 70
     8
  0
VERTEX
  8
ガラス
 10
65.65
 20
-26.225
 70
     8
  0
VERTEX
  8
ガラス
 10
65.65
 20
-26.25
 70
     8
  0
VERTEX
  8
ガラス
 10
65.65
 20
-26.25
 70
     8
  0
VERTEX
  8
ガラス
 10
65.65
 20
-26.275
 70
     8
  0
VERTEX
  8
ガラス
 10
65.65
 20
-26.3
 70
     8
  0
VERTEX
  8
ガラス
 10
65.65
 20
-26.3
 70
     8
  0
VERTEX
  8
ガラス
 10
65.675
 20
-26.325
 70
     8
  0
VERTEX
  8
ガラス
 10
65.675
 20
-26.325
 70
     8
  0
VERTEX
  8
ガラス
 10
65.675
 20
-26.35
 70
     8
  0
VERTEX
  8
ガラス
 10
65.675
 20
-26.35
 70
     8
  0
VERTEX
  8
ガラス
 10
65.675
 20
-26.375
 70
     8
  0
VERTEX
  8
ガラス
 10
65.675
 20
-26.375
 70
     8
  0
VERTEX
  8
ガラス
 10
65.675
 20
-26.4
 70
     8
  0
VERTEX
  8
ガラス
 10
65.675
 20
-26.425
 70
     8
  0
VERTEX
  8
ガラス
 10
65.7
 20
-26.425
 70
     8
  0
VERTEX
  8
ガラス
 10
65.7
 20
-26.45
 70
     8
  0
VERTEX
  8
ガラス
 10
65.7
 20
-26.45
 70
     8
  0
VERTEX
  8
ガラス
 10
65.7
 20
-26.475
 70
     8
  0
VERTEX
  8
ガラス
 10
65.7
 20
-26.475
 70
     8
  0
VERTEX
  8
ガラス
 10
65.7
 20
-26.5
 70
     8
  0
VERTEX
  8
ガラス
 10
65.7
 20
-26.5
 70
     8
  0
VERTEX
  8
ガラス
 10
65.7
 20
-26.525
 70
     8
  0
VERTEX
  8
ガラス
 10
65.7
 20
-26.55
 70
     8
  0
VERTEX
  8
ガラス
 10
65.7
 20
-26.55
 70
     8
  0
VERTEX
  8
ガラス
 10
65.7
 20
-26.575
 70
     8
  0
VERTEX
  8
ガラス
 10
65.7
 20
-26.575
 70
     8
  0
VERTEX
  8
ガラス
 10
65.7
 20
-26.6
 70
     8
  0
VERTEX
  8
ガラス
 10
65.7
 20
-26.6
 70
     8
  0
VERTEX
  8
ガラス
 10
65.7
 20
-26.625
 70
     8
  0
VERTEX
  8
ガラス
 10
65.7
 20
-26.65
 70
     8
  0
VERTEX
  8
ガラス
 10
65.7
 20
-26.65
 70
     8
  0
VERTEX
  8
ガラス
 10
65.7
 20
-26.675
 70
     8
  0
VERTEX
  8
ガラス
 10
65.7
 20
-26.675
 70
     8
  0
VERTEX
  8
ガラス
 10
65.7
 20
-26.7
 70
     8
  0
VERTEX
  8
ガラス
 10
65.7
 20
-26.725
 70
     8
  0
VERTEX
  8
ガラス
 10
65.7
 20
-26.725
 70
     8
  0
VERTEX
  8
ガラス
 10
65.7
 20
-26.75
 70
     8
  0
SEQEND
  0
ARC
  8
ガラス
  6
CONTINUOUS
 62
     7
 10
65.942605
 20
-26.728912
 40
0.222865
 50
180.0
 51
360.0
  0
ENDBLK
  0
BLOCK
  2
*GRP_0022
 70
    65
 10
0.0
 20
0.0
  0
LINE
  8
ボルト／ビス
  6
CONTINUOUS
 62
    64
 10
-83.676785
 20
-59.055033
 11
-83.525018
 21
-59.472
  0
ARC
  8
ボルト／ビス
  6
CONTINUOUS
 62
    64
 10
-82.312066
 20
-58.846543
 40
1.364723
 50
152.722034
 51
180.0
  0
LINE
  8
ボルト／ビス
  6
CONTINUOUS
 62
    64
 10
-83.676785
 20
-54.885282
 11
-83.525018
 21
-54.4683
  0
ARC
  8
ボルト／ビス
  6
CONTINUOUS
 62
    64
 10
-82.312066
 20
-55.093764
 40
1.364723
 50
180.0
 51
207.277966
  0
ARC
  8
ボルト／ビス
  6
CONTINUOUS
 62
    64
 10
-78.445545
 20
-56.970153
 40
5.231244
 50
166.165046
 51
193.834954
  0
LINE
  8
ボルト／ビス
  6
CONTINUOUS
 62
    64
 10
-81.960117
 20
-59.472
 11
-83.525018
 21
-59.472
  0
LINE
  8
ボルト／ビス
  6
CONTINUOUS
 62
    64
 10
-81.960117
 20
-54.4683
 11
-83.525018
 21
-54.4683
  0
LINE
  8
ボルト／ビス
  6
CONTINUOUS
 62
    64
 10
-83.676785
 20
-54.885282
 11
-83.676785
 21
-59.055033
  0
LINE
  8
ボルト／ビス
  6
CONTINUOUS
 62
    64
 10
-83.525018
 20
-55.719232
 11
-81.960117
 21
-55.719232
  0
LINE
  8
ボルト／ビス
  6
CONTINUOUS
 62
    64
 10
-83.525018
 20
-58.221083
 11
-81.960117
 21
-58.221083
  0
LINE
  8
ボルト／ビス
  6
CONTINUOUS
 62
    64
 10
-81.960117
 20
-54.4683
 11
-81.960117
 21
-59.472
  0
LINE
  8
ボルト／ビス
  6
CONTINUOUS
 62
    64
 10
-81.360117
 20
-59.886817
 11
-81.026785
 21
-59.886817
  0
LINE
  8
ボルト／ビス
  6
CONTINUOUS
 62
    64
 10
-81.360117
 20
-54.053482
 11
-81.026785
 21
-54.053482
  0
LINE
  8
ボルト／ビス
  6
CONTINUOUS
 62
    64
 10
-81.360117
 20
-59.886817
 11
-81.360117
 21
-54.053482
  0
LINE
  8
ボルト／ビス
  6
CONTINUOUS
 62
    64
 10
-81.026785
 20
-59.886817
 11
-81.026785
 21
-54.053482
  0
LINE
  8
ボルト／ビス
  6
CONTINUOUS
 62
    64
 10
-81.960117
 20
-56.97015
 11
-81.360117
 21
-56.97015
  0
LINE
  8
ボルト／ビス
  6
CONTINUOUS
 62
    64
 10
-81.960117
 20
-54.336817
 11
-81.360117
 21
-54.336817
  0
LINE
  8
ボルト／ビス
  6
CONTINUOUS
 62
    64
 10
-81.960117
 20
-59.603482
 11
-81.360117
 21
-59.603482
  0
LINE
  8
ボルト／ビス
  6
CONTINUOUS
 62
    64
 10
-81.960117
 20
-54.336817
 11
-81.960117
 21
-59.603482
  0
LINE
  8
ボルト／ビス
  6
CONTINUOUS
 62
    64
 10
-85.34345
 20
-56.97015
 11
-71.960117
 21
-56.97015
  0
LINE
  8
ボルト／ビス
  6
CONTINUOUS
 62
    64
 10
-73.626785
 20
-55.903482
 11
-73.626785
 21
-58.036817
  0
LINE
  8
ボルト／ビス
  6
CONTINUOUS
 62
    64
 10
-74.026785
 20
-55.636817
 11
-73.626785
 21
-55.903482
  0
LINE
  8
ボルト／ビス
  6
CONTINUOUS
 62
    64
 10
-74.026785
 20
-58.303482
 11
-73.626785
 21
-58.036817
  0
LINE
  8
ボルト／ビス
  6
CONTINUOUS
 62
    64
 10
-73.626785
 20
-55.903482
 11
-73.626785
 21
-58.036817
  0
LINE
  8
ボルト／ビス
  6
CONTINUOUS
 62
    64
 10
-74.026785
 20
-55.636817
 11
-74.026785
 21
-58.303482
  0
LINE
  8
ボルト／ビス
  6
CONTINUOUS
 62
    64
 10
-81.026785
 20
-55.636817
 11
-74.026785
 21
-55.636817
  0
LINE
  8
ボルト／ビス
  6
CONTINUOUS
 62
    64
 10
-81.026785
 20
-58.303482
 11
-74.026785
 21
-58.303482
  0
LINE
  8
ボルト／ビス
  6
CONTINUOUS
 62
    64
 10
-81.026785
 20
-55.903482
 11
-73.626785
 21
-55.903482
  0
LINE
  8
ボルト／ビス
  6
CONTINUOUS
 62
    64
 10
-81.026785
 20
-58.036817
 11
-73.626785
 21
-58.036817
  0
ENDBLK
  0
BLOCK
  2
*GRP_0023
 70
    65
 10
0.0
 20
0.0
  0
LINE
  8
ボルト／ビス
  6
CONTINUOUS
 62
    64
 10
-76.24345
 20
-59.055033
 11
-76.395218
 21
-59.472
  0
ARC
  8
ボルト／ビス
  6
CONTINUOUS
 62
    64
 10
-77.608177
 20
-58.846541
 40
1.364723
 50
0.0
 51
27.277966
  0
LINE
  8
ボルト／ビス
  6
CONTINUOUS
 62
    64
 10
-76.24345
 20
-54.885268
 11
-76.395218
 21
-54.4683
  0
ARC
  8
ボルト／ビス
  6
CONTINUOUS
 62
    64
 10
-77.608177
 20
-55.093763
 40
1.364723
 50
332.722034
 51
360.0
  0
ARC
  8
ボルト／ビス
  6
CONTINUOUS
 62
    64
 10
-81.474698
 20
-56.970152
 40
5.231244
 50
346.165046
 51
373.834954
  0
LINE
  8
ボルト／ビス
  6
CONTINUOUS
 62
    64
 10
-77.960117
 20
-59.472
 11
-76.395218
 21
-59.472
  0
LINE
  8
ボルト／ビス
  6
CONTINUOUS
 62
    64
 10
-77.960117
 20
-54.4683
 11
-76.395218
 21
-54.4683
  0
LINE
  8
ボルト／ビス
  6
CONTINUOUS
 62
    64
 10
-76.24345
 20
-54.885268
 11
-76.24345
 21
-59.055033
  0
LINE
  8
ボルト／ビス
  6
CONTINUOUS
 62
    64
 10
-76.395218
 20
-55.719218
 11
-77.960117
 21
-55.719218
  0
LINE
  8
ボルト／ビス
  6
CONTINUOUS
 62
    64
 10
-76.395218
 20
-58.221083
 11
-77.960117
 21
-58.221083
  0
LINE
  8
ボルト／ビス
  6
CONTINUOUS
 62
    64
 10
-77.960117
 20
-54.4683
 11
-77.960117
 21
-59.472
  0
LINE
  8
ボルト／ビス
  6
CONTINUOUS
 62
    64
 10
-78.560117
 20
-59.886817
 11
-78.89345
 21
-59.886817
  0
LINE
  8
ボルト／ビス
  6
CONTINUOUS
 62
    64
 10
-78.560117
 20
-54.053482
 11
-78.89345
 21
-54.053482
  0
LINE
  8
ボルト／ビス
  6
CONTINUOUS
 62
    64
 10
-78.560117
 20
-59.886817
 11
-78.560117
 21
-54.053482
  0
LINE
  8
ボルト／ビス
  6
CONTINUOUS
 62
    64
 10
-78.89345
 20
-59.886817
 11
-78.89345
 21
-54.053482
  0
LINE
  8
ボルト／ビス
  6
CONTINUOUS
 62
    64
 10
-77.960117
 20
-56.97015
 11
-78.560117
 21
-56.97015
  0
LINE
  8
ボルト／ビス
  6
CONTINUOUS
 62
    64
 10
-77.960117
 20
-54.336817
 11
-78.560117
 21
-54.336817
  0
LINE
  8
ボルト／ビス
  6
CONTINUOUS
 62
    64
 10
-77.960117
 20
-59.603482
 11
-78.560117
 21
-59.603482
  0
LINE
  8
ボルト／ビス
  6
CONTINUOUS
 62
    64
 10
-77.960117
 20
-54.336817
 11
-77.960117
 21
-59.603482
  0
ENDBLK
  0
BLOCK
  2
*GRP_0024
 70
    65
 10
0.0
 20
0.0
  0
LINE
  8
ボルト／ビス
  6
CONTINUOUS
 62
    64
 10
-80.026785
 20
-47.136817
 11
-80.026785
 21
-45.803482
  0
LINE
  8
ボルト／ビス
  6
CONTINUOUS
 62
    64
 10
-77.460117
 20
-47.136817
 11
-77.29345
 21
-46.97015
  0
LINE
  8
ボルト／ビス
  6
CONTINUOUS
 62
    64
 10
-77.460117
 20
-45.803482
 11
-77.29345
 21
-45.97015
  0
LINE
  8
ボルト／ビス
  6
CONTINUOUS
 62
    64
 10
-77.29345
 20
-46.97015
 11
-77.29345
 21
-45.97015
  0
LINE
  8
ボルト／ビス
  6
CONTINUOUS
 62
    64
 10
-77.460117
 20
-47.136817
 11
-77.460117
 21
-45.803482
  0
LINE
  8
ボルト／ビス
  6
CONTINUOUS
 62
    64
 10
-80.026785
 20
-45.97015
 11
-77.29345
 21
-45.97015
  0
LINE
  8
ボルト／ビス
  6
CONTINUOUS
 62
    64
 10
-80.026785
 20
-46.97015
 11
-77.29345
 21
-46.97015
  0
LINE
  8
ボルト／ビス
  6
CONTINUOUS
 62
    64
 10
-80.026785
 20
-47.136817
 11
-77.460117
 21
-47.136817
  0
LINE
  8
ボルト／ビス
  6
CONTINUOUS
 62
    64
 10
-80.026785
 20
-45.803482
 11
-77.460117
 21
-45.803482
  0
LINE
  8
ボルト／ビス
  6
DASHDOT
 62
    64
 10
-81.626785
 20
-46.47015
 11
-76.29345
 21
-46.47015
  0
LINE
  8
ボルト／ビス
  6
DOT
 62
    64
 10
-80.626785
 20
-47.47015
 11
-80.026785
 21
-47.136817
  0
LINE
  8
ボルト／ビス
  6
DOT
 62
    64
 10
-80.626785
 20
-47.47015
 11
-80.626785
 21
-45.47015
  0
LINE
  8
ボルト／ビス
  6
DOT
 62
    64
 10
-80.626785
 20
-45.47015
 11
-80.026785
 21
-45.803482
  0
ENDBLK
  0
BLOCK
  2
*GRP_0025
 70
    65
 10
0.0
 20
0.0
  0
LINE
  8
ボルト／ビス
  6
CONTINUOUS
 62
    64
 10
-76.126785
 20
-33.403467
 11
-76.096217
 21
-33.75285
  0
ARC
  8
ボルト／ビス
  6
CONTINUOUS
 62
    64
 10
-75.531713
 20
-33.703464
 40
0.566667
 50
184.999989
 51
270.0
  0
LINE
  8
ボルト／ビス
  6
CONTINUOUS
 62
    64
 10
-75.5317
 20
-34.270133
 11
-74.960117
 21
-34.270133
  0
LINE
  8
ボルト／ビス
  6
CONTINUOUS
 62
    64
 10
-73.79345
 20
-33.403467
 11
-73.824017
 21
-33.75285
  0
ARC
  8
ボルト／ビス
  6
CONTINUOUS
 62
    64
 10
-74.388535
 20
-33.703464
 40
0.566667
 50
270.0
 51
355.000011
  0
LINE
  8
ボルト／ビス
  6
CONTINUOUS
 62
    64
 10
-74.388535
 20
-34.270133
 11
-74.960117
 21
-34.270133
  0
LINE
  8
ボルト／ビス
  6
CONTINUOUS
 62
    64
 10
-75.759
 20
-34.141832
 11
-75.759
 21
-34.22255
  0
LINE
  8
ボルト／ビス
  6
CONTINUOUS
 62
    64
 10
-75.19345
 20
-33.925133
 11
-74.960117
 21
-33.925133
  0
LINE
  8
ボルト／ビス
  6
CONTINUOUS
 62
    64
 10
-75.326785
 20
-34.141832
 11
-75.759
 21
-34.141832
  0
LINE
  8
ボルト／ビス
  6
CONTINUOUS
 62
    64
 10
-75.19345
 20
-33.925133
 11
-75.19345
 21
-34.0085
  0
ARC
  8
ボルト／ビス
  6
CONTINUOUS
 62
    64
 10
-75.326791
 20
-34.008495
 40
0.133333
 50
270.0
 51
360.0
  0
LINE
  8
ボルト／ビス
  6
CONTINUOUS
 62
    64
 10
-74.161235
 20
-34.141832
 11
-74.161235
 21
-34.22255
  0
LINE
  8
ボルト／ビス
  6
CONTINUOUS
 62
    64
 10
-74.726785
 20
-33.925133
 11
-74.960117
 21
-33.925133
  0
LINE
  8
ボルト／ビス
  6
CONTINUOUS
 62
    64
 10
-74.59345
 20
-34.141832
 11
-74.161235
 21
-34.141832
  0
LINE
  8
ボルト／ビス
  6
CONTINUOUS
 62
    64
 10
-74.726785
 20
-33.925133
 11
-74.726785
 21
-34.0085
  0
ARC
  8
ボルト／ビス
  6
CONTINUOUS
 62
    64
 10
-74.593457
 20
-34.008495
 40
0.133333
 50
180.0
 51
270.0
  0
LINE
  8
ボルト／ビス
  6
CONTINUOUS
 62
    64
 10
-76.126785
 20
-33.403467
 11
-73.79345
 21
-33.403467
  0
LINE
  8
ボルト／ビス
  6
CONTINUOUS
 62
    64
 10
-75.626785
 20
-30.903467
 11
-75.460117
 21
-30.7368
  0
LINE
  8
ボルト／ビス
  6
CONTINUOUS
 62
    64
 10
-74.29345
 20
-30.903467
 11
-74.460117
 21
-30.7368
  0
LINE
  8
ボルト／ビス
  6
CONTINUOUS
 62
    64
 10
-75.460117
 20
-33.403467
 11
-75.460117
 21
-30.7368
  0
LINE
  8
ボルト／ビス
  6
CONTINUOUS
 62
    64
 10
-75.626785
 20
-33.403467
 11
-75.626785
 21
-30.903467
  0
LINE
  8
ボルト／ビス
  6
CONTINUOUS
 62
    64
 10
-74.460117
 20
-33.403467
 11
-74.460117
 21
-30.7368
  0
LINE
  8
ボルト／ビス
  6
CONTINUOUS
 62
    64
 10
-74.29345
 20
-33.403467
 11
-74.29345
 21
-30.903467
  0
LINE
  8
ボルト／ビス
  6
CONTINUOUS
 62
    64
 10
-75.626785
 20
-30.903467
 11
-74.29345
 21
-30.903467
  0
LINE
  8
ボルト／ビス
  6
CONTINUOUS
 62
    64
 10
-75.460117
 20
-30.7368
 11
-74.460117
 21
-30.7368
  0
LINE
  8
ボルト／ビス
  6
DASHDOT
 62
    64
 10
-74.960117
 20
-35.270133
 11
-74.960117
 21
-29.7368
  0
ENDBLK
  0
BLOCK
  2
*GRP_0026
 70
    65
 10
0.0
 20
0.0
  0
LINE
  8
ボルト／ビス
  6
CONTINUOUS
 62
    64
 10
-64.326785
 20
-33.403467
 11
-64.35735
 21
-33.75285
  0
ARC
  8
ボルト／ビス
  6
CONTINUOUS
 62
    64
 10
-64.921856
 20
-33.703464
 40
0.566667
 50
270.0
 51
355.000011
  0
LINE
  8
ボルト／ビス
  6
CONTINUOUS
 62
    64
 10
-64.921868
 20
-34.270133
 11
-65.49345
 21
-34.270133
  0
LINE
  8
ボルト／ビス
  6
CONTINUOUS
 62
    64
 10
-66.660117
 20
-33.403467
 11
-66.62955
 21
-33.75285
  0
ARC
  8
ボルト／ビス
  6
CONTINUOUS
 62
    64
 10
-66.065034
 20
-33.703464
 40
0.566667
 50
184.999989
 51
270.0
  0
LINE
  8
ボルト／ビス
  6
CONTINUOUS
 62
    64
 10
-66.065035
 20
-34.270133
 11
-65.49345
 21
-34.270133
  0
LINE
  8
ボルト／ビス
  6
CONTINUOUS
 62
    64
 10
-64.694567
 20
-34.141832
 11
-64.694567
 21
-34.22255
  0
LINE
  8
ボルト／ビス
  6
CONTINUOUS
 62
    64
 10
-65.260117
 20
-33.925133
 11
-65.49345
 21
-33.925133
  0
LINE
  8
ボルト／ビス
  6
CONTINUOUS
 62
    64
 10
-65.126785
 20
-34.141832
 11
-64.694567
 21
-34.141832
  0
LINE
  8
ボルト／ビス
  6
CONTINUOUS
 62
    64
 10
-65.260117
 20
-33.925133
 11
-65.260117
 21
-34.0085
  0
ARC
  8
ボルト／ビス
  6
CONTINUOUS
 62
    64
 10
-65.126778
 20
-34.008495
 40
0.133333
 50
180.0
 51
270.0
  0
LINE
  8
ボルト／ビス
  6
CONTINUOUS
 62
    64
 10
-66.292335
 20
-34.141832
 11
-66.292335
 21
-34.22255
  0
LINE
  8
ボルト／ビス
  6
CONTINUOUS
 62
    64
 10
-65.726785
 20
-33.925133
 11
-65.49345
 21
-33.925133
  0
LINE
  8
ボルト／ビス
  6
CONTINUOUS
 62
    64
 10
-65.860117
 20
-34.141832
 11
-66.292335
 21
-34.141832
  0
LINE
  8
ボルト／ビス
  6
CONTINUOUS
 62
    64
 10
-65.726785
 20
-33.925133
 11
-65.726785
 21
-34.0085
  0
ARC
  8
ボルト／ビス
  6
CONTINUOUS
 62
    64
 10
-65.860112
 20
-34.008495
 40
0.133333
 50
270.0
 51
360.0
  0
LINE
  8
ボルト／ビス
  6
CONTINUOUS
 62
    64
 10
-64.326785
 20
-33.403467
 11
-66.660117
 21
-33.403467
  0
LINE
  8
ボルト／ビス
  6
CONTINUOUS
 62
    64
 10
-64.826785
 20
-30.903467
 11
-64.99345
 21
-30.7368
  0
LINE
  8
ボルト／ビス
  6
CONTINUOUS
 62
    64
 10
-66.160117
 20
-30.903467
 11
-65.99345
 21
-30.7368
  0
LINE
  8
ボルト／ビス
  6
CONTINUOUS
 62
    64
 10
-64.99345
 20
-33.403467
 11
-64.99345
 21
-30.7368
  0
LINE
  8
ボルト／ビス
  6
CONTINUOUS
 62
    64
 10
-64.826785
 20
-33.403467
 11
-64.826785
 21
-30.903467
  0
LINE
  8
ボルト／ビス
  6
CONTINUOUS
 62
    64
 10
-65.99345
 20
-33.403467
 11
-65.99345
 21
-30.7368
  0
LINE
  8
ボルト／ビス
  6
CONTINUOUS
 62
    64
 10
-66.160117
 20
-33.403467
 11
-66.160117
 21
-30.903467
  0
LINE
  8
ボルト／ビス
  6
CONTINUOUS
 62
    64
 10
-64.826785
 20
-30.903467
 11
-66.160117
 21
-30.903467
  0
LINE
  8
ボルト／ビス
  6
CONTINUOUS
 62
    64
 10
-64.99345
 20
-30.7368
 11
-65.99345
 21
-30.7368
  0
LINE
  8
ボルト／ビス
  6
DASHDOT
 62
    64
 10
-65.49345
 20
-35.270133
 11
-65.49345
 21
-29.7368
  0
ENDBLK
  0
BLOCK
  2
*GRP_0027
 70
    65
 10
0.0
 20
0.0
  0
LINE
  8
ボルト／ビス
  6
CONTINUOUS
 62
    64
 10
-63.726785
 20
-35.203467
 11
-63.726785
 21
-33.870132
  0
LINE
  8
ボルト／ビス
  6
CONTINUOUS
 62
    64
 10
-66.29345
 20
-35.203467
 11
-66.460117
 21
-35.0368
  0
LINE
  8
ボルト／ビス
  6
CONTINUOUS
 62
    64
 10
-66.29345
 20
-33.870132
 11
-66.460117
 21
-34.0368
  0
LINE
  8
ボルト／ビス
  6
CONTINUOUS
 62
    64
 10
-66.460117
 20
-35.0368
 11
-66.460117
 21
-34.0368
  0
LINE
  8
ボルト／ビス
  6
CONTINUOUS
 62
    64
 10
-66.29345
 20
-35.203467
 11
-66.29345
 21
-33.870132
  0
LINE
  8
ボルト／ビス
  6
CONTINUOUS
 62
    64
 10
-63.726785
 20
-34.0368
 11
-66.460117
 21
-34.0368
  0
LINE
  8
ボルト／ビス
  6
CONTINUOUS
 62
    64
 10
-63.726785
 20
-35.0368
 11
-66.460117
 21
-35.0368
  0
LINE
  8
ボルト／ビス
  6
CONTINUOUS
 62
    64
 10
-63.726785
 20
-35.203467
 11
-66.29345
 21
-35.203467
  0
LINE
  8
ボルト／ビス
  6
CONTINUOUS
 62
    64
 10
-63.726785
 20
-33.870132
 11
-66.29345
 21
-33.870132
  0
LINE
  8
ボルト／ビス
  6
DASHDOT
 62
    64
 10
-62.126785
 20
-34.5368
 11
-67.460117
 21
-34.5368
  0
LINE
  8
ボルト／ビス
  6
DOT
 62
    64
 10
-63.126785
 20
-35.5368
 11
-63.726785
 21
-35.203467
  0
LINE
  8
ボルト／ビス
  6
DOT
 62
    64
 10
-63.126785
 20
-35.5368
 11
-63.126785
 21
-33.5368
  0
LINE
  8
ボルト／ビス
  6
DOT
 62
    64
 10
-63.126785
 20
-33.5368
 11
-63.726785
 21
-33.870132
  0
ENDBLK
  0
BLOCK
  2
*GRP_0028
 70
    65
 10
0.0
 20
0.0
  0
LINE
  8
ボルト／ビス
  6
CONTINUOUS
 62
    64
 10
-62.660117
 20
-30.370133
 11
-62.660117
 21
-29.0368
  0
LINE
  8
ボルト／ビス
  6
CONTINUOUS
 62
    64
 10
-65.226785
 20
-30.370133
 11
-65.39345
 21
-30.203467
  0
LINE
  8
ボルト／ビス
  6
CONTINUOUS
 62
    64
 10
-65.226785
 20
-29.0368
 11
-65.39345
 21
-29.203467
  0
LINE
  8
ボルト／ビス
  6
CONTINUOUS
 62
    64
 10
-65.39345
 20
-30.203467
 11
-65.39345
 21
-29.203467
  0
LINE
  8
ボルト／ビス
  6
CONTINUOUS
 62
    64
 10
-65.226785
 20
-30.370133
 11
-65.226785
 21
-29.0368
  0
LINE
  8
ボルト／ビス
  6
CONTINUOUS
 62
    64
 10
-62.660117
 20
-29.203467
 11
-65.39345
 21
-29.203467
  0
LINE
  8
ボルト／ビス
  6
CONTINUOUS
 62
    64
 10
-62.660117
 20
-30.203467
 11
-65.39345
 21
-30.203467
  0
LINE
  8
ボルト／ビス
  6
CONTINUOUS
 62
    64
 10
-62.660117
 20
-30.370133
 11
-65.226785
 21
-30.370133
  0
LINE
  8
ボルト／ビス
  6
CONTINUOUS
 62
    64
 10
-62.660117
 20
-29.0368
 11
-65.226785
 21
-29.0368
  0
LINE
  8
ボルト／ビス
  6
DASHDOT
 62
    64
 10
-61.060117
 20
-29.703467
 11
-66.39345
 21
-29.703467
  0
LINE
  8
ボルト／ビス
  6
DOT
 62
    64
 10
-62.060117
 20
-30.703467
 11
-62.660117
 21
-30.370133
  0
LINE
  8
ボルト／ビス
  6
DOT
 62
    64
 10
-62.060117
 20
-30.703467
 11
-62.060117
 21
-28.703467
  0
LINE
  8
ボルト／ビス
  6
DOT
 62
    64
 10
-62.060117
 20
-28.703467
 11
-62.660117
 21
-29.0368
  0
ENDBLK
  0
BLOCK
  2
*GRP_0029
 70
    65
 10
0.0
 20
0.0
  0
LINE
  8
ボルト／ビス
  6
CONTINUOUS
 10
-70.960123
 20
4.031057
 11
-70.960123
 21
4.697725
  0
LINE
  8
ボルト／ビス
  6
CONTINUOUS
 10
-70.960123
 20
4.697725
 11
-63.626787
 21
4.697725
  0
LINE
  8
ボルト／ビス
  6
CONTINUOUS
 10
-63.626787
 20
4.697725
 11
-63.626787
 21
4.031057
  0
LINE
  8
ボルト／ビス
  6
CONTINUOUS
 10
-70.960123
 20
4.031057
 11
-63.626787
 21
4.031057
  0
LINE
  8
ボルト／ビス
  6
CONTINUOUS
 10
-70.293455
 20
5.031057
 11
-70.293455
 21
4.697725
  0
LINE
  8
ボルト／ビス
  6
CONTINUOUS
 10
-70.293455
 20
5.031057
 11
-64.293455
 21
5.031057
  0
LINE
  8
ボルト／ビス
  6
CONTINUOUS
 10
-64.293455
 20
5.031057
 11
-64.293455
 21
4.697725
  0
LINE
  8
ボルト／ビス
  6
CONTINUOUS
 62
    64
 10
-68.897205
 20
7.031057
 11
-69.217955
 21
6.914315
  0
ARC
  8
ボルト／ビス
  6
CONTINUOUS
 62
    64
 10
-68.736832
 20
5.981274
 40
1.049784
 50
62.721967
 51
90.0
  0
ARC
  8
ボルト／ビス
  6
CONTINUOUS
 62
    64
 10
-67.293456
 20
3.007036
 40
4.024022
 50
76.165002
 51
103.834985
  0
LINE
  8
ボルト／ビス
  6
CONTINUOUS
 62
    64
 10
-65.689705
 20
7.031057
 11
-65.368955
 21
6.914315
  0
ARC
  8
ボルト／ビス
  6
CONTINUOUS
 62
    64
 10
-65.85008
 20
5.981274
 40
1.049784
 50
90.0
 51
117.278033
  0
LINE
  8
ボルト／ビス
  6
CONTINUOUS
 62
    64
 10
-68.897205
 20
7.031057
 11
-65.689705
 21
7.031057
  0
LINE
  8
ボルト／ビス
  6
CONTINUOUS
 62
    64
 10
-65.368955
 20
6.914315
 11
-65.368955
 21
5.697725
  0
LINE
  8
ボルト／ビス
  6
CONTINUOUS
 62
    64
 10
-66.331205
 20
6.914315
 11
-66.331205
 21
5.697725
  0
LINE
  8
ボルト／ビス
  6
CONTINUOUS
 62
    64
 10
-69.217955
 20
6.914315
 11
-69.217955
 21
5.697725
  0
LINE
  8
ボルト／ビス
  6
CONTINUOUS
 62
    64
 10
-68.255705
 20
6.914315
 11
-68.255705
 21
5.697725
  0
LINE
  8
ボルト／ビス
  6
CONTINUOUS
 62
    64
 10
-68.060123
 20
-4.302275
 11
-66.526787
 21
-4.302275
  0
LINE
  8
ボルト／ビス
  6
CONTINUOUS
 62
    64
 10
-66.293455
 20
-3.968942
 11
-66.526787
 21
-4.302275
  0
LINE
  8
ボルト／ビス
  6
CONTINUOUS
 62
    64
 10
-68.293455
 20
-3.968942
 11
-68.060123
 21
-4.302275
  0
LINE
  8
ボルト／ビス
  6
CONTINUOUS
 62
    64
 10
-68.293455
 20
-3.968942
 11
-66.293455
 21
-3.968942
  0
LINE
  8
ボルト／ビス
  6
CONTINUOUS
 62
    64
 10
-68.060123
 20
-4.302275
 11
-66.526787
 21
-4.302275
  0
LINE
  8
ボルト／ビス
  6
CONTINUOUS
 10
-69.217955
 20
5.697725
 11
-65.368955
 21
5.697725
  0
LINE
  8
ボルト／ビス
  6
CONTINUOUS
 10
-69.293455
 20
5.697725
 11
-69.293455
 21
5.031057
  0
LINE
  8
ボルト／ビス
  6
CONTINUOUS
 10
-69.293455
 20
5.697725
 11
-65.293455
 21
5.697725
  0
LINE
  8
ボルト／ビス
  6
CONTINUOUS
 10
-65.293455
 20
5.697725
 11
-65.293455
 21
5.031057
  0
LINE
  8
ボルト／ビス
  6
CONTINUOUS
 62
    64
 10
-66.526787
 20
4.031057
 11
-66.526787
 21
-4.302275
  0
LINE
  8
ボルト／ビス
  6
CONTINUOUS
 62
    64
 10
-68.060123
 20
4.031057
 11
-68.060123
 21
-4.302275
  0
LINE
  8
ボルト／ビス
  6
CONTINUOUS
 62
    64
 10
-68.293455
 20
4.031057
 11
-68.293455
 21
-3.968942
  0
LINE
  8
ボルト／ビス
  6
CONTINUOUS
 62
    64
 10
-66.293455
 20
4.031057
 11
-66.293455
 21
-3.968942
  0
ENDBLK
  0
BLOCK
  2
*GRP_0030
 70
    65
 10
0.0
 20
0.0
  0
LINE
  8
ボルト／ビス
  6
CONTINUOUS
 62
    64
 10
-81.226785
 20
-45.303482
 11
-81.576167
 21
-45.33405
  0
ARC
  8
ボルト／ビス
  6
CONTINUOUS
 62
    64
 10
-81.526782
 20
-45.898555
 40
0.566667
 50
94.999989
 51
180.0
  0
LINE
  8
ボルト／ビス
  6
CONTINUOUS
 62
    64
 10
-82.093452
 20
-45.898567
 11
-82.093452
 21
-46.47015
  0
LINE
  8
ボルト／ビス
  6
CONTINUOUS
 62
    64
 10
-81.226785
 20
-47.636817
 11
-81.576167
 21
-47.60625
  0
ARC
  8
ボルト／ビス
  6
CONTINUOUS
 62
    64
 10
-81.526782
 20
-47.041733
 40
0.566667
 50
180.0
 51
265.000011
  0
LINE
  8
ボルト／ビス
  6
CONTINUOUS
 62
    64
 10
-82.093452
 20
-47.041733
 11
-82.093452
 21
-46.47015
  0
LINE
  8
ボルト／ビス
  6
CONTINUOUS
 62
    64
 10
-81.965153
 20
-45.671267
 11
-82.045867
 21
-45.671267
  0
LINE
  8
ボルト／ビス
  6
CONTINUOUS
 62
    64
 10
-81.748452
 20
-46.236817
 11
-81.748452
 21
-46.47015
  0
LINE
  8
ボルト／ビス
  6
CONTINUOUS
 62
    64
 10
-81.965153
 20
-46.103482
 11
-81.965153
 21
-45.671267
  0
LINE
  8
ボルト／ビス
  6
CONTINUOUS
 62
    64
 10
-81.748452
 20
-46.236817
 11
-81.831818
 21
-46.236817
  0
ARC
  8
ボルト／ビス
  6
CONTINUOUS
 62
    64
 10
-81.831813
 20
-46.103478
 40
0.133333
 50
180.0
 51
270.0
  0
LINE
  8
ボルト／ビス
  6
CONTINUOUS
 62
    64
 10
-81.965153
 20
-47.269032
 11
-82.045867
 21
-47.269032
  0
LINE
  8
ボルト／ビス
  6
CONTINUOUS
 62
    64
 10
-81.748452
 20
-46.703482
 11
-81.748452
 21
-46.47015
  0
LINE
  8
ボルト／ビス
  6
CONTINUOUS
 62
    64
 10
-81.965153
 20
-46.836817
 11
-81.965153
 21
-47.269032
  0
LINE
  8
ボルト／ビス
  6
CONTINUOUS
 62
    64
 10
-81.748452
 20
-46.703482
 11
-81.831818
 21
-46.703482
  0
ARC
  8
ボルト／ビス
  6
CONTINUOUS
 62
    64
 10
-81.831813
 20
-46.836811
 40
0.133333
 50
90.0
 51
180.0
  0
LINE
  8
ボルト／ビス
  6
CONTINUOUS
 62
    64
 10
-81.226785
 20
-45.303482
 11
-81.226785
 21
-47.636817
  0
LINE
  8
ボルト／ビス
  6
CONTINUOUS
 62
    64
 10
-78.726785
 20
-45.803482
 11
-78.560117
 21
-45.97015
  0
LINE
  8
ボルト／ビス
  6
CONTINUOUS
 62
    64
 10
-78.726785
 20
-47.136817
 11
-78.560117
 21
-46.97015
  0
LINE
  8
ボルト／ビス
  6
CONTINUOUS
 62
    64
 10
-81.226785
 20
-45.97015
 11
-78.560117
 21
-45.97015
  0
LINE
  8
ボルト／ビス
  6
CONTINUOUS
 62
    64
 10
-81.226785
 20
-45.803482
 11
-78.726785
 21
-45.803482
  0
LINE
  8
ボルト／ビス
  6
CONTINUOUS
 62
    64
 10
-81.226785
 20
-46.97015
 11
-78.560117
 21
-46.97015
  0
LINE
  8
ボルト／ビス
  6
CONTINUOUS
 62
    64
 10
-81.226785
 20
-47.136817
 11
-78.726785
 21
-47.136817
  0
LINE
  8
ボルト／ビス
  6
CONTINUOUS
 62
    64
 10
-78.726785
 20
-45.803482
 11
-78.726785
 21
-47.136817
  0
LINE
  8
ボルト／ビス
  6
CONTINUOUS
 62
    64
 10
-78.560117
 20
-45.97015
 11
-78.560117
 21
-46.97015
  0
LINE
  8
ボルト／ビス
  6
DASHDOT
 62
    64
 10
-83.093452
 20
-46.47015
 11
-77.560117
 21
-46.47015
  0
ENDBLK
  0
BLOCK
  2
*GRP_0031
 70
    65
 10
0.0
 20
0.0
  0
LINE
  8
ボルト／ビス
  6
CONTINUOUS
 62
    64
 10
90.25942
 20
-59.055033
 11
90.107653
 21
-59.472
  0
ARC
  8
ボルト／ビス
  6
CONTINUOUS
 62
    64
 10
88.894701
 20
-58.846543
 40
1.364723
 50
0.0
 51
27.277966
  0
LINE
  8
ボルト／ビス
  6
CONTINUOUS
 62
    64
 10
90.25942
 20
-54.885282
 11
90.107653
 21
-54.4683
  0
ARC
  8
ボルト／ビス
  6
CONTINUOUS
 62
    64
 10
88.894701
 20
-55.093764
 40
1.364723
 50
332.722034
 51
360.0
  0
ARC
  8
ボルト／ビス
  6
CONTINUOUS
 62
    64
 10
85.02818
 20
-56.970153
 40
5.231244
 50
346.165046
 51
373.834954
  0
LINE
  8
ボルト／ビス
  6
CONTINUOUS
 62
    64
 10
88.542752
 20
-59.472
 11
90.107653
 21
-59.472
  0
LINE
  8
ボルト／ビス
  6
CONTINUOUS
 62
    64
 10
88.542752
 20
-54.4683
 11
90.107653
 21
-54.4683
  0
LINE
  8
ボルト／ビス
  6
CONTINUOUS
 62
    64
 10
90.25942
 20
-54.885282
 11
90.25942
 21
-59.055033
  0
LINE
  8
ボルト／ビス
  6
CONTINUOUS
 62
    64
 10
90.107653
 20
-55.719232
 11
88.542752
 21
-55.719232
  0
LINE
  8
ボルト／ビス
  6
CONTINUOUS
 62
    64
 10
90.107653
 20
-58.221083
 11
88.542752
 21
-58.221083
  0
LINE
  8
ボルト／ビス
  6
CONTINUOUS
 62
    64
 10
88.542752
 20
-54.4683
 11
88.542752
 21
-59.472
  0
LINE
  8
ボルト／ビス
  6
CONTINUOUS
 62
    64
 10
87.942752
 20
-59.886817
 11
87.60942
 21
-59.886817
  0
LINE
  8
ボルト／ビス
  6
CONTINUOUS
 62
    64
 10
87.942752
 20
-54.053482
 11
87.60942
 21
-54.053482
  0
LINE
  8
ボルト／ビス
  6
CONTINUOUS
 62
    64
 10
87.942752
 20
-59.886817
 11
87.942752
 21
-54.053482
  0
LINE
  8
ボルト／ビス
  6
CONTINUOUS
 62
    64
 10
87.60942
 20
-59.886817
 11
87.60942
 21
-54.053482
  0
LINE
  8
ボルト／ビス
  6
CONTINUOUS
 62
    64
 10
88.542752
 20
-56.97015
 11
87.942752
 21
-56.97015
  0
LINE
  8
ボルト／ビス
  6
CONTINUOUS
 62
    64
 10
88.542752
 20
-54.336817
 11
87.942752
 21
-54.336817
  0
LINE
  8
ボルト／ビス
  6
CONTINUOUS
 62
    64
 10
88.542752
 20
-59.603482
 11
87.942752
 21
-59.603482
  0
LINE
  8
ボルト／ビス
  6
CONTINUOUS
 62
    64
 10
88.542752
 20
-54.336817
 11
88.542752
 21
-59.603482
  0
LINE
  8
ボルト／ビス
  6
CONTINUOUS
 62
    64
 10
91.926085
 20
-56.97015
 11
78.542752
 21
-56.97015
  0
LINE
  8
ボルト／ビス
  6
CONTINUOUS
 62
    64
 10
80.20942
 20
-55.903482
 11
80.20942
 21
-58.036817
  0
LINE
  8
ボルト／ビス
  6
CONTINUOUS
 62
    64
 10
80.60942
 20
-55.636817
 11
80.20942
 21
-55.903482
  0
LINE
  8
ボルト／ビス
  6
CONTINUOUS
 62
    64
 10
80.60942
 20
-58.303482
 11
80.20942
 21
-58.036817
  0
LINE
  8
ボルト／ビス
  6
CONTINUOUS
 62
    64
 10
80.20942
 20
-55.903482
 11
80.20942
 21
-58.036817
  0
LINE
  8
ボルト／ビス
  6
CONTINUOUS
 62
    64
 10
80.60942
 20
-55.636817
 11
80.60942
 21
-58.303482
  0
LINE
  8
ボルト／ビス
  6
CONTINUOUS
 62
    64
 10
87.60942
 20
-55.636817
 11
80.60942
 21
-55.636817
  0
LINE
  8
ボルト／ビス
  6
CONTINUOUS
 62
    64
 10
87.60942
 20
-58.303482
 11
80.60942
 21
-58.303482
  0
LINE
  8
ボルト／ビス
  6
CONTINUOUS
 62
    64
 10
87.60942
 20
-55.903482
 11
80.20942
 21
-55.903482
  0
LINE
  8
ボルト／ビス
  6
CONTINUOUS
 62
    64
 10
87.60942
 20
-58.036817
 11
80.20942
 21
-58.036817
  0
ENDBLK
  0
BLOCK
  2
*GRP_0032
 70
    65
 10
0.0
 20
0.0
  0
LINE
  8
ボルト／ビス
  6
CONTINUOUS
 62
    64
 10
82.826085
 20
-59.055033
 11
82.977852
 21
-59.472
  0
ARC
  8
ボルト／ビス
  6
CONTINUOUS
 62
    64
 10
84.190812
 20
-58.846541
 40
1.364723
 50
152.722034
 51
180.0
  0
LINE
  8
ボルト／ビス
  6
CONTINUOUS
 62
    64
 10
82.826085
 20
-54.885268
 11
82.977852
 21
-54.4683
  0
ARC
  8
ボルト／ビス
  6
CONTINUOUS
 62
    64
 10
84.190812
 20
-55.093763
 40
1.364723
 50
180.0
 51
207.277966
  0
ARC
  8
ボルト／ビス
  6
CONTINUOUS
 62
    64
 10
88.057333
 20
-56.970152
 40
5.231244
 50
166.165046
 51
193.834954
  0
LINE
  8
ボルト／ビス
  6
CONTINUOUS
 62
    64
 10
84.542752
 20
-59.472
 11
82.977852
 21
-59.472
  0
LINE
  8
ボルト／ビス
  6
CONTINUOUS
 62
    64
 10
84.542752
 20
-54.4683
 11
82.977852
 21
-54.4683
  0
LINE
  8
ボルト／ビス
  6
CONTINUOUS
 62
    64
 10
82.826085
 20
-54.885268
 11
82.826085
 21
-59.055033
  0
LINE
  8
ボルト／ビス
  6
CONTINUOUS
 62
    64
 10
82.977852
 20
-55.719218
 11
84.542752
 21
-55.719218
  0
LINE
  8
ボルト／ビス
  6
CONTINUOUS
 62
    64
 10
82.977852
 20
-58.221083
 11
84.542752
 21
-58.221083
  0
LINE
  8
ボルト／ビス
  6
CONTINUOUS
 62
    64
 10
84.542752
 20
-54.4683
 11
84.542752
 21
-59.472
  0
LINE
  8
ボルト／ビス
  6
CONTINUOUS
 62
    64
 10
85.142752
 20
-59.886817
 11
85.476085
 21
-59.886817
  0
LINE
  8
ボルト／ビス
  6
CONTINUOUS
 62
    64
 10
85.142752
 20
-54.053482
 11
85.476085
 21
-54.053482
  0
LINE
  8
ボルト／ビス
  6
CONTINUOUS
 62
    64
 10
85.142752
 20
-59.886817
 11
85.142752
 21
-54.053482
  0
LINE
  8
ボルト／ビス
  6
CONTINUOUS
 62
    64
 10
85.476085
 20
-59.886817
 11
85.476085
 21
-54.053482
  0
LINE
  8
ボルト／ビス
  6
CONTINUOUS
 62
    64
 10
84.542752
 20
-56.97015
 11
85.142752
 21
-56.97015
  0
LINE
  8
ボルト／ビス
  6
CONTINUOUS
 62
    64
 10
84.542752
 20
-54.336817
 11
85.142752
 21
-54.336817
  0
LINE
  8
ボルト／ビス
  6
CONTINUOUS
 62
    64
 10
84.542752
 20
-59.603482
 11
85.142752
 21
-59.603482
  0
LINE
  8
ボルト／ビス
  6
CONTINUOUS
 62
    64
 10
84.542752
 20
-54.336817
 11
84.542752
 21
-59.603482
  0
ENDBLK
  0
BLOCK
  2
*GRP_0033
 70
    65
 10
0.0
 20
0.0
  0
LINE
  8
ボルト／ビス
  6
CONTINUOUS
 62
    64
 10
86.60942
 20
-47.136817
 11
86.60942
 21
-45.803482
  0
LINE
  8
ボルト／ビス
  6
CONTINUOUS
 62
    64
 10
84.042752
 20
-47.136817
 11
83.876085
 21
-46.97015
  0
LINE
  8
ボルト／ビス
  6
CONTINUOUS
 62
    64
 10
84.042752
 20
-45.803482
 11
83.876085
 21
-45.97015
  0
LINE
  8
ボルト／ビス
  6
CONTINUOUS
 62
    64
 10
83.876085
 20
-46.97015
 11
83.876085
 21
-45.97015
  0
LINE
  8
ボルト／ビス
  6
CONTINUOUS
 62
    64
 10
84.042752
 20
-47.136817
 11
84.042752
 21
-45.803482
  0
LINE
  8
ボルト／ビス
  6
CONTINUOUS
 62
    64
 10
86.60942
 20
-45.97015
 11
83.876085
 21
-45.97015
  0
LINE
  8
ボルト／ビス
  6
CONTINUOUS
 62
    64
 10
86.60942
 20
-46.97015
 11
83.876085
 21
-46.97015
  0
LINE
  8
ボルト／ビス
  6
CONTINUOUS
 62
    64
 10
86.60942
 20
-47.136817
 11
84.042752
 21
-47.136817
  0
LINE
  8
ボルト／ビス
  6
CONTINUOUS
 62
    64
 10
86.60942
 20
-45.803482
 11
84.042752
 21
-45.803482
  0
LINE
  8
ボルト／ビス
  6
DASHDOT
 62
    64
 10
88.20942
 20
-46.47015
 11
82.876085
 21
-46.47015
  0
LINE
  8
ボルト／ビス
  6
DOT
 62
    64
 10
87.20942
 20
-47.47015
 11
86.60942
 21
-47.136817
  0
LINE
  8
ボルト／ビス
  6
DOT
 62
    64
 10
87.20942
 20
-47.47015
 11
87.20942
 21
-45.47015
  0
LINE
  8
ボルト／ビス
  6
DOT
 62
    64
 10
87.20942
 20
-45.47015
 11
86.60942
 21
-45.803482
  0
ENDBLK
  0
BLOCK
  2
*GRP_0034
 70
    65
 10
0.0
 20
0.0
  0
LINE
  8
ボルト／ビス
  6
CONTINUOUS
 62
    64
 10
82.70942
 20
-33.403467
 11
82.678852
 21
-33.75285
  0
ARC
  8
ボルト／ビス
  6
CONTINUOUS
 62
    64
 10
82.114348
 20
-33.703464
 40
0.566667
 50
270.0
 51
355.000011
  0
LINE
  8
ボルト／ビス
  6
CONTINUOUS
 62
    64
 10
82.114335
 20
-34.270133
 11
81.542752
 21
-34.270133
  0
LINE
  8
ボルト／ビス
  6
CONTINUOUS
 62
    64
 10
80.376085
 20
-33.403467
 11
80.406653
 21
-33.75285
  0
ARC
  8
ボルト／ビス
  6
CONTINUOUS
 62
    64
 10
80.97117
 20
-33.703464
 40
0.566667
 50
184.999989
 51
270.0
  0
LINE
  8
ボルト／ビス
  6
CONTINUOUS
 62
    64
 10
80.97117
 20
-34.270133
 11
81.542752
 21
-34.270133
  0
LINE
  8
ボルト／ビス
  6
CONTINUOUS
 62
    64
 10
82.341635
 20
-34.141832
 11
82.341635
 21
-34.22255
  0
LINE
  8
ボルト／ビス
  6
CONTINUOUS
 62
    64
 10
81.776085
 20
-33.925133
 11
81.542752
 21
-33.925133
  0
LINE
  8
ボルト／ビス
  6
CONTINUOUS
 62
    64
 10
81.90942
 20
-34.141832
 11
82.341635
 21
-34.141832
  0
LINE
  8
ボルト／ビス
  6
CONTINUOUS
 62
    64
 10
81.776085
 20
-33.925133
 11
81.776085
 21
-34.0085
  0
ARC
  8
ボルト／ビス
  6
CONTINUOUS
 62
    64
 10
81.909426
 20
-34.008495
 40
0.133333
 50
180.0
 51
270.0
  0
LINE
  8
ボルト／ビス
  6
CONTINUOUS
 62
    64
 10
80.74387
 20
-34.141832
 11
80.74387
 21
-34.22255
  0
LINE
  8
ボルト／ビス
  6
CONTINUOUS
 62
    64
 10
81.30942
 20
-33.925133
 11
81.542752
 21
-33.925133
  0
LINE
  8
ボルト／ビス
  6
CONTINUOUS
 62
    64
 10
81.176085
 20
-34.141832
 11
80.74387
 21
-34.141832
  0
LINE
  8
ボルト／ビス
  6
CONTINUOUS
 62
    64
 10
81.30942
 20
-33.925133
 11
81.30942
 21
-34.0085
  0
ARC
  8
ボルト／ビス
  6
CONTINUOUS
 62
    64
 10
81.176092
 20
-34.008495
 40
0.133333
 50
270.0
 51
360.0
  0
LINE
  8
ボルト／ビス
  6
CONTINUOUS
 62
    64
 10
82.70942
 20
-33.403467
 11
80.376085
 21
-33.403467
  0
LINE
  8
ボルト／ビス
  6
CONTINUOUS
 62
    64
 10
82.20942
 20
-30.903467
 11
82.042752
 21
-30.7368
  0
LINE
  8
ボルト／ビス
  6
CONTINUOUS
 62
    64
 10
80.876085
 20
-30.903467
 11
81.042752
 21
-30.7368
  0
LINE
  8
ボルト／ビス
  6
CONTINUOUS
 62
    64
 10
82.042752
 20
-33.403467
 11
82.042752
 21
-30.7368
  0
LINE
  8
ボルト／ビス
  6
CONTINUOUS
 62
    64
 10
82.20942
 20
-33.403467
 11
82.20942
 21
-30.903467
  0
LINE
  8
ボルト／ビス
  6
CONTINUOUS
 62
    64
 10
81.042752
 20
-33.403467
 11
81.042752
 21
-30.7368
  0
LINE
  8
ボルト／ビス
  6
CONTINUOUS
 62
    64
 10
80.876085
 20
-33.403467
 11
80.876085
 21
-30.903467
  0
LINE
  8
ボルト／ビス
  6
CONTINUOUS
 62
    64
 10
82.20942
 20
-30.903467
 11
80.876085
 21
-30.903467
  0
LINE
  8
ボルト／ビス
  6
CONTINUOUS
 62
    64
 10
82.042752
 20
-30.7368
 11
81.042752
 21
-30.7368
  0
LINE
  8
ボルト／ビス
  6
DASHDOT
 62
    64
 10
81.542752
 20
-35.270133
 11
81.542752
 21
-29.7368
  0
ENDBLK
  0
BLOCK
  2
*GRP_0035
 70
    65
 10
0.0
 20
0.0
  0
LINE
  8
ボルト／ビス
  6
CONTINUOUS
 62
    64
 10
70.90942
 20
-33.403467
 11
70.939985
 21
-33.75285
  0
ARC
  8
ボルト／ビス
  6
CONTINUOUS
 62
    64
 10
71.504491
 20
-33.703464
 40
0.566667
 50
184.999989
 51
270.0
  0
LINE
  8
ボルト／ビス
  6
CONTINUOUS
 62
    64
 10
71.504502
 20
-34.270133
 11
72.076085
 21
-34.270133
  0
LINE
  8
ボルト／ビス
  6
CONTINUOUS
 62
    64
 10
73.242752
 20
-33.403467
 11
73.212185
 21
-33.75285
  0
ARC
  8
ボルト／ビス
  6
CONTINUOUS
 62
    64
 10
72.647669
 20
-33.703464
 40
0.566667
 50
270.0
 51
355.000011
  0
LINE
  8
ボルト／ビス
  6
CONTINUOUS
 62
    64
 10
72.64767
 20
-34.270133
 11
72.076085
 21
-34.270133
  0
LINE
  8
ボルト／ビス
  6
CONTINUOUS
 62
    64
 10
71.277203
 20
-34.141832
 11
71.277203
 21
-34.22255
  0
LINE
  8
ボルト／ビス
  6
CONTINUOUS
 62
    64
 10
71.842752
 20
-33.925133
 11
72.076085
 21
-33.925133
  0
LINE
  8
ボルト／ビス
  6
CONTINUOUS
 62
    64
 10
71.70942
 20
-34.141832
 11
71.277203
 21
-34.141832
  0
LINE
  8
ボルト／ビス
  6
CONTINUOUS
 62
    64
 10
71.842752
 20
-33.925133
 11
71.842752
 21
-34.0085
  0
ARC
  8
ボルト／ビス
  6
CONTINUOUS
 62
    64
 10
71.709413
 20
-34.008495
 40
0.133333
 50
270.0
 51
360.0
  0
LINE
  8
ボルト／ビス
  6
CONTINUOUS
 62
    64
 10
72.87497
 20
-34.141832
 11
72.87497
 21
-34.22255
  0
LINE
  8
ボルト／ビス
  6
CONTINUOUS
 62
    64
 10
72.30942
 20
-33.925133
 11
72.076085
 21
-33.925133
  0
LINE
  8
ボルト／ビス
  6
CONTINUOUS
 62
    64
 10
72.442752
 20
-34.141832
 11
72.87497
 21
-34.141832
  0
LINE
  8
ボルト／ビス
  6
CONTINUOUS
 62
    64
 10
72.30942
 20
-33.925133
 11
72.30942
 21
-34.0085
  0
ARC
  8
ボルト／ビス
  6
CONTINUOUS
 62
    64
 10
72.442747
 20
-34.008495
 40
0.133333
 50
180.0
 51
270.0
  0
LINE
  8
ボルト／ビス
  6
CONTINUOUS
 62
    64
 10
70.90942
 20
-33.403467
 11
73.242752
 21
-33.403467
  0
LINE
  8
ボルト／ビス
  6
CONTINUOUS
 62
    64
 10
71.40942
 20
-30.903467
 11
71.576085
 21
-30.7368
  0
LINE
  8
ボルト／ビス
  6
CONTINUOUS
 62
    64
 10
72.742752
 20
-30.903467
 11
72.576085
 21
-30.7368
  0
LINE
  8
ボルト／ビス
  6
CONTINUOUS
 62
    64
 10
71.576085
 20
-33.403467
 11
71.576085
 21
-30.7368
  0
LINE
  8
ボルト／ビス
  6
CONTINUOUS
 62
    64
 10
71.40942
 20
-33.403467
 11
71.40942
 21
-30.903467
  0
LINE
  8
ボルト／ビス
  6
CONTINUOUS
 62
    64
 10
72.576085
 20
-33.403467
 11
72.576085
 21
-30.7368
  0
LINE
  8
ボルト／ビス
  6
CONTINUOUS
 62
    64
 10
72.742752
 20
-33.403467
 11
72.742752
 21
-30.903467
  0
LINE
  8
ボルト／ビス
  6
CONTINUOUS
 62
    64
 10
71.40942
 20
-30.903467
 11
72.742752
 21
-30.903467
  0
LINE
  8
ボルト／ビス
  6
CONTINUOUS
 62
    64
 10
71.576085
 20
-30.7368
 11
72.576085
 21
-30.7368
  0
LINE
  8
ボルト／ビス
  6
DASHDOT
 62
    64
 10
72.076085
 20
-35.270133
 11
72.076085
 21
-29.7368
  0
ENDBLK
  0
BLOCK
  2
*GRP_0036
 70
    65
 10
0.0
 20
0.0
  0
LINE
  8
ボルト／ビス
  6
CONTINUOUS
 62
    64
 10
70.30942
 20
-35.203467
 11
70.30942
 21
-33.870132
  0
LINE
  8
ボルト／ビス
  6
CONTINUOUS
 62
    64
 10
72.876085
 20
-35.203467
 11
73.042752
 21
-35.0368
  0
LINE
  8
ボルト／ビス
  6
CONTINUOUS
 62
    64
 10
72.876085
 20
-33.870132
 11
73.042752
 21
-34.0368
  0
LINE
  8
ボルト／ビス
  6
CONTINUOUS
 62
    64
 10
73.042752
 20
-35.0368
 11
73.042752
 21
-34.0368
  0
LINE
  8
ボルト／ビス
  6
CONTINUOUS
 62
    64
 10
72.876085
 20
-35.203467
 11
72.876085
 21
-33.870132
  0
LINE
  8
ボルト／ビス
  6
CONTINUOUS
 62
    64
 10
70.30942
 20
-34.0368
 11
73.042752
 21
-34.0368
  0
LINE
  8
ボルト／ビス
  6
CONTINUOUS
 62
    64
 10
70.30942
 20
-35.0368
 11
73.042752
 21
-35.0368
  0
LINE
  8
ボルト／ビス
  6
CONTINUOUS
 62
    64
 10
70.30942
 20
-35.203467
 11
72.876085
 21
-35.203467
  0
LINE
  8
ボルト／ビス
  6
CONTINUOUS
 62
    64
 10
70.30942
 20
-33.870132
 11
72.876085
 21
-33.870132
  0
LINE
  8
ボルト／ビス
  6
DASHDOT
 62
    64
 10
68.70942
 20
-34.5368
 11
74.042752
 21
-34.5368
  0
LINE
  8
ボルト／ビス
  6
DOT
 62
    64
 10
69.70942
 20
-35.5368
 11
70.30942
 21
-35.203467
  0
LINE
  8
ボルト／ビス
  6
DOT
 62
    64
 10
69.70942
 20
-35.5368
 11
69.70942
 21
-33.5368
  0
LINE
  8
ボルト／ビス
  6
DOT
 62
    64
 10
69.70942
 20
-33.5368
 11
70.30942
 21
-33.870132
  0
ENDBLK
  0
BLOCK
  2
*GRP_0037
 70
    65
 10
0.0
 20
0.0
  0
LINE
  8
ボルト／ビス
  6
CONTINUOUS
 62
    64
 10
69.242752
 20
-30.370133
 11
69.242752
 21
-29.0368
  0
LINE
  8
ボルト／ビス
  6
CONTINUOUS
 62
    64
 10
71.80942
 20
-30.370133
 11
71.976085
 21
-30.203467
  0
LINE
  8
ボルト／ビス
  6
CONTINUOUS
 62
    64
 10
71.80942
 20
-29.0368
 11
71.976085
 21
-29.203467
  0
LINE
  8
ボルト／ビス
  6
CONTINUOUS
 62
    64
 10
71.976085
 20
-30.203467
 11
71.976085
 21
-29.203467
  0
LINE
  8
ボルト／ビス
  6
CONTINUOUS
 62
    64
 10
71.80942
 20
-30.370133
 11
71.80942
 21
-29.0368
  0
LINE
  8
ボルト／ビス
  6
CONTINUOUS
 62
    64
 10
69.242752
 20
-29.203467
 11
71.976085
 21
-29.203467
  0
LINE
  8
ボルト／ビス
  6
CONTINUOUS
 62
    64
 10
69.242752
 20
-30.203467
 11
71.976085
 21
-30.203467
  0
LINE
  8
ボルト／ビス
  6
CONTINUOUS
 62
    64
 10
69.242752
 20
-30.370133
 11
71.80942
 21
-30.370133
  0
LINE
  8
ボルト／ビス
  6
CONTINUOUS
 62
    64
 10
69.242752
 20
-29.0368
 11
71.80942
 21
-29.0368
  0
LINE
  8
ボルト／ビス
  6
DASHDOT
 62
    64
 10
67.642752
 20
-29.703467
 11
72.976085
 21
-29.703467
  0
LINE
  8
ボルト／ビス
  6
DOT
 62
    64
 10
68.642752
 20
-30.703467
 11
69.242752
 21
-30.370133
  0
LINE
  8
ボルト／ビス
  6
DOT
 62
    64
 10
68.642752
 20
-30.703467
 11
68.642752
 21
-28.703467
  0
LINE
  8
ボルト／ビス
  6
DOT
 62
    64
 10
68.642752
 20
-28.703467
 11
69.242752
 21
-29.0368
  0
ENDBLK
  0
BLOCK
  2
*GRP_0038
 70
    65
 10
0.0
 20
0.0
  0
LINE
  8
ボルト／ビス
  6
CONTINUOUS
 10
77.542757
 20
4.031057
 11
77.542757
 21
4.697725
  0
LINE
  8
ボルト／ビス
  6
CONTINUOUS
 10
77.542757
 20
4.697725
 11
70.209423
 21
4.697725
  0
LINE
  8
ボルト／ビス
  6
CONTINUOUS
 10
70.209423
 20
4.697725
 11
70.209423
 21
4.031057
  0
LINE
  8
ボルト／ビス
  6
CONTINUOUS
 10
77.542757
 20
4.031057
 11
70.209423
 21
4.031057
  0
LINE
  8
ボルト／ビス
  6
CONTINUOUS
 10
76.87609
 20
5.031057
 11
76.87609
 21
4.697725
  0
LINE
  8
ボルト／ビス
  6
CONTINUOUS
 10
76.87609
 20
5.031057
 11
70.87609
 21
5.031057
  0
LINE
  8
ボルト／ビス
  6
CONTINUOUS
 10
70.87609
 20
5.031057
 11
70.87609
 21
4.697725
  0
LINE
  8
ボルト／ビス
  6
CONTINUOUS
 62
    64
 10
75.47984
 20
7.031057
 11
75.80059
 21
6.914315
  0
ARC
  8
ボルト／ビス
  6
CONTINUOUS
 62
    64
 10
75.319467
 20
5.981274
 40
1.049784
 50
90.0
 51
117.278033
  0
ARC
  8
ボルト／ビス
  6
CONTINUOUS
 62
    64
 10
73.876091
 20
3.007036
 40
4.024022
 50
76.165015
 51
103.834998
  0
LINE
  8
ボルト／ビス
  6
CONTINUOUS
 62
    64
 10
72.27234
 20
7.031057
 11
71.95159
 21
6.914315
  0
ARC
  8
ボルト／ビス
  6
CONTINUOUS
 62
    64
 10
72.432715
 20
5.981274
 40
1.049784
 50
62.721967
 51
90.0
  0
LINE
  8
ボルト／ビス
  6
CONTINUOUS
 62
    64
 10
75.47984
 20
7.031057
 11
72.27234
 21
7.031057
  0
LINE
  8
ボルト／ビス
  6
CONTINUOUS
 62
    64
 10
71.95159
 20
6.914315
 11
71.95159
 21
5.697725
  0
LINE
  8
ボルト／ビス
  6
CONTINUOUS
 62
    64
 10
72.91384
 20
6.914315
 11
72.91384
 21
5.697725
  0
LINE
  8
ボルト／ビス
  6
CONTINUOUS
 62
    64
 10
75.80059
 20
6.914315
 11
75.80059
 21
5.697725
  0
LINE
  8
ボルト／ビス
  6
CONTINUOUS
 62
    64
 10
74.83834
 20
6.914315
 11
74.83834
 21
5.697725
  0
LINE
  8
ボルト／ビス
  6
CONTINUOUS
 62
    64
 10
74.642757
 20
-4.302275
 11
73.109423
 21
-4.302275
  0
LINE
  8
ボルト／ビス
  6
CONTINUOUS
 62
    64
 10
72.87609
 20
-3.968942
 11
73.109423
 21
-4.302275
  0
LINE
  8
ボルト／ビス
  6
CONTINUOUS
 62
    64
 10
74.87609
 20
-3.968942
 11
74.642757
 21
-4.302275
  0
LINE
  8
ボルト／ビス
  6
CONTINUOUS
 62
    64
 10
74.87609
 20
-3.968942
 11
72.87609
 21
-3.968942
  0
LINE
  8
ボルト／ビス
  6
CONTINUOUS
 62
    64
 10
74.642757
 20
-4.302275
 11
73.109423
 21
-4.302275
  0
LINE
  8
ボルト／ビス
  6
CONTINUOUS
 10
75.80059
 20
5.697725
 11
71.95159
 21
5.697725
  0
LINE
  8
ボルト／ビス
  6
CONTINUOUS
 10
75.87609
 20
5.697725
 11
75.87609
 21
5.031057
  0
LINE
  8
ボルト／ビス
  6
CONTINUOUS
 10
75.87609
 20
5.697725
 11
71.87609
 21
5.697725
  0
LINE
  8
ボルト／ビス
  6
CONTINUOUS
 10
71.87609
 20
5.697725
 11
71.87609
 21
5.031057
  0
LINE
  8
ボルト／ビス
  6
CONTINUOUS
 62
    64
 10
73.109423
 20
4.031057
 11
73.109423
 21
-4.302275
  0
LINE
  8
ボルト／ビス
  6
CONTINUOUS
 62
    64
 10
74.642757
 20
4.031057
 11
74.642757
 21
-4.302275
  0
LINE
  8
ボルト／ビス
  6
CONTINUOUS
 62
    64
 10
74.87609
 20
4.031057
 11
74.87609
 21
-3.968942
  0
LINE
  8
ボルト／ビス
  6
CONTINUOUS
 62
    64
 10
72.87609
 20
4.031057
 11
72.87609
 21
-3.968942
  0
ENDBLK
  0
BLOCK
  2
*GRP_0039
 70
    65
 10
0.0
 20
0.0
  0
LINE
  8
ボルト／ビス
  6
CONTINUOUS
 62
    64
 10
87.80942
 20
-45.303482
 11
88.158802
 21
-45.33405
  0
ARC
  8
ボルト／ビス
  6
CONTINUOUS
 62
    64
 10
88.109417
 20
-45.898555
 40
0.566667
 50
0.0
 51
85.000011
  0
LINE
  8
ボルト／ビス
  6
CONTINUOUS
 62
    64
 10
88.676087
 20
-45.898567
 11
88.676087
 21
-46.47015
  0
LINE
  8
ボルト／ビス
  6
CONTINUOUS
 62
    64
 10
87.80942
 20
-47.636817
 11
88.158802
 21
-47.60625
  0
ARC
  8
ボルト／ビス
  6
CONTINUOUS
 62
    64
 10
88.109417
 20
-47.041733
 40
0.566667
 50
274.999989
 51
360.0
  0
LINE
  8
ボルト／ビス
  6
CONTINUOUS
 62
    64
 10
88.676087
 20
-47.041733
 11
88.676087
 21
-46.47015
  0
LINE
  8
ボルト／ビス
  6
CONTINUOUS
 62
    64
 10
88.547788
 20
-45.671267
 11
88.628502
 21
-45.671267
  0
LINE
  8
ボルト／ビス
  6
CONTINUOUS
 62
    64
 10
88.331087
 20
-46.236817
 11
88.331087
 21
-46.47015
  0
LINE
  8
ボルト／ビス
  6
CONTINUOUS
 62
    64
 10
88.547788
 20
-46.103482
 11
88.547788
 21
-45.671267
  0
LINE
  8
ボルト／ビス
  6
CONTINUOUS
 62
    64
 10
88.331087
 20
-46.236817
 11
88.414452
 21
-46.236817
  0
ARC
  8
ボルト／ビス
  6
CONTINUOUS
 62
    64
 10
88.414448
 20
-46.103478
 40
0.133333
 50
270.0
 51
360.0
  0
LINE
  8
ボルト／ビス
  6
CONTINUOUS
 62
    64
 10
88.547788
 20
-47.269032
 11
88.628502
 21
-47.269032
  0
LINE
  8
ボルト／ビス
  6
CONTINUOUS
 62
    64
 10
88.331087
 20
-46.703482
 11
88.331087
 21
-46.47015
  0
LINE
  8
ボルト／ビス
  6
CONTINUOUS
 62
    64
 10
88.547788
 20
-46.836817
 11
88.547788
 21
-47.269032
  0
LINE
  8
ボルト／ビス
  6
CONTINUOUS
 62
    64
 10
88.331087
 20
-46.703482
 11
88.414452
 21
-46.703482
  0
ARC
  8
ボルト／ビス
  6
CONTINUOUS
 62
    64
 10
88.414448
 20
-46.836811
 40
0.133333
 50
0.0
 51
90.0
  0
LINE
  8
ボルト／ビス
  6
CONTINUOUS
 62
    64
 10
87.80942
 20
-45.303482
 11
87.80942
 21
-47.636817
  0
LINE
  8
ボルト／ビス
  6
CONTINUOUS
 62
    64
 10
85.30942
 20
-45.803482
 11
85.142752
 21
-45.97015
  0
LINE
  8
ボルト／ビス
  6
CONTINUOUS
 62
    64
 10
85.30942
 20
-47.136817
 11
85.142752
 21
-46.97015
  0
LINE
  8
ボルト／ビス
  6
CONTINUOUS
 62
    64
 10
87.80942
 20
-45.97015
 11
85.142752
 21
-45.97015
  0
LINE
  8
ボルト／ビス
  6
CONTINUOUS
 62
    64
 10
87.80942
 20
-45.803482
 11
85.30942
 21
-45.803482
  0
LINE
  8
ボルト／ビス
  6
CONTINUOUS
 62
    64
 10
87.80942
 20
-46.97015
 11
85.142752
 21
-46.97015
  0
LINE
  8
ボルト／ビス
  6
CONTINUOUS
 62
    64
 10
87.80942
 20
-47.136817
 11
85.30942
 21
-47.136817
  0
LINE
  8
ボルト／ビス
  6
CONTINUOUS
 62
    64
 10
85.30942
 20
-45.803482
 11
85.30942
 21
-47.136817
  0
LINE
  8
ボルト／ビス
  6
CONTINUOUS
 62
    64
 10
85.142752
 20
-45.97015
 11
85.142752
 21
-46.97015
  0
LINE
  8
ボルト／ビス
  6
DASHDOT
 62
    64
 10
89.676087
 20
-46.47015
 11
84.142752
 21
-46.47015
  0
ENDBLK
  0
BLOCK
  2
*GRP_0040
 70
    65
 10
0.0
 20
0.0
  0
LINE
  8
ボルト／ビス
  6
CONTINUOUS
 62
    64
 10
-74.960117
 20
-8.136815
 11
-75.3095
 21
-8.167382
  0
ARC
  8
ボルト／ビス
  6
CONTINUOUS
 62
    64
 10
-75.26011
 20
-8.73189
 40
0.566667
 50
94.999989
 51
180.0
  0
LINE
  8
ボルト／ビス
  6
CONTINUOUS
 62
    64
 10
-75.826782
 20
-8.7319
 11
-75.826782
 21
-9.303482
  0
LINE
  8
ボルト／ビス
  6
CONTINUOUS
 62
    64
 10
-74.960117
 20
-10.47015
 11
-75.3095
 21
-10.439582
  0
ARC
  8
ボルト／ビス
  6
CONTINUOUS
 62
    64
 10
-75.26011
 20
-9.875068
 40
0.566667
 50
180.0
 51
265.000011
  0
LINE
  8
ボルト／ビス
  6
CONTINUOUS
 62
    64
 10
-75.826782
 20
-9.875065
 11
-75.826782
 21
-9.303482
  0
LINE
  8
ボルト／ビス
  6
CONTINUOUS
 62
    64
 10
-75.698482
 20
-8.5046
 11
-75.7792
 21
-8.5046
  0
LINE
  8
ボルト／ビス
  6
CONTINUOUS
 62
    64
 10
-75.481783
 20
-9.07015
 11
-75.481783
 21
-9.303482
  0
LINE
  8
ボルト／ビス
  6
CONTINUOUS
 62
    64
 10
-75.698482
 20
-8.936815
 11
-75.698482
 21
-8.5046
  0
LINE
  8
ボルト／ビス
  6
CONTINUOUS
 62
    64
 10
-75.481783
 20
-9.07015
 11
-75.56515
 21
-9.07015
  0
ARC
  8
ボルト／ビス
  6
CONTINUOUS
 62
    64
 10
-75.565142
 20
-8.936812
 40
0.133333
 50
180.0
 51
270.0
  0
LINE
  8
ボルト／ビス
  6
CONTINUOUS
 62
    64
 10
-75.698482
 20
-10.102365
 11
-75.7792
 21
-10.102365
  0
LINE
  8
ボルト／ビス
  6
CONTINUOUS
 62
    64
 10
-75.481783
 20
-9.536815
 11
-75.481783
 21
-9.303482
  0
LINE
  8
ボルト／ビス
  6
CONTINUOUS
 62
    64
 10
-75.698482
 20
-9.67015
 11
-75.698482
 21
-10.102365
  0
LINE
  8
ボルト／ビス
  6
CONTINUOUS
 62
    64
 10
-75.481783
 20
-9.536815
 11
-75.56515
 21
-9.536815
  0
ARC
  8
ボルト／ビス
  6
CONTINUOUS
 62
    64
 10
-75.565142
 20
-9.670146
 40
0.133333
 50
90.0
 51
180.0
  0
LINE
  8
ボルト／ビス
  6
CONTINUOUS
 62
    64
 10
-74.960117
 20
-8.136815
 11
-74.960117
 21
-10.47015
  0
LINE
  8
ボルト／ビス
  6
CONTINUOUS
 62
    64
 10
-72.460117
 20
-8.636815
 11
-72.29345
 21
-8.803482
  0
LINE
  8
ボルト／ビス
  6
CONTINUOUS
 62
    64
 10
-72.460117
 20
-9.97015
 11
-72.29345
 21
-9.803482
  0
LINE
  8
ボルト／ビス
  6
CONTINUOUS
 62
    64
 10
-74.960117
 20
-8.803482
 11
-72.29345
 21
-8.803482
  0
LINE
  8
ボルト／ビス
  6
CONTINUOUS
 62
    64
 10
-74.960117
 20
-8.636815
 11
-72.460117
 21
-8.636815
  0
LINE
  8
ボルト／ビス
  6
CONTINUOUS
 62
    64
 10
-74.960117
 20
-9.803482
 11
-72.29345
 21
-9.803482
  0
LINE
  8
ボルト／ビス
  6
CONTINUOUS
 62
    64
 10
-74.960117
 20
-9.97015
 11
-72.460117
 21
-9.97015
  0
LINE
  8
ボルト／ビス
  6
CONTINUOUS
 62
    64
 10
-72.460117
 20
-8.636815
 11
-72.460117
 21
-9.97015
  0
LINE
  8
ボルト／ビス
  6
CONTINUOUS
 62
    64
 10
-72.29345
 20
-8.803482
 11
-72.29345
 21
-9.803482
  0
LINE
  8
ボルト／ビス
  6
DASHDOT
 62
    64
 10
-76.826782
 20
-9.303482
 11
-71.29345
 21
-9.303482
  0
ENDBLK
  0
BLOCK
  2
*GRP_0041
 70
    65
 10
0.0
 20
0.0
  0
LINE
  8
ボルト／ビス
  6
CONTINUOUS
 62
    64
 10
81.542752
 20
-8.136815
 11
81.892135
 21
-8.167382
  0
ARC
  8
ボルト／ビス
  6
CONTINUOUS
 62
    64
 10
81.842745
 20
-8.73189
 40
0.566667
 50
0.0
 51
85.000011
  0
LINE
  8
ボルト／ビス
  6
CONTINUOUS
 62
    64
 10
82.409418
 20
-8.7319
 11
82.409418
 21
-9.303482
  0
LINE
  8
ボルト／ビス
  6
CONTINUOUS
 62
    64
 10
81.542752
 20
-10.47015
 11
81.892135
 21
-10.439582
  0
ARC
  8
ボルト／ビス
  6
CONTINUOUS
 62
    64
 10
81.842745
 20
-9.875068
 40
0.566667
 50
274.999989
 51
360.0
  0
LINE
  8
ボルト／ビス
  6
CONTINUOUS
 62
    64
 10
82.409418
 20
-9.875065
 11
82.409418
 21
-9.303482
  0
LINE
  8
ボルト／ビス
  6
CONTINUOUS
 62
    64
 10
82.281118
 20
-8.5046
 11
82.361835
 21
-8.5046
  0
LINE
  8
ボルト／ビス
  6
CONTINUOUS
 62
    64
 10
82.064417
 20
-9.07015
 11
82.064417
 21
-9.303482
  0
LINE
  8
ボルト／ビス
  6
CONTINUOUS
 62
    64
 10
82.281118
 20
-8.936815
 11
82.281118
 21
-8.5046
  0
LINE
  8
ボルト／ビス
  6
CONTINUOUS
 62
    64
 10
82.064417
 20
-9.07015
 11
82.147785
 21
-9.07015
  0
ARC
  8
ボルト／ビス
  6
CONTINUOUS
 62
    64
 10
82.147776
 20
-8.936812
 40
0.133333
 50
270.0
 51
360.0
  0
LINE
  8
ボルト／ビス
  6
CONTINUOUS
 62
    64
 10
82.281118
 20
-10.102365
 11
82.361835
 21
-10.102365
  0
LINE
  8
ボルト／ビス
  6
CONTINUOUS
 62
    64
 10
82.064417
 20
-9.536815
 11
82.064417
 21
-9.303482
  0
LINE
  8
ボルト／ビス
  6
CONTINUOUS
 62
    64
 10
82.281118
 20
-9.67015
 11
82.281118
 21
-10.102365
  0
LINE
  8
ボルト／ビス
  6
CONTINUOUS
 62
    64
 10
82.064417
 20
-9.536815
 11
82.147785
 21
-9.536815
  0
ARC
  8
ボルト／ビス
  6
CONTINUOUS
 62
    64
 10
82.147776
 20
-9.670146
 40
0.133333
 50
0.0
 51
90.0
  0
LINE
  8
ボルト／ビス
  6
CONTINUOUS
 62
    64
 10
81.542752
 20
-8.136815
 11
81.542752
 21
-10.47015
  0
LINE
  8
ボルト／ビス
  6
CONTINUOUS
 62
    64
 10
79.042752
 20
-8.636815
 11
78.876085
 21
-8.803482
  0
LINE
  8
ボルト／ビス
  6
CONTINUOUS
 62
    64
 10
79.042752
 20
-9.97015
 11
78.876085
 21
-9.803482
  0
LINE
  8
ボルト／ビス
  6
CONTINUOUS
 62
    64
 10
81.542752
 20
-8.803482
 11
78.876085
 21
-8.803482
  0
LINE
  8
ボルト／ビス
  6
CONTINUOUS
 62
    64
 10
81.542752
 20
-8.636815
 11
79.042752
 21
-8.636815
  0
LINE
  8
ボルト／ビス
  6
CONTINUOUS
 62
    64
 10
81.542752
 20
-9.803482
 11
78.876085
 21
-9.803482
  0
LINE
  8
ボルト／ビス
  6
CONTINUOUS
 62
    64
 10
81.542752
 20
-9.97015
 11
79.042752
 21
-9.97015
  0
LINE
  8
ボルト／ビス
  6
CONTINUOUS
 62
    64
 10
79.042752
 20
-8.636815
 11
79.042752
 21
-9.97015
  0
LINE
  8
ボルト／ビス
  6
CONTINUOUS
 62
    64
 10
78.876085
 20
-8.803482
 11
78.876085
 21
-9.803482
  0
LINE
  8
ボルト／ビス
  6
DASHDOT
 62
    64
 10
83.409418
 20
-9.303482
 11
77.876085
 21
-9.303482
  0
ENDBLK
  0
BLOCK
  2
*DIM_0042
 70
    65
 10
0.0
 20
0.0
  0
LINE
  8
寸法
  6
CONTINUOUS
 10
-57.29345
 20
-79.23461
 11
-57.29345
 21
-83.587265
  0
LINE
  8
寸法
  6
CONTINUOUS
 10
-55.626785
 20
-33.0368
 11
-55.626785
 21
-83.587265
  0
LINE
  8
寸法
  6
CONTINUOUS
 10
-57.29345
 20
-83.587265
 11
-55.626785
 21
-83.587265
  0
POINT
  8
寸法
 10
-57.29345
 20
-83.587265
  0
POINT
  8
寸法
 10
-55.626785
 20
-83.587265
  0
TEXT
  7
TextStyle03
  8
寸法
  6
CONTINUOUS
 10
-55.2
 20
-83.3
  1
5
 40
4.0
 72
     5
 11
-53.2
 21
-83.3
  0
ENDBLK
  0
BLOCK
  2
*DIM_0043
 70
    65
 10
0.0
 20
0.0
  0
LINE
  8
寸法
  6
CONTINUOUS
 10
-87.29345
 20
-32.870132
 11
-134.169243
 21
-32.870132
  0
LINE
  8
寸法
  6
CONTINUOUS
 10
-92.947387
 20
-36.303482
 11
-134.169243
 21
-36.303482
  0
LINE
  8
寸法
  6
CONTINUOUS
 10
-134.169243
 20
-32.870132
 11
-134.169243
 21
-36.303482
  0
POINT
  8
寸法
 10
-134.169243
 20
-32.870132
  0
POINT
  8
寸法
 10
-134.169243
 20
-36.303482
  0
TEXT
  7
TextStyle03
  8
寸法
  6
CONTINUOUS
 10
-134.55
 20
-37.90625
  1
10.3
 40
3.0
 50
90.0
 72
     5
 11
-134.55
 21
-31.34375
  0
ENDBLK
  0
BLOCK
  2
*DIM_0044
 70
    65
 10
0.0
 20
0.0
  0
LINE
  8
寸法
  6
CONTINUOUS
 10
-93.57225
 20
-49.545268
 11
-134.169243
 21
-49.545268
  0
LINE
  8
寸法
  6
CONTINUOUS
 10
-134.169243
 20
-44.636817
 11
-134.169243
 21
-49.545268
  0
POINT
  8
寸法
 10
-134.169243
 20
-49.545268
  0
TEXT
  7
TextStyle03
  8
寸法
  6
CONTINUOUS
 10
-134.55
 20
-50.40625
  1
14.7
 40
3.0
 50
90.0
 72
     5
 11
-134.55
 21
-43.84375
  0
ENDBLK
  0
BLOCK
  2
*DIM_0045
 70
    65
 10
0.0
 20
0.0
  0
LINE
  8
寸法
  6
CONTINUOUS
 10
-93.29345
 20
-44.636817
 11
-134.169243
 21
-44.636817
  0
LINE
  8
寸法
  6
CONTINUOUS
 10
-134.169243
 20
-36.303482
 11
-134.169243
 21
-44.636817
  0
POINT
  8
寸法
 10
-134.169243
 20
-44.636817
  0
TEXT
  7
TextStyle03
  8
寸法
  6
CONTINUOUS
 10
-130.1
 20
-42.04375
  1
25
 40
3.0
 50
90.0
 72
     5
 11
-130.1
 21
-38.85625
  0
ENDBLK
  0
BLOCK
  2
*DIM_0046
 70
    65
 10
0.0
 20
0.0
  0
LINE
  8
寸法
  6
CONTINUOUS
 10
63.876085
 20
-79.23461
 11
63.876085
 21
-83.587265
  0
LINE
  8
寸法
  6
CONTINUOUS
 10
62.20942
 20
-33.0368
 11
62.20942
 21
-83.587265
  0
LINE
  8
寸法
  6
CONTINUOUS
 10
63.876085
 20
-83.587265
 11
62.20942
 21
-83.587265
  0
POINT
  8
寸法
 10
63.876085
 20
-83.587265
  0
POINT
  8
寸法
 10
62.20942
 20
-83.587265
  0
TEXT
  7
TextStyle03
  8
寸法
  6
CONTINUOUS
 10
64.275
 20
-83.25
  1
5
 40
4.0
 72
     5
 11
66.275
 21
-83.25
  0
ENDBLK
  0
BLOCK
  2
*DIM_0047
 70
    65
 10
0.0
 20
0.0
  0
LINE
  8
寸法
  6
CONTINUOUS
 10
-55.626785
 20
-19.97015
 11
-55.626785
 21
66.722187
  0
LINE
  8
寸法
  6
CONTINUOUS
 10
-60.626787
 20
66.722187
 11
-55.626785
 21
66.722187
  0
POINT
  8
寸法
 10
-60.626787
 20
66.722187
  0
POINT
  8
寸法
 10
-55.626785
 20
66.722187
  0
TEXT
  7
TextStyle03
  8
寸法
  6
CONTINUOUS
 10
-59.74375
 20
67.075
  1
15
 40
3.0
 72
     5
 11
-56.55625
 21
67.075
  0
ENDBLK
  0
BLOCK
  2
*DIM_0048
 70
    65
 10
0.0
 20
0.0
  0
LINE
  8
寸法
  6
CONTINUOUS
 10
-82.29345
 20
-23.870133
 11
-82.29345
 21
66.722187
  0
LINE
  8
寸法
  6
CONTINUOUS
 10
-60.626787
 20
66.722187
 11
-82.29345
 21
66.722187
  0
POINT
  8
寸法
 10
-60.626787
 20
66.722187
  0
POINT
  8
寸法
 10
-82.29345
 20
66.722187
  0
TEXT
  7
TextStyle03
  8
寸法
  6
CONTINUOUS
 10
-73.06875
 20
67.075
  1
65
 40
3.0
 72
     5
 11
-69.88125
 21
67.075
  0
ENDBLK
  0
BLOCK
  2
*DIM_0049
 70
    65
 10
0.0
 20
0.0
  0
LINE
  8
寸法
  6
CONTINUOUS
 10
-67.29345
 20
6.92985
 11
-67.29345
 21
60.055523
  0
LINE
  8
寸法
  6
CONTINUOUS
 10
-60.626787
 20
60.055523
 11
-67.29345
 21
60.055523
  0
POINT
  8
寸法
 10
-60.626787
 20
60.055523
  0
POINT
  8
寸法
 10
-67.29345
 20
60.055523
  0
TEXT
  7
TextStyle03
  8
寸法
  6
CONTINUOUS
 10
-65.56875
 20
60.4
  1
20
 40
3.0
 72
     5
 11
-62.38125
 21
60.4
  0
ENDBLK
  0
BLOCK
  2
*DIM_0050
 70
    65
 10
0.0
 20
0.0
  0
LINE
  8
寸法
  6
CONTINUOUS
 10
-77.293452
 20
9.031045
 11
-77.293452
 21
60.055523
  0
LINE
  8
寸法
  6
CONTINUOUS
 10
-67.29345
 20
60.055523
 11
-77.293452
 21
60.055523
  0
POINT
  8
寸法
 10
-77.293452
 20
60.055523
  0
TEXT
  7
TextStyle03
  8
寸法
  6
CONTINUOUS
 10
-73.89375
 20
60.4
  1
30
 40
3.0
 72
     5
 11
-70.70625
 21
60.4
  0
ENDBLK
  0
BLOCK
  2
*DIM_0051
 70
    65
 10
0.0
 20
0.0
  0
LINE
  8
寸法
  6
CONTINUOUS
 10
-82.29345
 20
-23.870133
 11
-82.29345
 21
60.055523
  0
LINE
  8
寸法
  6
CONTINUOUS
 10
-77.293452
 20
60.055523
 11
-82.29345
 21
60.055523
  0
POINT
  8
寸法
 10
-82.29345
 20
60.055523
  0
TEXT
  7
TextStyle03
  8
寸法
  6
CONTINUOUS
 10
-81.39375
 20
60.4
  1
15
 40
3.0
 72
     5
 11
-78.20625
 21
60.4
  0
ENDBLK
  0
BLOCK
  2
*DIM_0052
 70
    65
 10
0.0
 20
0.0
  0
LINE
  8
寸法
  6
CONTINUOUS
 10
62.20942
 20
-19.97015
 11
62.20942
 21
66.722187
  0
LINE
  8
寸法
  6
CONTINUOUS
 10
67.209423
 20
66.722187
 11
62.20942
 21
66.722187
  0
POINT
  8
寸法
 10
67.209423
 20
66.722187
  0
POINT
  8
寸法
 10
62.20942
 20
66.722187
  0
TEXT
  7
TextStyle03
  8
寸法
  6
CONTINUOUS
 10
63.10625
 20
67.075
  1
15
 40
3.0
 72
     5
 11
66.29375
 21
67.075
  0
ENDBLK
  0
BLOCK
  2
*DIM_0053
 70
    65
 10
0.0
 20
0.0
  0
LINE
  8
寸法
  6
CONTINUOUS
 10
88.876085
 20
-23.870133
 11
88.876085
 21
66.722187
  0
LINE
  8
寸法
  6
CONTINUOUS
 10
67.209423
 20
66.722187
 11
88.876085
 21
66.722187
  0
POINT
  8
寸法
 10
67.209423
 20
66.722187
  0
POINT
  8
寸法
 10
88.876085
 20
66.722187
  0
TEXT
  7
TextStyle03
  8
寸法
  6
CONTINUOUS
 10
76.43125
 20
67.075
  1
65
 40
3.0
 50
360.0
 72
     5
 11
79.61875
 21
67.075
  0
ENDBLK
  0
BLOCK
  2
*DIM_0054
 70
    65
 10
0.0
 20
0.0
  0
LINE
  8
寸法
  6
CONTINUOUS
 10
73.876085
 20
6.92985
 11
73.876085
 21
60.055523
  0
LINE
  8
寸法
  6
CONTINUOUS
 10
67.209423
 20
60.055523
 11
73.876085
 21
60.055523
  0
POINT
  8
寸法
 10
67.209423
 20
60.055523
  0
POINT
  8
寸法
 10
73.876085
 20
60.055523
  0
TEXT
  7
TextStyle03
  8
寸法
  6
CONTINUOUS
 10
68.93125
 20
60.4
  1
20
 40
3.0
 50
360.0
 72
     5
 11
72.11875
 21
60.4
  0
ENDBLK
  0
BLOCK
  2
*DIM_0055
 70
    65
 10
0.0
 20
0.0
  0
LINE
  8
寸法
  6
CONTINUOUS
 10
73.876085
 20
6.92985
 11
73.876085
 21
60.055523
  0
LINE
  8
寸法
  6
CONTINUOUS
 10
83.876087
 20
9.031045
 11
83.876087
 21
60.055523
  0
LINE
  8
寸法
  6
CONTINUOUS
 10
73.876085
 20
60.055523
 11
83.876087
 21
60.055523
  0
POINT
  8
寸法
 10
83.876087
 20
60.055523
  0
TEXT
  7
TextStyle03
  8
寸法
  6
CONTINUOUS
 10
77.28125
 20
60.4
  1
30
 40
3.0
 50
360.0
 72
     5
 11
80.46875
 21
60.4
  0
ENDBLK
  0
BLOCK
  2
*DIM_0056
 70
    65
 10
0.0
 20
0.0
  0
LINE
  8
寸法
  6
CONTINUOUS
 10
83.876087
 20
9.031045
 11
83.876087
 21
60.055523
  0
LINE
  8
寸法
  6
CONTINUOUS
 10
88.876085
 20
-23.870133
 11
88.876085
 21
60.055523
  0
LINE
  8
寸法
  6
CONTINUOUS
 10
83.876087
 20
60.055523
 11
88.876085
 21
60.055523
  0
POINT
  8
寸法
 10
88.876085
 20
60.055523
  0
TEXT
  7
TextStyle03
  8
寸法
  6
CONTINUOUS
 10
84.78125
 20
60.4
  1
15
 40
3.0
 50
360.0
 72
     5
 11
87.96875
 21
60.4
  0
ENDBLK
  0
BLOCK
  2
*DIM_0057
 70
    65
 10
0.0
 20
0.0
  0
LINE
  8
寸法
  6
CONTINUOUS
 10
-87.29345
 20
-32.870132
 11
-134.169243
 21
-32.870132
  0
LINE
  8
寸法
  6
CONTINUOUS
 10
-82.293452
 20
4.031045
 11
-134.169243
 21
4.031045
  0
LINE
  8
寸法
  6
CONTINUOUS
 10
-134.169243
 20
-32.870132
 11
-134.169243
 21
4.031045
  0
POINT
  8
寸法
 10
-134.169243
 20
-32.870132
  0
POINT
  8
寸法
 10
-134.169243
 20
4.031045
  0
TEXT
  7
TextStyle03
  8
寸法
  6
CONTINUOUS
 10
-134.55
 20
-18.575
  1
110.7
 40
3.0
 50
90.0
 72
     5
 11
-134.55
 21
-10.325
  0
ENDBLK
  0
BLOCK
  2
*DIM_0058
 70
    65
 10
0.0
 20
0.0
  0
LINE
  8
寸法
  6
CONTINUOUS
 10
-87.29345
 20
-32.870132
 11
-127.502575
 21
-32.870132
  0
LINE
  8
寸法
  6
CONTINUOUS
 10
-79.960117
 20
-15.97015
 11
-127.502575
 21
-15.97015
  0
LINE
  8
寸法
  6
CONTINUOUS
 10
-127.502575
 20
-32.870132
 11
-127.502575
 21
-15.97015
  0
POINT
  8
寸法
 10
-127.502575
 20
-32.870132
  0
POINT
  8
寸法
 10
-127.502575
 20
-15.97015
  0
TEXT
  7
TextStyle03
  8
寸法
  6
CONTINUOUS
 10
-127.9
 20
-27.73125
  1
50.7
 40
3.0
 50
90.0
 72
     5
 11
-127.9
 21
-21.16875
  0
ENDBLK
  0
BLOCK
  2
*DIM_0059
 70
    65
 10
0.0
 20
0.0
  0
LINE
  8
寸法
  6
CONTINUOUS
 10
-86.293445
 20
-5.968955
 11
-127.502575
 21
-5.968955
  0
LINE
  8
寸法
  6
CONTINUOUS
 10
-127.502575
 20
-15.97015
 11
-127.502575
 21
-5.968955
  0
POINT
  8
寸法
 10
-127.502575
 20
-5.968955
  0
TEXT
  7
TextStyle03
  8
寸法
  6
CONTINUOUS
 10
-127.9
 20
-12.59375
  1
30
 40
3.0
 50
90.0
 72
     5
 11
-127.9
 21
-9.40625
  0
ENDBLK
  0
BLOCK
  2
*DIM_0060
 70
    65
 10
0.0
 20
0.0
  0
LINE
  8
寸法
  6
CONTINUOUS
 10
-82.293452
 20
4.031045
 11
-127.502575
 21
4.031045
  0
LINE
  8
寸法
  6
CONTINUOUS
 10
-127.502575
 20
-5.968955
 11
-127.502575
 21
4.031045
  0
POINT
  8
寸法
 10
-127.502575
 20
4.031045
  0
TEXT
  7
TextStyle03
  8
寸法
  6
CONTINUOUS
 10
-127.9
 20
-2.59375
  1
30
 40
3.0
 50
90.0
 72
     5
 11
-127.9
 21
0.59375
  0
ENDBLK
  0
BLOCK
  2
*GRP_0061
 70
    65
 10
0.0
 20
0.0
  0
POLYLINE
  8
寸法
  6
CONTINUOUS
 66
     1
  0
VERTEX
  8
寸法
 10
126.533955
 20
-79.959152
  0
VERTEX
  8
寸法
 10
142.449323
 20
-66.6408
  0
VERTEX
  8
寸法
 10
156.39797
 20
-66.6408
  0
SEQEND
  0
ENDBLK
  0
BLOCK
  2
*GRP_0062
 70
    65
 10
0.0
 20
0.0
  0
POLYLINE
  8
寸法
  6
CONTINUOUS
 66
     1
  0
VERTEX
  8
寸法
 10
113.241492
 20
-52.259227
  0
VERTEX
  8
寸法
 10
123.79716
 20
-43.398188
  0
VERTEX
  8
寸法
 10
138.691477
 20
-43.398188
  0
SEQEND
  0
ENDBLK
  0
BLOCK
  2
*DIM_0063
 70
    65
 10
0.0
 20
0.0
  0
LINE
  8
寸法
  6
CONTINUOUS
 10
67.209423
 20
38.162747
 11
67.209423
 21
73.388855
  0
LINE
  8
寸法
  6
CONTINUOUS
 10
-60.626787
 20
38.162747
 11
-60.626787
 21
73.388855
  0
LINE
  8
寸法
  6
CONTINUOUS
 10
67.209423
 20
73.388855
 11
-60.626787
 21
73.388855
  0
POINT
  8
寸法
 10
67.209423
 20
73.388855
  0
POINT
  8
寸法
 10
-60.626787
 20
73.388855
  0
TEXT
  7
TextStyle03
  8
寸法
  6
CONTINUOUS
 10
-11.725
 20
73.725
  1
ドーム呼称寸法　φ
 40
3.0
 72
     5
 11
18.275
 21
73.725
  0
ENDBLK
  0
BLOCK
  2
*DIM_0064
 70
    65
 10
0.0
 20
0.0
  0
LINE
  8
寸法
  6
CONTINUOUS
 10
-82.29345
 20
-23.870133
 11
-82.29345
 21
66.722187
  0
LINE
  8
寸法
  6
CONTINUOUS
 10
-88.960117
 20
-32.394262
 11
-88.960117
 21
66.722187
  0
LINE
  8
寸法
  6
CONTINUOUS
 10
-82.29345
 20
66.722187
 11
-88.960117
 21
66.722187
  0
POINT
  8
寸法
 10
-82.29345
 20
66.722187
  0
POINT
  8
寸法
 10
-88.960117
 20
66.722187
  0
TEXT
  7
TextStyle03
  8
寸法
  6
CONTINUOUS
 10
-87.24375
 20
67.075
  1
20
 40
3.0
 72
     5
 11
-84.05625
 21
67.075
  0
ENDBLK
  0
BLOCK
  2
*DIM_0065
 70
    65
 10
0.0
 20
0.0
  0
LINE
  8
寸法
  6
CONTINUOUS
 10
-60.626787
 20
38.162747
 11
-60.626787
 21
73.388855
  0
LINE
  8
寸法
  6
CONTINUOUS
 10
-88.960117
 20
-32.786165
 11
-88.960117
 21
73.388855
  0
LINE
  8
寸法
  6
CONTINUOUS
 10
-60.626787
 20
73.388855
 11
-88.960117
 21
73.388855
  0
POINT
  8
寸法
 10
-60.626787
 20
73.388855
  0
POINT
  8
寸法
 10
-88.960117
 20
73.388855
  0
TEXT
  7
TextStyle03
  8
寸法
  6
CONTINUOUS
 10
-76.39375
 20
73.725
  1
85
 40
3.0
 72
     5
 11
-73.20625
 21
73.725
  0
ENDBLK
  0
BLOCK
  2
*DIM_0066
 70
    65
 10
0.0
 20
0.0
  0
LINE
  8
寸法
  6
CONTINUOUS
 10
67.209423
 20
38.162747
 11
67.209423
 21
73.388855
  0
LINE
  8
寸法
  6
CONTINUOUS
 10
95.542752
 20
-32.786165
 11
95.542752
 21
73.388855
  0
LINE
  8
寸法
  6
CONTINUOUS
 10
67.209423
 20
73.388855
 11
95.542752
 21
73.388855
  0
POINT
  8
寸法
 10
67.209423
 20
73.388855
  0
POINT
  8
寸法
 10
95.542752
 20
73.388855
  0
TEXT
  7
TextStyle03
  8
寸法
  6
CONTINUOUS
 10
79.78125
 20
73.725
  1
85
 40
3.0
 72
     5
 11
82.96875
 21
73.725
  0
ENDBLK
  0
BLOCK
  2
*DIM_0067
 70
    65
 10
0.0
 20
0.0
  0
LINE
  8
寸法
  6
CONTINUOUS
 10
88.876085
 20
-23.870133
 11
88.876085
 21
66.722187
  0
LINE
  8
寸法
  6
CONTINUOUS
 10
95.542752
 20
-32.394262
 11
95.542752
 21
66.722187
  0
LINE
  8
寸法
  6
CONTINUOUS
 10
88.876085
 20
66.722187
 11
95.542752
 21
66.722187
  0
POINT
  8
寸法
 10
88.876085
 20
66.722187
  0
POINT
  8
寸法
 10
95.542752
 20
66.722187
  0
TEXT
  7
TextStyle03
  8
寸法
  6
CONTINUOUS
 10
90.60625
 20
67.075
  1
20
 40
3.0
 72
     5
 11
93.79375
 21
67.075
  0
ENDBLK
  0
BLOCK
  2
*GRP_0068
 70
    65
 10
0.0
 20
0.0
  0
LINE
  8
ボルト／ビス
  6
CONTINUOUS
 62
    64
 10
-93.29345
 20
-58.169643
 11
-93.29345
 21
-81.416543
  0
LINE
  8
ボルト／ビス
  6
CONTINUOUS
 62
    64
 10
-94.460067
 20
-60.805868
 11
-94.224392
 21
-60.570025
  0
LINE
  8
ボルト／ビス
  6
CONTINUOUS
 62
    64
 10
-94.460067
 20
-60.805868
 11
-94.460067
 21
-62.90335
  0
LINE
  8
ボルト／ビス
  6
CONTINUOUS
 62
    64
 10
-94.460067
 20
-60.805868
 11
-94.695742
 21
-60.570025
  0
LINE
  8
ボルト／ビス
  6
CONTINUOUS
 62
    64
 10
-94.391032
 20
-58.903435
 11
-94.391032
 21
-60.570025
  0
LINE
  8
ボルト／ビス
  6
CONTINUOUS
 62
    64
 10
-95.960083
 20
-62.90335
 11
-95.960083
 21
-63.736725
  0
LINE
  8
ボルト／ビス
  6
CONTINUOUS
 62
    64
 10
-94.626807
 20
-70.570068
 11
-94.391032
 21
-70.334393
  0
LINE
  8
ボルト／ビス
  6
CONTINUOUS
 62
    64
 10
-94.391032
 20
-64.236817
 11
-94.391032
 21
-70.334393
  0
LINE
  8
ボルト／ビス
  6
CONTINUOUS
 62
    64
 10
-94.626807
 20
-73.703168
 11
-95.920875
 21
-78.532835
  0
LINE
  8
ボルト／ビス
  6
CONTINUOUS
 62
    64
 10
-94.626807
 20
-64.236817
 11
-94.626807
 21
-73.703168
  0
LINE
  8
ボルト／ビス
  6
CONTINUOUS
 62
    64
 10
-94.460067
 20
-60.805868
 11
-94.224392
 21
-60.570025
  0
LINE
  8
ボルト／ビス
  6
CONTINUOUS
 62
    64
 10
-92.146983
 20
-60.805868
 11
-91.911308
 21
-60.570025
  0
LINE
  8
ボルト／ビス
  6
CONTINUOUS
 62
    64
 10
-92.146983
 20
-60.805868
 11
-92.146983
 21
-62.90335
  0
LINE
  8
ボルト／ビス
  6
CONTINUOUS
 62
    64
 10
-92.146983
 20
-60.805868
 11
-92.382658
 21
-60.570025
  0
LINE
  8
ボルト／ビス
  6
CONTINUOUS
 62
    64
 10
-92.195807
 20
-58.903435
 11
-92.195807
 21
-60.570025
  0
LINE
  8
ボルト／ビス
  6
CONTINUOUS
 62
    64
 10
-90.626717
 20
-62.90335
 11
-90.626717
 21
-63.736725
  0
LINE
  8
ボルト／ビス
  6
CONTINUOUS
 62
    64
 10
-91.960125
 20
-70.570068
 11
-92.195807
 21
-70.334393
  0
LINE
  8
ボルト／ビス
  6
CONTINUOUS
 62
    64
 10
-92.195807
 20
-64.236817
 11
-92.195807
 21
-70.334393
  0
LINE
  8
ボルト／ビス
  6
CONTINUOUS
 62
    64
 10
-91.960125
 20
-73.703168
 11
-90.666025
 21
-78.532835
  0
LINE
  8
ボルト／ビス
  6
CONTINUOUS
 62
    64
 10
-91.960125
 20
-64.236817
 11
-91.960125
 21
-73.703168
  0
LINE
  8
ボルト／ビス
  6
CONTINUOUS
 62
    64
 10
-91.960125
 20
-59.13911
 11
-92.195807
 21
-58.903435
  0
LINE
  8
ボルト／ビス
  6
CONTINUOUS
 62
    64
 10
-91.960125
 20
-60.570025
 11
-91.960125
 21
-59.13911
  0
LINE
  8
ボルト／ビス
  6
CONTINUOUS
 62
    64
 10
-92.195807
 20
-58.903435
 11
-94.391032
 21
-58.903435
  0
LINE
  8
ボルト／ビス
  6
CONTINUOUS
 62
    64
 10
-94.391032
 20
-58.903435
 11
-94.626807
 21
-59.13911
  0
LINE
  8
ボルト／ビス
  6
CONTINUOUS
 62
    64
 10
-91.960125
 20
-59.13911
 11
-94.626807
 21
-59.13911
  0
LINE
  8
ボルト／ビス
  6
CONTINUOUS
 62
    64
 10
-94.626807
 20
-60.570025
 11
-94.626807
 21
-59.13911
  0
LINE
  8
ボルト／ビス
  6
CONTINUOUS
 62
    64
 10
-96.226743
 20
-60.805868
 11
-95.991068
 21
-60.570025
  0
LINE
  8
ボルト／ビス
  6
CONTINUOUS
 62
    64
 10
-96.226743
 20
-60.805868
 11
-96.226743
 21
-62.90335
  0
LINE
  8
ボルト／ビス
  6
CONTINUOUS
 62
    64
 10
-95.991068
 20
-60.570025
 11
-90.595832
 21
-60.570025
  0
LINE
  8
ボルト／ビス
  6
CONTINUOUS
 62
    64
 10
-90.360157
 20
-60.805868
 11
-90.595832
 21
-60.570025
  0
LINE
  8
ボルト／ビス
  6
CONTINUOUS
 62
    64
 10
-90.360157
 20
-60.805868
 11
-90.360157
 21
-62.90335
  0
LINE
  8
ボルト／ビス
  6
CONTINUOUS
 62
    64
 10
-96.226743
 20
-62.90335
 11
-90.360157
 21
-62.90335
  0
LINE
  8
ボルト／ビス
  6
CONTINUOUS
 62
    64
 10
-90.043393
 20
-63.736725
 11
-90.043393
 21
-64.236817
  0
LINE
  8
ボルト／ビス
  6
CONTINUOUS
 62
    64
 10
-90.043393
 20
-63.736725
 11
-96.54345
 21
-63.736725
  0
LINE
  8
ボルト／ビス
  6
CONTINUOUS
 62
    64
 10
-96.54345
 20
-63.736725
 11
-96.54345
 21
-64.236817
  0
LINE
  8
ボルト／ビス
  6
CONTINUOUS
 62
    64
 10
-90.043393
 20
-64.236817
 11
-96.54345
 21
-64.236817
  0
LINE
  8
ボルト／ビス
  6
CONTINUOUS
 62
    64
 10
-93.29345
 20
-73.92266
 11
-91.964808
 21
-78.880885
  0
LINE
  8
ボルト／ビス
  6
CONTINUOUS
 62
    64
 10
-90.666025
 20
-78.532835
 11
-91.964808
 21
-78.880885
  0
LINE
  8
ボルト／ビス
  6
CONTINUOUS
 62
    64
 10
-93.29345
 20
-73.92266
 11
-94.622
 21
-78.880885
  0
LINE
  8
ボルト／ビス
  6
CONTINUOUS
 62
    64
 10
-95.920875
 20
-78.532835
 11
-94.622
 21
-78.880885
  0
LINE
  8
ボルト／ビス
  6
CONTINUOUS
 62
    64
 10
-94.626807
 20
-79.570017
 11
-94.196807
 21
-77.131318
  0
LINE
  8
ボルト／ビス
  6
CONTINUOUS
 62
    64
 10
-91.960125
 20
-79.570017
 11
-92.390092
 21
-77.131318
  0
LINE
  8
ボルト／ビス
  6
CONTINUOUS
 62
    64
 10
-94.626807
 20
-79.570017
 11
-91.960125
 21
-79.570017
  0
LINE
  8
ボルト／ビス
  6
CONTINUOUS
 62
    64
 10
-94.196807
 20
-77.131318
 11
-92.390092
 21
-77.131318
  0
ENDBLK
  0
BLOCK
  2
*GRP_0069
 70
    65
 10
0.0
 20
0.0
  0
LINE
  8
ボルト／ビス
  6
CONTINUOUS
 62
    64
 10
99.876085
 20
-58.169643
 11
99.876085
 21
-81.416543
  0
LINE
  8
ボルト／ビス
  6
CONTINUOUS
 62
    64
 10
101.042703
 20
-60.805868
 11
100.807028
 21
-60.570025
  0
LINE
  8
ボルト／ビス
  6
CONTINUOUS
 62
    64
 10
101.042703
 20
-60.805868
 11
101.042703
 21
-62.90335
  0
LINE
  8
ボルト／ビス
  6
CONTINUOUS
 62
    64
 10
101.042703
 20
-60.805868
 11
101.278377
 21
-60.570025
  0
LINE
  8
ボルト／ビス
  6
CONTINUOUS
 62
    64
 10
100.973668
 20
-58.903435
 11
100.973668
 21
-60.570025
  0
LINE
  8
ボルト／ビス
  6
CONTINUOUS
 62
    64
 10
102.542718
 20
-62.90335
 11
102.542718
 21
-63.736725
  0
LINE
  8
ボルト／ビス
  6
CONTINUOUS
 62
    64
 10
101.209442
 20
-70.570068
 11
100.973668
 21
-70.334393
  0
LINE
  8
ボルト／ビス
  6
CONTINUOUS
 62
    64
 10
100.973668
 20
-64.236817
 11
100.973668
 21
-70.334393
  0
LINE
  8
ボルト／ビス
  6
CONTINUOUS
 62
    64
 10
101.209442
 20
-73.703168
 11
102.50351
 21
-78.532835
  0
LINE
  8
ボルト／ビス
  6
CONTINUOUS
 62
    64
 10
101.209442
 20
-64.236817
 11
101.209442
 21
-73.703168
  0
LINE
  8
ボルト／ビス
  6
CONTINUOUS
 62
    64
 10
101.042703
 20
-60.805868
 11
100.807028
 21
-60.570025
  0
LINE
  8
ボルト／ビス
  6
CONTINUOUS
 62
    64
 10
98.729617
 20
-60.805868
 11
98.493943
 21
-60.570025
  0
LINE
  8
ボルト／ビス
  6
CONTINUOUS
 62
    64
 10
98.729617
 20
-60.805868
 11
98.729617
 21
-62.90335
  0
LINE
  8
ボルト／ビス
  6
CONTINUOUS
 62
    64
 10
98.729617
 20
-60.805868
 11
98.965293
 21
-60.570025
  0
LINE
  8
ボルト／ビス
  6
CONTINUOUS
 62
    64
 10
98.778442
 20
-58.903435
 11
98.778442
 21
-60.570025
  0
LINE
  8
ボルト／ビス
  6
CONTINUOUS
 62
    64
 10
97.209353
 20
-62.90335
 11
97.209353
 21
-63.736725
  0
LINE
  8
ボルト／ビス
  6
CONTINUOUS
 62
    64
 10
98.54276
 20
-70.570068
 11
98.778442
 21
-70.334393
  0
LINE
  8
ボルト／ビス
  6
CONTINUOUS
 62
    64
 10
98.778442
 20
-64.236817
 11
98.778442
 21
-70.334393
  0
LINE
  8
ボルト／ビス
  6
CONTINUOUS
 62
    64
 10
98.54276
 20
-73.703168
 11
97.24866
 21
-78.532835
  0
LINE
  8
ボルト／ビス
  6
CONTINUOUS
 62
    64
 10
98.54276
 20
-64.236817
 11
98.54276
 21
-73.703168
  0
LINE
  8
ボルト／ビス
  6
CONTINUOUS
 62
    64
 10
98.54276
 20
-59.13911
 11
98.778442
 21
-58.903435
  0
LINE
  8
ボルト／ビス
  6
CONTINUOUS
 62
    64
 10
98.54276
 20
-60.570025
 11
98.54276
 21
-59.13911
  0
LINE
  8
ボルト／ビス
  6
CONTINUOUS
 62
    64
 10
98.778442
 20
-58.903435
 11
100.973668
 21
-58.903435
  0
LINE
  8
ボルト／ビス
  6
CONTINUOUS
 62
    64
 10
100.973668
 20
-58.903435
 11
101.209442
 21
-59.13911
  0
LINE
  8
ボルト／ビス
  6
CONTINUOUS
 62
    64
 10
98.54276
 20
-59.13911
 11
101.209442
 21
-59.13911
  0
LINE
  8
ボルト／ビス
  6
CONTINUOUS
 62
    64
 10
101.209442
 20
-60.570025
 11
101.209442
 21
-59.13911
  0
LINE
  8
ボルト／ビス
  6
CONTINUOUS
 62
    64
 10
102.809377
 20
-60.805868
 11
102.573703
 21
-60.570025
  0
LINE
  8
ボルト／ビス
  6
CONTINUOUS
 62
    64
 10
102.809377
 20
-60.805868
 11
102.809377
 21
-62.90335
  0
LINE
  8
ボルト／ビス
  6
CONTINUOUS
 62
    64
 10
102.573703
 20
-60.570025
 11
97.178468
 21
-60.570025
  0
LINE
  8
ボルト／ビス
  6
CONTINUOUS
 62
    64
 10
96.942792
 20
-60.805868
 11
97.178468
 21
-60.570025
  0
LINE
  8
ボルト／ビス
  6
CONTINUOUS
 62
    64
 10
96.942792
 20
-60.805868
 11
96.942792
 21
-62.90335
  0
LINE
  8
ボルト／ビス
  6
CONTINUOUS
 62
    64
 10
102.809377
 20
-62.90335
 11
96.942792
 21
-62.90335
  0
LINE
  8
ボルト／ビス
  6
CONTINUOUS
 62
    64
 10
96.626028
 20
-63.736725
 11
96.626028
 21
-64.236817
  0
LINE
  8
ボルト／ビス
  6
CONTINUOUS
 62
    64
 10
96.626028
 20
-63.736725
 11
103.126085
 21
-63.736725
  0
LINE
  8
ボルト／ビス
  6
CONTINUOUS
 62
    64
 10
103.126085
 20
-63.736725
 11
103.126085
 21
-64.236817
  0
LINE
  8
ボルト／ビス
  6
CONTINUOUS
 62
    64
 10
96.626028
 20
-64.236817
 11
103.126085
 21
-64.236817
  0
LINE
  8
ボルト／ビス
  6
CONTINUOUS
 62
    64
 10
99.876085
 20
-73.92266
 11
98.547443
 21
-78.880885
  0
LINE
  8
ボルト／ビス
  6
CONTINUOUS
 62
    64
 10
97.24866
 20
-78.532835
 11
98.547443
 21
-78.880885
  0
LINE
  8
ボルト／ビス
  6
CONTINUOUS
 62
    64
 10
99.876085
 20
-73.92266
 11
101.204635
 21
-78.880885
  0
LINE
  8
ボルト／ビス
  6
CONTINUOUS
 62
    64
 10
102.50351
 20
-78.532835
 11
101.204635
 21
-78.880885
  0
LINE
  8
ボルト／ビス
  6
CONTINUOUS
 62
    64
 10
101.209442
 20
-79.570017
 11
100.779443
 21
-77.131318
  0
LINE
  8
ボルト／ビス
  6
CONTINUOUS
 62
    64
 10
98.54276
 20
-79.570017
 11
98.972727
 21
-77.131318
  0
LINE
  8
ボルト／ビス
  6
CONTINUOUS
 62
    64
 10
101.209442
 20
-79.570017
 11
98.54276
 21
-79.570017
  0
LINE
  8
ボルト／ビス
  6
CONTINUOUS
 62
    64
 10
100.779443
 20
-77.131318
 11
98.972727
 21
-77.131318
  0
ENDBLK
  0
BLOCK
  2
*GRP_0070
 70
    65
 10
0.0
 20
0.0
  0
LINE
  8
曲げ物
  6
DOT
 10
-63.593452
 20
-23.703467
 11
-63.593452
 21
-19.870135
  0
LINE
  8
曲げ物
  6
DOT
 10
-63.593452
 20
-19.870135
 11
-63.260117
 21
-19.870135
  0
LINE
  8
曲げ物
  6
DOT
 10
-60.426785
 20
-27.203467
 11
-60.093452
 21
-27.203467
  0
LINE
  8
曲げ物
  6
DOT
 10
-60.426785
 20
-27.203467
 11
-60.426785
 21
-23.703467
  0
LINE
  8
曲げ物
  6
DOT
 10
-63.593452
 20
-23.703467
 11
-60.426785
 21
-23.703467
  0
LINE
  8
曲げ物
  6
DOT
 10
-60.093452
 20
-27.203467
 11
-60.093452
 21
-23.370135
  0
LINE
  8
曲げ物
  6
DOT
 10
-60.093452
 20
-23.370135
 11
-63.260117
 21
-23.370135
  0
LINE
  8
曲げ物
  6
DOT
 10
-63.260117
 20
-19.870135
 11
-63.260117
 21
-23.370135
  0
ENDBLK
  0
BLOCK
  2
*GRP_0071
 70
    65
 10
0.0
 20
0.0
  0
LINE
  8
曲げ物
  6
CONTINUOUS
 10
-121.626795
 20
-67.350875
 11
-121.626728
 21
-87.350857
  0
LINE
  8
曲げ物
  6
CONTINUOUS
 10
-118.960102
 20
-87.350857
 11
-121.626728
 21
-87.350857
  0
LINE
  8
曲げ物
  6
DOT
 10
-121.293427
 20
-67.3509
 11
-121.293402
 21
-87.350857
  0
LINE
  8
曲げ物
  6
CONTINUOUS
 10
-118.293452
 20
-67.350875
 11
-118.293378
 21
-87.350857
  0
LINE
  8
曲げ物
  6
DOT
 10
-118.626778
 20
-67.350875
 11
-118.626728
 21
-87.350875
  0
LINE
  8
曲げ物
  6
CONTINUOUS
 10
-121.626795
 20
-67.350875
 11
-118.293452
 21
-67.350875
  0
LINE
  8
曲げ物
  6
CONTINUOUS
 10
-121.62677
 20
-87.350857
 11
-118.293378
 21
-87.350857
  0
ENDBLK
  0
BLOCK
  2
*GRP_0072
 70
    65
 10
0.0
 20
0.0
  0
LINE
  8
曲げ物
  6
DOT
 10
70.176087
 20
-23.703467
 11
70.176087
 21
-19.870135
  0
LINE
  8
曲げ物
  6
DOT
 10
70.176087
 20
-19.870135
 11
69.842752
 21
-19.870135
  0
LINE
  8
曲げ物
  6
DOT
 10
67.00942
 20
-27.203467
 11
66.676087
 21
-27.203467
  0
LINE
  8
曲げ物
  6
DOT
 10
67.00942
 20
-27.203467
 11
67.00942
 21
-23.703467
  0
LINE
  8
曲げ物
  6
DOT
 10
70.176087
 20
-23.703467
 11
67.00942
 21
-23.703467
  0
LINE
  8
曲げ物
  6
DOT
 10
66.676087
 20
-27.203467
 11
66.676087
 21
-23.370135
  0
LINE
  8
曲げ物
  6
DOT
 10
66.676087
 20
-23.370135
 11
69.842752
 21
-23.370135
  0
LINE
  8
曲げ物
  6
DOT
 10
69.842752
 20
-19.870135
 11
69.842752
 21
-23.370135
  0
ENDBLK
  0
BLOCK
  2
*GRP_0073
 70
    65
 10
0.0
 20
0.0
  0
LINE
  8
曲げ物
  6
CONTINUOUS
 10
128.20943
 20
-67.350875
 11
128.209362
 21
-87.350857
  0
LINE
  8
曲げ物
  6
CONTINUOUS
 10
125.542737
 20
-87.350857
 11
128.209362
 21
-87.350857
  0
LINE
  8
曲げ物
  6
DOT
 10
127.876063
 20
-67.3509
 11
127.876037
 21
-87.350857
  0
LINE
  8
曲げ物
  6
CONTINUOUS
 10
124.876088
 20
-67.350875
 11
124.876013
 21
-87.350857
  0
LINE
  8
曲げ物
  6
DOT
 10
125.209412
 20
-67.350875
 11
125.209362
 21
-87.350875
  0
LINE
  8
曲げ物
  6
CONTINUOUS
 10
128.20943
 20
-67.350875
 11
124.876088
 21
-67.350875
  0
LINE
  8
曲げ物
  6
CONTINUOUS
 10
128.209405
 20
-87.350857
 11
124.876013
 21
-87.350857
  0
ENDBLK
  0
BLOCK
  2
*GRP_0074
 70
    65
 10
0.0
 20
0.0
  0
LINE
  8
曲げ物
  6
CONTINUOUS
 62
   111
 10
-88.29345
 20
-44.636817
 11
-80.626785
 21
-44.636817
  0
ARC
  8
曲げ物
  6
CONTINUOUS
 62
   111
 10
-88.293451
 20
-43.970151
 40
0.666667
 50
180.0
 51
270.0
  0
LINE
  8
曲げ物
  6
CONTINUOUS
 62
   111
 10
-88.29345
 20
-43.97015
 11
-80.626785
 21
-43.97015
  0
ARC
  8
曲げ物
  6
CONTINUOUS
 62
   111
 10
-80.626785
 20
-44.636817
 40
0.666667
 50
0.0
 51
90.0
  0
LINE
  8
曲げ物
  6
CONTINUOUS
 62
   111
 10
-79.960117
 20
-44.636817
 11
-79.960117
 21
-48.97015
  0
LINE
  8
曲げ物
  6
CONTINUOUS
 62
   111
 10
-80.626785
 20
-44.636817
 11
-80.626785
 21
-48.97015
  0
LINE
  8
曲げ物
  6
CONTINUOUS
 62
   111
 10
-79.960117
 20
-48.97015
 11
-80.626785
 21
-48.97015
  0
LINE
  8
曲げ物
  6
CONTINUOUS
 62
   111
 10
-88.29345
 20
-36.97015
 11
-88.29345
 21
-43.97015
  0
ARC
  8
曲げ物
  6
CONTINUOUS
 62
   111
 10
-88.293451
 20
-36.970151
 40
0.666667
 50
90.0
 51
180.0
  0
LINE
  8
曲げ物
  6
CONTINUOUS
 62
   111
 10
-88.960117
 20
-36.97015
 11
-88.960117
 21
-43.97015
  0
ARC
  8
曲げ物
  6
CONTINUOUS
 62
   111
 10
-63.793451
 20
-36.303484
 40
0.318317
 50
90.0
 51
180.0
  0
ARC
  8
曲げ物
  6
CONTINUOUS
 62
   111
 10
-63.793451
 20
-36.303484
 40
0.48925
 50
90.0
 51
180.0
  0
LINE
  8
曲げ物
  6
CONTINUOUS
 62
   111
 10
-63.79345
 20
-36.303482
 11
-63.79345
 21
-32.870132
  0
LINE
  8
曲げ物
  6
CONTINUOUS
 62
   111
 10
-63.126785
 20
-36.97015
 11
-63.126785
 21
-32.870132
  0
LINE
  8
曲げ物
  6
CONTINUOUS
 62
   111
 10
-88.29345
 20
-36.303482
 11
-63.126785
 21
-36.303482
  0
LINE
  8
曲げ物
  6
CONTINUOUS
 62
   111
 10
-88.29345
 20
-36.97015
 11
-63.126785
 21
-36.97015
  0
LINE
  8
曲げ物
  6
CONTINUOUS
 62
   111
 10
-63.79345
 20
-32.870132
 11
-63.126785
 21
-32.870132
  0
ENDBLK
  0
BLOCK
  2
*GRP_0075
 70
    65
 10
0.0
 20
0.0
  0
LINE
  8
曲げ物
  6
CONTINUOUS
 62
   111
 10
94.876085
 20
-44.636817
 11
87.20942
 21
-44.636817
  0
ARC
  8
曲げ物
  6
CONTINUOUS
 62
   111
 10
94.876086
 20
-43.970151
 40
0.666667
 50
270.0
 51
360.0
  0
LINE
  8
曲げ物
  6
CONTINUOUS
 62
   111
 10
94.876085
 20
-43.97015
 11
87.20942
 21
-43.97015
  0
ARC
  8
曲げ物
  6
CONTINUOUS
 62
   111
 10
87.20942
 20
-44.636817
 40
0.666667
 50
90.0
 51
180.0
  0
LINE
  8
曲げ物
  6
CONTINUOUS
 62
   111
 10
86.542752
 20
-44.636817
 11
86.542752
 21
-48.97015
  0
LINE
  8
曲げ物
  6
CONTINUOUS
 62
   111
 10
87.20942
 20
-44.636817
 11
87.20942
 21
-48.97015
  0
LINE
  8
曲げ物
  6
CONTINUOUS
 62
   111
 10
86.542752
 20
-48.97015
 11
87.20942
 21
-48.97015
  0
LINE
  8
曲げ物
  6
CONTINUOUS
 62
   111
 10
94.876085
 20
-36.97015
 11
94.876085
 21
-43.97015
  0
ARC
  8
曲げ物
  6
CONTINUOUS
 62
   111
 10
94.876086
 20
-36.970151
 40
0.666667
 50
0.0
 51
90.0
  0
LINE
  8
曲げ物
  6
CONTINUOUS
 62
   111
 10
95.542752
 20
-36.97015
 11
95.542752
 21
-43.97015
  0
ARC
  8
曲げ物
  6
CONTINUOUS
 62
   111
 10
70.376086
 20
-36.303484
 40
0.318317
 50
0.0
 51
90.0
  0
ARC
  8
曲げ物
  6
CONTINUOUS
 62
   111
 10
70.376086
 20
-36.303484
 40
0.48925
 50
0.0
 51
90.0
  0
LINE
  8
曲げ物
  6
CONTINUOUS
 62
   111
 10
70.376085
 20
-36.303482
 11
70.376085
 21
-32.870132
  0
LINE
  8
曲げ物
  6
CONTINUOUS
 62
   111
 10
69.70942
 20
-36.97015
 11
69.70942
 21
-32.870132
  0
LINE
  8
曲げ物
  6
CONTINUOUS
 62
   111
 10
94.876085
 20
-36.303482
 11
69.70942
 21
-36.303482
  0
LINE
  8
曲げ物
  6
CONTINUOUS
 62
   111
 10
94.876085
 20
-36.97015
 11
69.70942
 21
-36.97015
  0
LINE
  8
曲げ物
  6
CONTINUOUS
 62
   111
 10
70.376085
 20
-32.870132
 11
69.70942
 21
-32.870132
  0
ENDBLK
  0
BLOCK
  2
*GRP_0076
 70
    65
 10
0.0
 20
0.0
  0
ARC
  8
別途部材
  6
CONTINUOUS
 62
    96
 10
-75.485866
 20
1.361203
 40
1.668651
 50
90.001373
 51
158.200992
  0
LINE
  8
別途部材
  6
CONTINUOUS
 62
    96
 10
-77.293452
 20
4.031045
 11
-60.626787
 21
4.031045
  0
LINE
  8
別途部材
  6
CONTINUOUS
 62
    96
 10
-75.485868
 20
3.02985
 11
-60.071933
 21
3.02985
  0
LINE
  8
別途部材
  6
CONTINUOUS
 10
-81.293445
 20
-5.968955
 11
-80.21513
 21
-5.968955
  0
LINE
  8
別途部材
  6
CONTINUOUS
 62
    96
 10
-77.293452
 20
4.031045
 11
-81.293445
 21
-5.968955
  0
LINE
  8
別途部材
  6
CONTINUOUS
 62
    96
 10
-77.035182
 20
1.980918
 11
-80.21513
 21
-5.968955
  0
ARC
  8
別途部材
  6
CONTINUOUS
 10
3.291809
 20
-29.281563
 40
72.078542
 50
90.0
 51
152.472719
  0
ARC
  8
別途部材
  6
CONTINUOUS
 10
3.291809
 20
-29.281563
 40
71.126582
 50
90.0
 51
152.981359
  0
ARC
  8
別途部材
  6
CONTINUOUS
 62
    96
 10
82.068499
 20
1.361203
 40
1.668651
 50
21.799008
 51
89.998627
  0
LINE
  8
別途部材
  6
CONTINUOUS
 62
    96
 10
83.876087
 20
4.031045
 11
67.209423
 21
4.031045
  0
LINE
  8
別途部材
  6
CONTINUOUS
 62
    96
 10
82.068503
 20
3.02985
 11
66.654567
 21
3.02985
  0
LINE
  8
別途部材
  6
CONTINUOUS
 10
87.87608
 20
-5.968955
 11
86.797765
 21
-5.968955
  0
LINE
  8
別途部材
  6
CONTINUOUS
 62
    96
 10
83.876087
 20
4.031045
 11
87.87608
 21
-5.968955
  0
LINE
  8
別途部材
  6
CONTINUOUS
 62
    96
 10
83.617817
 20
1.980918
 11
86.797765
 21
-5.968955
  0
ARC
  8
別途部材
  6
CONTINUOUS
 10
3.290824
 20
-29.281563
 40
72.078542
 50
27.527281
 51
90.0
  0
ARC
  8
別途部材
  6
CONTINUOUS
 10
3.290824
 20
-29.281563
 40
71.126582
 50
27.018641
 51
90.0
  0
ENDBLK
  0
BLOCK
  2
*GRP_0077
 70
    65
 10
0.0
 20
0.0
  0
ARC
  8
St
  6
CONTINUOUS
 10
-60.960122
 20
2.696518
 40
0.333333
 50
0.0
 51
90.0
  0
LINE
  8
St
  6
CONTINUOUS
 10
-60.626785
 20
2.696517
 11
-60.626785
 21
2.363183
  0
ARC
  8
St
  6
CONTINUOUS
 10
-60.960122
 20
2.363185
 40
0.333333
 50
-90.0
 51
0.0
  0
LINE
  8
St
  6
CONTINUOUS
 10
-73.626785
 20
2.02985
 11
-60.960117
 21
2.02985
  0
ARC
  8
St
  6
CONTINUOUS
 10
-73.626788
 20
2.363185
 40
0.333333
 50
-180.0
 51
-90.0
  0
LINE
  8
St
  6
CONTINUOUS
 10
-73.960117
 20
2.696517
 11
-73.960117
 21
2.363183
  0
LINE
  8
St
  6
CONTINUOUS
 10
-73.626785
 20
3.02985
 11
-60.960117
 21
3.02985
  0
ARC
  8
St
  6
CONTINUOUS
 10
-73.626788
 20
2.696518
 40
0.333333
 50
-270.0
 51
-180.0
  0
LINE
  8
St
  6
CONTINUOUS
 10
-60.626785
 20
2.397543
 11
-60.994477
 21
2.02985
  0
LINE
  8
St
  6
CONTINUOUS
 10
-60.764803
 20
2.966635
 11
-61.701588
 21
2.02985
  0
LINE
  8
St
  6
CONTINUOUS
 10
-62.822908
 20
3.02985
 11
-63.822908
 21
2.02985
  0
LINE
  8
St
  6
CONTINUOUS
 10
-62.115798
 20
3.02985
 11
-63.115798
 21
2.02985
  0
LINE
  8
St
  6
CONTINUOUS
 10
-61.408692
 20
3.02985
 11
-62.408692
 21
2.02985
  0
LINE
  8
St
  6
CONTINUOUS
 10
-66.358438
 20
3.02985
 11
-67.358438
 21
2.02985
  0
LINE
  8
St
  6
CONTINUOUS
 10
-65.651332
 20
3.02985
 11
-66.651332
 21
2.02985
  0
LINE
  8
St
  6
CONTINUOUS
 10
-64.944228
 20
3.02985
 11
-65.944228
 21
2.02985
  0
LINE
  8
St
  6
CONTINUOUS
 10
-64.237118
 20
3.02985
 11
-65.237118
 21
2.02985
  0
LINE
  8
St
  6
CONTINUOUS
 10
-63.530012
 20
3.02985
 11
-64.530012
 21
2.02985
  0
LINE
  8
St
  6
CONTINUOUS
 10
-68.479763
 20
3.02985
 11
-69.479763
 21
2.02985
  0
LINE
  8
St
  6
CONTINUOUS
 10
-67.772653
 20
3.02985
 11
-68.772653
 21
2.02985
  0
LINE
  8
St
  6
CONTINUOUS
 10
-67.065547
 20
3.02985
 11
-68.065547
 21
2.02985
  0
LINE
  8
St
  6
CONTINUOUS
 10
-72.015293
 20
3.02985
 11
-73.015293
 21
2.02985
  0
LINE
  8
St
  6
CONTINUOUS
 10
-71.308187
 20
3.02985
 11
-72.308187
 21
2.02985
  0
LINE
  8
St
  6
CONTINUOUS
 10
-70.601083
 20
3.02985
 11
-71.601083
 21
2.02985
  0
LINE
  8
St
  6
CONTINUOUS
 10
-69.893973
 20
3.02985
 11
-70.893973
 21
2.02985
  0
LINE
  8
St
  6
CONTINUOUS
 10
-69.186867
 20
3.02985
 11
-70.186867
 21
2.02985
  0
LINE
  8
St
  6
CONTINUOUS
 10
-72.722403
 20
3.02985
 11
-73.711467
 21
2.040785
  0
LINE
  8
St
  6
CONTINUOUS
 10
-73.429508
 20
3.02985
 11
-73.960117
 21
2.49924
  0
ENDBLK
  0
BLOCK
  2
*GRP_0078
 70
    65
 10
0.0
 20
0.0
  0
ARC
  8
St
  6
CONTINUOUS
 10
67.542757
 20
2.696518
 40
0.333333
 50
90.0
 51
180.0
  0
LINE
  8
St
  6
CONTINUOUS
 10
67.20942
 20
2.696517
 11
67.20942
 21
2.363183
  0
ARC
  8
St
  6
CONTINUOUS
 10
67.542757
 20
2.363185
 40
0.333333
 50
180.0
 51
270.0
  0
LINE
  8
St
  6
CONTINUOUS
 10
80.20942
 20
2.02985
 11
67.542752
 21
2.02985
  0
ARC
  8
St
  6
CONTINUOUS
 10
80.209423
 20
2.363185
 40
0.333333
 50
-90.0
 51
0.0
  0
LINE
  8
St
  6
CONTINUOUS
 10
80.542752
 20
2.696517
 11
80.542752
 21
2.363183
  0
LINE
  8
St
  6
CONTINUOUS
 10
80.20942
 20
3.02985
 11
67.542752
 21
3.02985
  0
ARC
  8
St
  6
CONTINUOUS
 10
80.209423
 20
2.696518
 40
0.333333
 50
0.0
 51
90.0
  0
LINE
  8
St
  6
CONTINUOUS
 10
67.20942
 20
2.397543
 11
67.577112
 21
2.02985
  0
LINE
  8
St
  6
CONTINUOUS
 10
67.347437
 20
2.966635
 11
68.284223
 21
2.02985
  0
LINE
  8
St
  6
CONTINUOUS
 10
69.405543
 20
3.02985
 11
70.405543
 21
2.02985
  0
LINE
  8
St
  6
CONTINUOUS
 10
68.698432
 20
3.02985
 11
69.698432
 21
2.02985
  0
LINE
  8
St
  6
CONTINUOUS
 10
67.991328
 20
3.02985
 11
68.991328
 21
2.02985
  0
LINE
  8
St
  6
CONTINUOUS
 10
72.941072
 20
3.02985
 11
73.941072
 21
2.02985
  0
LINE
  8
St
  6
CONTINUOUS
 10
72.233967
 20
3.02985
 11
73.233967
 21
2.02985
  0
LINE
  8
St
  6
CONTINUOUS
 10
71.526863
 20
3.02985
 11
72.526863
 21
2.02985
  0
LINE
  8
St
  6
CONTINUOUS
 10
70.819752
 20
3.02985
 11
71.819752
 21
2.02985
  0
LINE
  8
St
  6
CONTINUOUS
 10
70.112647
 20
3.02985
 11
71.112647
 21
2.02985
  0
LINE
  8
St
  6
CONTINUOUS
 10
75.062398
 20
3.02985
 11
76.062398
 21
2.02985
  0
LINE
  8
St
  6
CONTINUOUS
 10
74.355287
 20
3.02985
 11
75.355287
 21
2.02985
  0
LINE
  8
St
  6
CONTINUOUS
 10
73.648183
 20
3.02985
 11
74.648183
 21
2.02985
  0
LINE
  8
St
  6
CONTINUOUS
 10
78.597927
 20
3.02985
 11
79.597927
 21
2.02985
  0
LINE
  8
St
  6
CONTINUOUS
 10
77.890822
 20
3.02985
 11
78.890822
 21
2.02985
  0
LINE
  8
St
  6
CONTINUOUS
 10
77.183718
 20
3.02985
 11
78.183718
 21
2.02985
  0
LINE
  8
St
  6
CONTINUOUS
 10
76.476607
 20
3.02985
 11
77.476607
 21
2.02985
  0
LINE
  8
St
  6
CONTINUOUS
 10
75.769503
 20
3.02985
 11
76.769503
 21
2.02985
  0
LINE
  8
St
  6
CONTINUOUS
 10
79.305038
 20
3.02985
 11
80.294103
 21
2.040785
  0
LINE
  8
St
  6
CONTINUOUS
 10
80.012142
 20
3.02985
 11
80.542752
 21
2.49924
  0
ENDBLK
  0
BLOCK
  2
*GRP_0079
 70
    65
 10
0.0
 20
0.0
  0
LINE
  8
St
  6
CONTINUOUS
 62
   127
 10
-76.626785
 20
-33.403467
 11
-64.326785
 21
-33.403467
  0
LINE
  8
St
  6
CONTINUOUS
 62
   127
 10
-64.326785
 20
-33.403467
 11
-64.326785
 21
-35.870132
  0
LINE
  8
St
  6
CONTINUOUS
 62
   127
 10
-64.326785
 20
-35.870132
 11
-63.79345
 21
-35.870132
  0
LINE
  8
St
  6
CONTINUOUS
 62
   127
 10
-76.626785
 20
-32.870132
 11
-76.626785
 21
-33.403467
  0
LINE
  8
St
  6
CONTINUOUS
 62
   127
 10
-76.626785
 20
-32.870132
 11
-64.326785
 21
-32.870132
  0
LINE
  8
St
  6
CONTINUOUS
 62
   127
 10
-63.79345
 20
-33.403467
 11
-63.79345
 21
-35.870132
  0
ARC
  8
St
  6
CONTINUOUS
 62
   127
 10
-64.326785
 20
-33.403467
 40
0.533333
 50
0.0
 51
90.0
  0
LINE
  8
St
  6
CONTINUOUS
 10
-63.79345
 20
-34.711875
 11
-64.326785
 21
-35.24521
  0
LINE
  8
St
  6
CONTINUOUS
 10
-63.79345
 20
-34.476175
 11
-64.326785
 21
-35.00951
  0
LINE
  8
St
  6
CONTINUOUS
 10
-73.044315
 20
-33.403467
 11
-72.51098
 21
-32.870132
  0
LINE
  8
St
  6
CONTINUOUS
 10
-72.808615
 20
-33.403467
 11
-72.27528
 21
-32.870132
  0
ENDBLK
  0
BLOCK
  2
*GRP_0080
 70
    65
 10
0.0
 20
0.0
  0
LINE
  8
St
  6
CONTINUOUS
 62
   127
 10
-79.960117
 20
-61.97015
 11
-78.89345
 21
-61.97015
  0
LINE
  8
St
  6
CONTINUOUS
 62
   127
 10
-63.126785
 20
-28.0368
 11
-62.060117
 21
-28.0368
  0
ARC
  8
St
  6
CONTINUOUS
 62
   127
 10
-78.893451
 20
-38.036817
 40
1.066667
 50
90.0
 51
180.0
  0
LINE
  8
St
  6
CONTINUOUS
 62
   127
 10
-79.960117
 20
-38.036817
 11
-79.960117
 21
-61.97015
  0
LINE
  8
St
  6
CONTINUOUS
 62
   127
 10
-78.89345
 20
-38.036817
 11
-78.89345
 21
-61.97015
  0
LINE
  8
St
  6
CONTINUOUS
 62
   127
 10
-63.126785
 20
-28.0368
 11
-63.126785
 21
-36.97015
  0
LINE
  8
St
  6
CONTINUOUS
 62
   127
 10
-78.89345
 20
-36.97015
 11
-63.126785
 21
-36.97015
  0
LINE
  8
St
  6
CONTINUOUS
 62
   127
 10
-62.060117
 20
-28.0368
 11
-62.060117
 21
-36.97015
  0
LINE
  8
St
  6
CONTINUOUS
 62
   127
 10
-78.89345
 20
-38.036817
 11
-63.126785
 21
-38.036817
  0
ARC
  8
St
  6
CONTINUOUS
 62
   127
 10
-63.126784
 20
-36.97015
 40
1.066667
 50
-90.0
 51
0.0
  0
LINE
  8
St
  6
CONTINUOUS
 10
-78.89345
 20
-39.488303
 11
-79.960117
 21
-40.55497
  0
LINE
  8
St
  6
CONTINUOUS
 10
-78.89345
 20
-39.252603
 11
-79.960117
 21
-40.31927
  0
LINE
  8
St
  6
CONTINUOUS
 10
-76.610998
 20
-36.97015
 11
-77.677665
 21
-38.036817
  0
LINE
  8
St
  6
CONTINUOUS
 10
-76.375298
 20
-36.97015
 11
-77.441965
 21
-38.036817
  0
LINE
  8
St
  6
CONTINUOUS
 10
-66.051725
 20
-36.97015
 11
-67.118393
 21
-38.036817
  0
LINE
  8
St
  6
CONTINUOUS
 10
-78.89345
 20
-49.811875
 11
-79.960117
 21
-50.878543
  0
LINE
  8
St
  6
CONTINUOUS
 10
-66.287425
 20
-36.97015
 11
-67.354093
 21
-38.036817
  0
LINE
  8
St
  6
CONTINUOUS
 10
-78.89345
 20
-49.576175
 11
-79.960117
 21
-50.642843
  0
LINE
  8
St
  6
CONTINUOUS
 10
-63.126785
 20
-33.80951
 11
-62.060117
 21
-32.742843
  0
LINE
  8
St
  6
CONTINUOUS
 10
-63.126785
 20
-34.04521
 11
-62.060117
 21
-32.978543
  0
ENDBLK
  0
BLOCK
  2
*GRP_0081
 70
    65
 10
0.0
 20
0.0
  0
LINE
  8
St
  6
CONTINUOUS
 62
   127
 10
-64.126785
 20
-7.47015
 11
-63.59345
 21
-7.47015
  0
LINE
  8
St
  6
CONTINUOUS
 62
   127
 10
-63.59345
 20
-7.47015
 11
-63.59345
 21
-24.5368
  0
LINE
  8
St
  6
CONTINUOUS
 62
   127
 10
-63.59345
 20
-24.5368
 11
-64.126785
 21
-24.5368
  0
LINE
  8
St
  6
CONTINUOUS
 62
   127
 10
-64.126785
 20
-7.47015
 11
-64.126785
 21
-24.5368
  0
LINE
  8
St
  6
CONTINUOUS
 10
-63.59345
 20
-10.394877
 11
-64.126785
 21
-10.928212
  0
LINE
  8
St
  6
CONTINUOUS
 10
-63.59345
 20
-10.159177
 11
-64.126785
 21
-10.692512
  0
LINE
  8
St
  6
CONTINUOUS
 10
-63.59345
 20
-21.939945
 11
-64.126785
 21
-22.47328
  0
LINE
  8
St
  6
CONTINUOUS
 10
-63.59345
 20
-21.704245
 11
-64.126785
 21
-22.23758
  0
ENDBLK
  0
BLOCK
  2
*GRP_0082
 70
    65
 10
0.0
 20
0.0
  0
LINE
  8
St
  6
CONTINUOUS
 62
   127
 10
83.20942
 20
-33.403467
 11
70.90942
 21
-33.403467
  0
LINE
  8
St
  6
CONTINUOUS
 62
   127
 10
70.90942
 20
-33.403467
 11
70.90942
 21
-35.870132
  0
LINE
  8
St
  6
CONTINUOUS
 62
   127
 10
70.90942
 20
-35.870132
 11
70.376085
 21
-35.870132
  0
LINE
  8
St
  6
CONTINUOUS
 62
   127
 10
83.20942
 20
-32.870132
 11
83.20942
 21
-33.403467
  0
LINE
  8
St
  6
CONTINUOUS
 62
   127
 10
83.20942
 20
-32.870132
 11
70.90942
 21
-32.870132
  0
LINE
  8
St
  6
CONTINUOUS
 62
   127
 10
70.376085
 20
-33.403467
 11
70.376085
 21
-35.870132
  0
ARC
  8
St
  6
CONTINUOUS
 62
   127
 10
70.90942
 20
-33.403467
 40
0.533333
 50
90.0
 51
180.0
  0
LINE
  8
St
  6
CONTINUOUS
 10
70.376085
 20
-34.711875
 11
70.90942
 21
-35.24521
  0
LINE
  8
St
  6
CONTINUOUS
 10
70.376085
 20
-34.476175
 11
70.90942
 21
-35.00951
  0
LINE
  8
St
  6
CONTINUOUS
 10
79.62695
 20
-33.403467
 11
79.093615
 21
-32.870132
  0
LINE
  8
St
  6
CONTINUOUS
 10
79.39125
 20
-33.403467
 11
78.857915
 21
-32.870132
  0
ENDBLK
  0
BLOCK
  2
*GRP_0083
 70
    65
 10
0.0
 20
0.0
  0
LINE
  8
St
  6
CONTINUOUS
 62
   127
 10
86.542752
 20
-61.97015
 11
85.476085
 21
-61.97015
  0
LINE
  8
St
  6
CONTINUOUS
 62
   127
 10
69.70942
 20
-28.0368
 11
68.642752
 21
-28.0368
  0
ARC
  8
St
  6
CONTINUOUS
 62
   127
 10
85.476086
 20
-38.036817
 40
1.066667
 50
0.0
 51
90.0
  0
LINE
  8
St
  6
CONTINUOUS
 62
   127
 10
86.542752
 20
-38.036817
 11
86.542752
 21
-61.97015
  0
LINE
  8
St
  6
CONTINUOUS
 62
   127
 10
85.476085
 20
-38.036817
 11
85.476085
 21
-61.97015
  0
LINE
  8
St
  6
CONTINUOUS
 62
   127
 10
69.70942
 20
-28.0368
 11
69.70942
 21
-36.97015
  0
LINE
  8
St
  6
CONTINUOUS
 62
   127
 10
85.476085
 20
-36.97015
 11
69.70942
 21
-36.97015
  0
LINE
  8
St
  6
CONTINUOUS
 62
   127
 10
68.642752
 20
-28.0368
 11
68.642752
 21
-36.97015
  0
LINE
  8
St
  6
CONTINUOUS
 62
   127
 10
85.476085
 20
-38.036817
 11
69.70942
 21
-38.036817
  0
ARC
  8
St
  6
CONTINUOUS
 62
   127
 10
69.709419
 20
-36.97015
 40
1.066667
 50
180.0
 51
270.0
  0
LINE
  8
St
  6
CONTINUOUS
 10
85.476085
 20
-39.488303
 11
86.542752
 21
-40.55497
  0
LINE
  8
St
  6
CONTINUOUS
 10
85.476085
 20
-39.252603
 11
86.542752
 21
-40.31927
  0
LINE
  8
St
  6
CONTINUOUS
 10
83.193633
 20
-36.97015
 11
84.2603
 21
-38.036817
  0
LINE
  8
St
  6
CONTINUOUS
 10
82.957933
 20
-36.97015
 11
84.0246
 21
-38.036817
  0
LINE
  8
St
  6
CONTINUOUS
 10
72.63436
 20
-36.97015
 11
73.701028
 21
-38.036817
  0
LINE
  8
St
  6
CONTINUOUS
 10
85.476085
 20
-49.811875
 11
86.542752
 21
-50.878543
  0
LINE
  8
St
  6
CONTINUOUS
 10
72.87006
 20
-36.97015
 11
73.936728
 21
-38.036817
  0
LINE
  8
St
  6
CONTINUOUS
 10
85.476085
 20
-49.576175
 11
86.542752
 21
-50.642843
  0
LINE
  8
St
  6
CONTINUOUS
 10
69.70942
 20
-33.80951
 11
68.642752
 21
-32.742843
  0
LINE
  8
St
  6
CONTINUOUS
 10
69.70942
 20
-34.04521
 11
68.642752
 21
-32.978543
  0
ENDBLK
  0
BLOCK
  2
*GRP_0084
 70
    65
 10
0.0
 20
0.0
  0
LINE
  8
St
  6
CONTINUOUS
 62
   127
 10
70.70942
 20
-7.47015
 11
70.176085
 21
-7.47015
  0
LINE
  8
St
  6
CONTINUOUS
 62
   127
 10
70.176085
 20
-7.47015
 11
70.176085
 21
-24.5368
  0
LINE
  8
St
  6
CONTINUOUS
 62
   127
 10
70.176085
 20
-24.5368
 11
70.70942
 21
-24.5368
  0
LINE
  8
St
  6
CONTINUOUS
 62
   127
 10
70.70942
 20
-7.47015
 11
70.70942
 21
-24.5368
  0
LINE
  8
St
  6
CONTINUOUS
 10
70.176085
 20
-10.394877
 11
70.70942
 21
-10.928212
  0
LINE
  8
St
  6
CONTINUOUS
 10
70.176085
 20
-10.159177
 11
70.70942
 21
-10.692512
  0
LINE
  8
St
  6
CONTINUOUS
 10
70.176085
 20
-21.939945
 11
70.70942
 21
-22.47328
  0
LINE
  8
St
  6
CONTINUOUS
 10
70.176085
 20
-21.704245
 11
70.70942
 21
-22.23758
  0
ENDBLK
  0
BLOCK
  2
*DIM_0085
 70
    65
 10
0.0
 20
0.0
  0
LINE
  8
寸法
  6
CONTINUOUS
 10
130.542792
 20
-79.350878
 11
130.542792
 21
-122.93079
  0
LINE
  8
寸法
  6
CONTINUOUS
 10
123.876088
 20
-103.36874
 11
123.876088
 21
-122.93079
  0
LINE
  8
寸法
  6
CONTINUOUS
 10
130.542792
 20
-122.93079
 11
123.876088
 21
-122.93079
  0
POINT
  8
寸法
 10
130.542792
 20
-122.93079
  0
POINT
  8
寸法
 10
123.876088
 20
-122.93079
  0
TEXT
  7
TextStyle03
  8
寸法
  6
CONTINUOUS
 10
125.60625
 20
-122.575
  1
20
 40
3.0
 72
     5
 11
128.79375
 21
-122.575
  0
ENDBLK
  0
BLOCK
  2
*DIM_0086
 70
    65
 10
0.0
 20
0.0
  0
LINE
  8
寸法
  6
CONTINUOUS
 10
73.876085
 20
-103.36874
 11
73.876085
 21
-122.93079
  0
LINE
  8
寸法
  6
CONTINUOUS
 10
123.876088
 20
-122.93079
 11
73.876085
 21
-122.93079
  0
POINT
  8
寸法
 10
73.876085
 20
-122.93079
  0
TEXT
  7
TextStyle03
  8
寸法
  6
CONTINUOUS
 10
96.4375
 20
-122.575
  1
150
 40
3.0
 72
     5
 11
101.3125
 21
-122.575
  0
ENDBLK
  0
BLOCK
  2
*DIM_0087
 70
    65
 10
0.0
 20
0.0
  0
LINE
  8
寸法
  6
CONTINUOUS
 10
-67.29345
 20
-103.36874
 11
-67.29345
 21
-122.93079
  0
LINE
  8
寸法
  6
CONTINUOUS
 10
73.876085
 20
-122.93079
 11
-67.29345
 21
-122.93079
  0
POINT
  8
寸法
 10
-67.29345
 20
-122.93079
  0
TEXT
  7
TextStyle03
  8
寸法
  6
CONTINUOUS
 10
-6.6625
 20
-122.575
  1
躯体開口　□
 40
3.0
 72
     5
 11
13.2125
 21
-122.575
  0
ENDBLK
  0
BLOCK
  2
*DIM_0088
 70
    65
 10
0.0
 20
0.0
  0
LINE
  8
寸法
  6
CONTINUOUS
 10
-117.293452
 20
-103.36874
 11
-117.293452
 21
-122.93079
  0
LINE
  8
寸法
  6
CONTINUOUS
 10
-67.29345
 20
-122.93079
 11
-117.293452
 21
-122.93079
  0
POINT
  8
寸法
 10
-117.293452
 20
-122.93079
  0
TEXT
  7
TextStyle03
  8
寸法
  6
CONTINUOUS
 10
-94.7375
 20
-122.575
  1
150
 40
3.0
 72
     5
 11
-89.8625
 21
-122.575
  0
ENDBLK
  0
BLOCK
  2
*DIM_0089
 70
    65
 10
0.0
 20
0.0
  0
LINE
  8
寸法
  6
CONTINUOUS
 10
-123.960157
 20
-79.350878
 11
-123.960157
 21
-122.93079
  0
LINE
  8
寸法
  6
CONTINUOUS
 10
-117.293452
 20
-122.93079
 11
-123.960157
 21
-122.93079
  0
POINT
  8
寸法
 10
-123.960157
 20
-122.93079
  0
TEXT
  7
TextStyle03
  8
寸法
  6
CONTINUOUS
 10
-122.24375
 20
-122.575
  1
20
 40
3.0
 72
     5
 11
-119.05625
 21
-122.575
  0
ENDBLK
  0
BLOCK
  2
*DIM_0090
 70
    65
 10
0.0
 20
0.0
  0
LINE
  8
寸法
  6
CONTINUOUS
 10
-67.29345
 20
-103.36874
 11
-67.29345
 21
-114.834213
  0
LINE
  8
寸法
  6
CONTINUOUS
 10
-57.29345
 20
-103.36874
 11
-57.29345
 21
-114.834213
  0
LINE
  8
寸法
  6
CONTINUOUS
 10
-67.29345
 20
-114.834213
 11
-57.29345
 21
-114.834213
  0
POINT
  8
寸法
 10
-67.29345
 20
-114.834213
  0
POINT
  8
寸法
 10
-57.29345
 20
-114.834213
  0
TEXT
  7
TextStyle03
  8
寸法
  6
CONTINUOUS
 10
-63.89375
 20
-114.475
  1
30
 40
3.0
 72
     5
 11
-60.70625
 21
-114.475
  0
ENDBLK
  0
BLOCK
  2
*DIM_0091
 70
    65
 10
0.0
 20
0.0
  0
LINE
  8
寸法
  6
CONTINUOUS
 10
73.876085
 20
-103.36874
 11
73.876085
 21
-114.834213
  0
LINE
  8
寸法
  6
CONTINUOUS
 10
63.876085
 20
-114.834213
 11
73.876085
 21
-114.834213
  0
POINT
  8
寸法
 10
73.876085
 20
-114.834213
  0
TEXT
  7
TextStyle03
  8
寸法
  6
CONTINUOUS
 10
67.28125
 20
-114.475
  1
30
 40
3.0
 72
     5
 11
70.46875
 21
-114.475
  0
ENDBLK
  0
BLOCK
  2
*DIM_0092
 70
    65
 10
0.0
 20
0.0
  0
LINE
  8
寸法
  6
CONTINUOUS
 10
63.876085
 20
-103.36874
 11
63.876085
 21
-114.834213
  0
LINE
  8
寸法
  6
CONTINUOUS
 10
-57.29345
 20
-114.834213
 11
63.876085
 21
-114.834213
  0
POINT
  8
寸法
 10
63.876085
 20
-114.834213
  0
TEXT
  7
TextStyle03
  8
寸法
  6
CONTINUOUS
 10
-6.6625
 20
-114.475
  1
仕上開口　φ
 40
3.0
 72
     5
 11
13.2125
 21
-114.475
  0
ENDBLK
  0
BLOCK
  2
*GRP_0093
 70
    65
 10
0.0
 20
0.0
  0
ARC
  8
St
  6
CONTINUOUS
 62
   127
 10
-81.026791
 20
-64.236816
 40
1.066667
 50
-90.0
 51
0.0
  0
LINE
  8
St
  6
CONTINUOUS
 10
-109.173988
 20
-64.236815
 11
-110.240653
 21
-65.303482
  0
LINE
  8
St
  6
CONTINUOUS
 10
-109.409692
 20
-64.236815
 11
-110.476357
 21
-65.303482
  0
LINE
  8
St
  6
CONTINUOUS
 62
   127
 10
-81.026785
 20
-64.236815
 11
-113.29345
 21
-64.236815
  0
LINE
  8
St
  6
CONTINUOUS
 10
-113.29345
 20
-64.236815
 11
-113.29345
 21
-65.303482
  0
LINE
  8
St
  6
CONTINUOUS
 62
   127
 10
-81.026785
 20
-65.303482
 11
-113.29345
 21
-65.303482
  0
LINE
  8
St
  6
CONTINUOUS
 10
-88.091795
 20
-65.303482
 11
-87.02513
 21
-64.236815
  0
LINE
  8
St
  6
CONTINUOUS
 10
-88.3275
 20
-65.303482
 11
-87.260835
 21
-64.236815
  0
LINE
  8
St
  6
CONTINUOUS
 10
-81.026785
 20
-53.887375
 11
-79.960117
 21
-52.820705
  0
LINE
  8
St
  6
CONTINUOUS
 10
-81.026785
 20
-53.65167
 11
-79.960117
 21
-52.585
  0
LINE
  8
St
  6
CONTINUOUS
 10
-81.026785
 20
-51.970147
 11
-79.960117
 21
-51.970147
  0
LINE
  8
St
  6
CONTINUOUS
 62
   127
 10
-79.960117
 20
-64.236815
 11
-79.960117
 21
-51.970147
  0
LINE
  8
St
  6
CONTINUOUS
 62
   127
 10
-81.026785
 20
-64.236815
 11
-81.026785
 21
-51.970147
  0
LINE
  8
St
  6
DOT
 10
-78.34441
 20
-56.970147
 11
-82.560657
 21
-56.970147
  0
LINE
  8
St
  6
DOT
 62
   127
 10
-97.215182
 20
-66.16861
 11
-97.215182
 21
-66.168607
  0
LINE
  8
St
  6
DOT
 10
-89.960117
 20
-64.236815
 11
-89.960117
 21
-65.303482
  0
LINE
  8
St
  6
DOT
 10
-96.626782
 20
-64.236815
 11
-96.626782
 21
-65.303482
  0
LINE
  8
St
  6
DOT
 10
-101.626782
 20
-64.236815
 11
-101.626782
 21
-65.303482
  0
LINE
  8
St
  6
DOT
 10
-104.960117
 20
-64.236815
 11
-104.960117
 21
-65.303482
  0
LINE
  8
St
  6
DOT
 10
-93.29345
 20
-62.88217
 11
-93.29345
 21
-66.70837
  0
LINE
  8
St
  6
DOT
 62
   127
 10
-96.626782
 20
-64.503482
 11
-89.960117
 21
-64.503482
  0
LINE
  8
St
  6
DOT
 62
   127
 10
-96.626782
 20
-64.770147
 11
-89.960117
 21
-64.770147
  0
LINE
  8
St
  6
DOT
 62
   127
 10
-96.626782
 20
-65.036815
 11
-89.960117
 21
-65.036815
  0
LINE
  8
St
  6
DOT
 10
-101.626782
 20
-64.503482
 11
-104.960117
 21
-64.503482
  0
LINE
  8
St
  6
DOT
 10
-101.626782
 20
-64.770147
 11
-104.960117
 21
-64.770147
  0
LINE
  8
St
  6
DOT
 10
-101.626782
 20
-65.036815
 11
-104.960117
 21
-65.036815
  0
LINE
  8
St
  6
DOT
 10
-103.29345
 20
-62.88217
 11
-103.29345
 21
-66.70837
  0
LINE
  8
St
  6
DOT
 10
-79.960117
 20
-64.236815
 11
-81.026785
 21
-64.236815
  0
LINE
  8
St
  6
DOT
 10
-79.960117
 20
-53.636812
 11
-81.026785
 21
-53.636812
  0
LINE
  8
St
  6
DOT
 10
-81.026785
 20
-57.970147
 11
-79.960117
 21
-57.970147
  0
LINE
  8
St
  6
DOT
 10
-81.026785
 20
-55.970147
 11
-79.960117
 21
-55.970147
  0
LINE
  8
St
  6
DOT
 62
   127
 10
-80.760117
 20
-64.236815
 11
-80.760117
 21
-53.636812
  0
LINE
  8
St
  6
DOT
 62
   127
 10
-80.493452
 20
-64.236815
 11
-80.493452
 21
-53.636812
  0
LINE
  8
St
  6
DOT
 62
   127
 10
-80.226785
 20
-64.236815
 11
-80.226785
 21
-53.636812
  0
ENDBLK
  0
BLOCK
  2
*GRP_0094
 70
    65
 10
0.0
 20
0.0
  0
ARC
  8
St
  6
CONTINUOUS
 62
   127
 10
87.609426
 20
-64.236816
 40
1.066667
 50
180.0
 51
270.0
  0
LINE
  8
St
  6
CONTINUOUS
 10
115.756623
 20
-64.236815
 11
116.823287
 21
-65.303482
  0
LINE
  8
St
  6
CONTINUOUS
 10
115.992327
 20
-64.236815
 11
117.058993
 21
-65.303482
  0
LINE
  8
St
  6
CONTINUOUS
 62
   127
 10
87.60942
 20
-64.236815
 11
119.876085
 21
-64.236815
  0
LINE
  8
St
  6
CONTINUOUS
 10
119.876085
 20
-64.236815
 11
119.876085
 21
-65.303482
  0
LINE
  8
St
  6
CONTINUOUS
 62
   127
 10
87.60942
 20
-65.303482
 11
119.876085
 21
-65.303482
  0
LINE
  8
St
  6
CONTINUOUS
 10
94.67443
 20
-65.303482
 11
93.607765
 21
-64.236815
  0
LINE
  8
St
  6
CONTINUOUS
 10
94.910135
 20
-65.303482
 11
93.84347
 21
-64.236815
  0
LINE
  8
St
  6
CONTINUOUS
 10
87.60942
 20
-53.887375
 11
86.542752
 21
-52.820705
  0
LINE
  8
St
  6
CONTINUOUS
 10
87.60942
 20
-53.65167
 11
86.542752
 21
-52.585
  0
LINE
  8
St
  6
CONTINUOUS
 10
87.60942
 20
-51.970147
 11
86.542752
 21
-51.970147
  0
LINE
  8
St
  6
CONTINUOUS
 62
   127
 10
86.542752
 20
-64.236815
 11
86.542752
 21
-51.970147
  0
LINE
  8
St
  6
CONTINUOUS
 62
   127
 10
87.60942
 20
-64.236815
 11
87.60942
 21
-51.970147
  0
LINE
  8
St
  6
DOT
 10
84.927045
 20
-56.970147
 11
89.143292
 21
-56.970147
  0
LINE
  8
St
  6
DOT
 62
   127
 10
103.797818
 20
-66.16861
 11
103.797818
 21
-66.168607
  0
LINE
  8
St
  6
DOT
 10
96.542752
 20
-64.236815
 11
96.542752
 21
-65.303482
  0
LINE
  8
St
  6
DOT
 10
103.209418
 20
-64.236815
 11
103.209418
 21
-65.303482
  0
LINE
  8
St
  6
DOT
 10
108.209418
 20
-64.236815
 11
108.209418
 21
-65.303482
  0
LINE
  8
St
  6
DOT
 10
111.542752
 20
-64.236815
 11
111.542752
 21
-65.303482
  0
LINE
  8
St
  6
DOT
 10
99.876085
 20
-62.88217
 11
99.876085
 21
-66.70837
  0
LINE
  8
St
  6
DOT
 62
   127
 10
103.209418
 20
-64.503482
 11
96.542752
 21
-64.503482
  0
LINE
  8
St
  6
DOT
 62
   127
 10
103.209418
 20
-64.770147
 11
96.542752
 21
-64.770147
  0
LINE
  8
St
  6
DOT
 62
   127
 10
103.209418
 20
-65.036815
 11
96.542752
 21
-65.036815
  0
LINE
  8
St
  6
DOT
 10
108.209418
 20
-64.503482
 11
111.542752
 21
-64.503482
  0
LINE
  8
St
  6
DOT
 10
108.209418
 20
-64.770147
 11
111.542752
 21
-64.770147
  0
LINE
  8
St
  6
DOT
 10
108.209418
 20
-65.036815
 11
111.542752
 21
-65.036815
  0
LINE
  8
St
  6
DOT
 10
109.876085
 20
-62.88217
 11
109.876085
 21
-66.70837
  0
LINE
  8
St
  6
DOT
 10
86.542752
 20
-64.236815
 11
87.60942
 21
-64.236815
  0
LINE
  8
St
  6
DOT
 10
86.542752
 20
-53.636812
 11
87.60942
 21
-53.636812
  0
LINE
  8
St
  6
DOT
 10
87.60942
 20
-57.970147
 11
86.542752
 21
-57.970147
  0
LINE
  8
St
  6
DOT
 10
87.60942
 20
-55.970147
 11
86.542752
 21
-55.970147
  0
LINE
  8
St
  6
DOT
 62
   127
 10
87.342752
 20
-64.236815
 11
87.342752
 21
-53.636812
  0
LINE
  8
St
  6
DOT
 62
   127
 10
87.076088
 20
-64.236815
 11
87.076088
 21
-53.636812
  0
LINE
  8
St
  6
DOT
 62
   127
 10
86.80942
 20
-64.236815
 11
86.80942
 21
-53.636812
  0
ENDBLK
  0
ENDSEC
  0
SECTION
  2
ENTITIES
  0
POLYLINE
  8
通り芯
  6
CONTINUOUS
 66
     1
 70
     1
  0
VERTEX
  8
通り芯
 10
-210.0
 20
-148.5
  0
VERTEX
  8
通り芯
 10
210.0
 20
-148.5
  0
VERTEX
  8
通り芯
 10
210.0
 20
148.5
  0
VERTEX
  8
通り芯
 10
-210.0
 20
148.5
  0
SEQEND
  0
INSERT
  2
*GRP_0001
  8
型材断面
  6
CONTINUOUS
 10
0.0
 20
0.0
  0
LINE
  8
型材断面
  6
DASHDOT
 10
-60.626787
 20
33.162747
 11
-60.626787
 21
-7.47015
  0
LINE
  8
型材断面
  6
DASHDOT
 10
67.209423
 20
33.162747
 11
67.209423
 21
-7.47015
  0
LINE
  8
型材断面
  6
DOT
 10
-64.126785
 20
-27.203467
 11
-64.793452
 21
-27.203467
  0
LINE
  8
型材断面
  6
DOT
 10
-64.126785
 20
-24.536802
 11
-64.793452
 21
-24.536802
  0
LINE
  8
型材断面
  6
DOT
 10
-69.793452
 20
-27.203467
 11
-70.460117
 21
-27.203467
  0
LINE
  8
型材断面
  6
DOT
 10
-69.793452
 20
-24.536802
 11
-70.460117
 21
-24.536802
  0
LINE
  8
型材断面
  6
DOT
 10
-69.960117
 20
-27.203467
 11
-69.960117
 21
-24.536802
  0
LINE
  8
型材断面
  6
DOT
 10
-70.126785
 20
-27.203467
 11
-70.126785
 21
-24.536802
  0
LINE
  8
型材断面
  6
DOT
 10
-70.293452
 20
-27.203467
 11
-70.293452
 21
-24.536802
  0
LINE
  8
型材断面
  6
DOT
 10
-64.293452
 20
-27.203467
 11
-64.293452
 21
-24.536802
  0
LINE
  8
型材断面
  6
DOT
 10
-64.460117
 20
-27.203467
 11
-64.460117
 21
-24.536802
  0
LINE
  8
型材断面
  6
DOT
 10
-64.626785
 20
-27.203467
 11
-64.626785
 21
-24.536802
  0
LINE
  8
型材断面
  6
DOT
 10
-66.085117
 20
-27.203467
 11
-66.085117
 21
-26.636802
  0
LINE
  8
型材断面
  6
DOT
 10
-66.210117
 20
-27.203467
 11
-66.210117
 21
-26.636802
  0
LINE
  8
型材断面
  6
DOT
 10
-66.335117
 20
-27.203467
 11
-66.335117
 21
-26.636802
  0
LINE
  8
型材断面
  6
DOT
 10
-66.460117
 20
-27.203467
 11
-65.960117
 21
-27.203467
  0
INSERT
  2
*GRP_0002
  8
型材断面
  6
CONTINUOUS
 10
0.0
 20
0.0
  0
LINE
  8
型材断面
  6
CONTINUOUS
 62
    47
 10
-67.29345
 20
-65.303482
 11
-113.96012
 21
-65.303482
  0
LINE
  8
型材断面
  6
CONTINUOUS
 62
    47
 10
-113.96012
 20
-85.552797
 11
-93.710805
 21
-65.303482
  0
LINE
  8
型材断面
  6
CONTINUOUS
 62
    47
 10
-113.96012
 20
-87.909822
 11
-91.35378
 21
-65.303482
  0
LINE
  8
型材断面
  6
CONTINUOUS
 62
    47
 10
-113.96012
 20
-90.266842
 11
-88.99676
 21
-65.303482
  0
LINE
  8
型材断面
  6
CONTINUOUS
 62
    47
 10
-113.96012
 20
-65.303482
 11
-113.96012
 21
-98.36874
  0
LINE
  8
型材断面
  6
CONTINUOUS
 62
    47
 10
-67.29345
 20
-89.469597
 11
-76.192592
 21
-98.36874
  0
LINE
  8
型材断面
  6
CONTINUOUS
 62
    47
 10
-67.29345
 20
-94.183643
 11
-71.478547
 21
-98.36874
  0
LINE
  8
型材断面
  6
CONTINUOUS
 62
    47
 10
-67.29345
 20
-91.826623
 11
-73.835567
 21
-98.36874
  0
LINE
  8
型材断面
  6
CONTINUOUS
 62
    47
 10
-67.29345
 20
-65.303482
 11
-67.29345
 21
-98.36874
  0
LINE
  8
型材断面
  6
CONTINUOUS
 62
    47
 10
-113.96012
 20
-65.303482
 11
-117.293452
 21
-65.303482
  0
LINE
  8
型材断面
  6
CONTINUOUS
 62
    47
 10
-117.293452
 20
-65.303482
 11
-117.293452
 21
-98.36874
  0
LINE
  8
型材断面
  6
CONTINUOUS
 62
    47
 10
-61.126785
 20
-28.0368
 11
-61.126785
 21
-98.36874
  0
LINE
  8
型材断面
  6
CONTINUOUS
 62
    47
 10
-57.626782
 20
-28.0368
 11
-57.626782
 21
-98.36874
  0
LINE
  8
型材断面
  6
CONTINUOUS
 62
    47
 10
-57.29345
 20
-28.0368
 11
-57.29345
 21
-98.36874
  0
LINE
  8
型材断面
  6
CONTINUOUS
 62
    47
 10
-61.460117
 20
-28.0368
 11
-61.460117
 21
-98.36874
  0
LINE
  8
型材断面
  6
DOT
 10
70.70942
 20
-27.203467
 11
71.376087
 21
-27.203467
  0
LINE
  8
型材断面
  6
DOT
 10
70.70942
 20
-24.536802
 11
71.376087
 21
-24.536802
  0
LINE
  8
型材断面
  6
DOT
 10
76.376087
 20
-27.203467
 11
77.042752
 21
-27.203467
  0
LINE
  8
型材断面
  6
DOT
 10
76.376087
 20
-24.536802
 11
77.042752
 21
-24.536802
  0
LINE
  8
型材断面
  6
DOT
 10
76.542752
 20
-27.203467
 11
76.542752
 21
-24.536802
  0
LINE
  8
型材断面
  6
DOT
 10
76.70942
 20
-27.203467
 11
76.70942
 21
-24.536802
  0
LINE
  8
型材断面
  6
DOT
 10
76.876087
 20
-27.203467
 11
76.876087
 21
-24.536802
  0
LINE
  8
型材断面
  6
DOT
 10
70.876087
 20
-27.203467
 11
70.876087
 21
-24.536802
  0
LINE
  8
型材断面
  6
DOT
 10
71.042752
 20
-27.203467
 11
71.042752
 21
-24.536802
  0
LINE
  8
型材断面
  6
DOT
 10
71.20942
 20
-27.203467
 11
71.20942
 21
-24.536802
  0
LINE
  8
型材断面
  6
DOT
 10
72.667752
 20
-27.203467
 11
72.667752
 21
-26.636802
  0
LINE
  8
型材断面
  6
DOT
 10
72.792752
 20
-27.203467
 11
72.792752
 21
-26.636802
  0
LINE
  8
型材断面
  6
DOT
 10
72.917752
 20
-27.203467
 11
72.917752
 21
-26.636802
  0
LINE
  8
型材断面
  6
DOT
 10
73.042752
 20
-27.203467
 11
72.542752
 21
-27.203467
  0
INSERT
  2
*GRP_0003
  8
型材断面
  6
CONTINUOUS
 10
0.0
 20
0.0
  0
LINE
  8
型材断面
  6
CONTINUOUS
 62
    47
 10
73.876085
 20
-65.303482
 11
120.542755
 21
-65.303482
  0
LINE
  8
型材断面
  6
CONTINUOUS
 62
    47
 10
120.542755
 20
-85.552797
 11
100.29344
 21
-65.303482
  0
LINE
  8
型材断面
  6
CONTINUOUS
 62
    47
 10
120.542755
 20
-87.909822
 11
97.936415
 21
-65.303482
  0
LINE
  8
型材断面
  6
CONTINUOUS
 62
    47
 10
120.542755
 20
-90.266842
 11
95.579395
 21
-65.303482
  0
LINE
  8
型材断面
  6
CONTINUOUS
 62
    47
 10
120.542755
 20
-65.303482
 11
120.542755
 21
-98.36874
  0
LINE
  8
型材断面
  6
CONTINUOUS
 62
    47
 10
73.876085
 20
-89.469597
 11
82.775228
 21
-98.36874
  0
LINE
  8
型材断面
  6
CONTINUOUS
 62
    47
 10
73.876085
 20
-94.183643
 11
78.061183
 21
-98.36874
  0
LINE
  8
型材断面
  6
CONTINUOUS
 62
    47
 10
73.876085
 20
-91.826623
 11
80.418203
 21
-98.36874
  0
LINE
  8
型材断面
  6
CONTINUOUS
 62
    47
 10
73.876085
 20
-65.303482
 11
73.876085
 21
-98.36874
  0
LINE
  8
型材断面
  6
CONTINUOUS
 62
    47
 10
120.542755
 20
-65.303482
 11
123.876088
 21
-65.303482
  0
LINE
  8
型材断面
  6
CONTINUOUS
 62
    47
 10
123.876088
 20
-65.303482
 11
123.876088
 21
-98.36874
  0
LINE
  8
型材断面
  6
CONTINUOUS
 62
    47
 10
67.70942
 20
-28.0368
 11
67.70942
 21
-98.36874
  0
LINE
  8
型材断面
  6
CONTINUOUS
 62
    47
 10
64.209418
 20
-28.0368
 11
64.209418
 21
-98.36874
  0
LINE
  8
型材断面
  6
CONTINUOUS
 62
    47
 10
63.876085
 20
-28.0368
 11
63.876085
 21
-98.36874
  0
LINE
  8
型材断面
  6
CONTINUOUS
 62
    47
 10
68.042752
 20
-28.0368
 11
68.042752
 21
-98.36874
  0
INSERT
  2
*GRP_0004
  8
型材断面
  6
DOT
 62
    47
 10
0.0
 20
0.0
  0
INSERT
  2
*GRP_0005
  8
型材断面
  6
DOT
 62
    47
 10
0.0
 20
0.0
  0
INSERT
  2
*GRP_0006
  8
型材断面
  6
DASHDOT
 62
    47
 10
0.0
 20
0.0
  0
INSERT
  2
*GRP_0007
  8
型材断面
  6
DASHDOT
 62
    47
 10
0.0
 20
0.0
  0
INSERT
  2
*GRP_0008
  8
型材断面
  6
DASHDOT
 62
    47
 10
0.0
 20
0.0
  0
INSERT
  2
*GRP_0009
  8
型材断面
  6
DASHDOT
 62
    47
 10
0.0
 20
0.0
  0
INSERT
  2
*GRP_0010
  8
ガラス
  6
DOT
 62
     7
 10
0.0
 20
0.0
  0
INSERT
  2
*GRP_0011
  8
ガラス
  6
DOT
 62
     7
 10
0.0
 20
0.0
  0
INSERT
  2
*GRP_0012
  8
ガラス
  6
DOT
 62
     7
 10
0.0
 20
0.0
  0
INSERT
  2
*GRP_0013
  8
ガラス
  6
DOT
 62
     7
 10
0.0
 20
0.0
  0
INSERT
  2
*GRP_0014
  8
ガラス
  6
DOT
 62
     7
 10
0.0
 20
0.0
  0
INSERT
  2
*GRP_0015
  8
ガラス
  6
DOT
 62
     7
 10
0.0
 20
0.0
  0
INSERT
  2
*GRP_0016
  8
ガラス
  6
DOT
 62
     7
 10
0.0
 20
0.0
  0
INSERT
  2
*GRP_0017
  8
ガラス
  6
DOT
 62
     7
 10
0.0
 20
0.0
  0
INSERT
  2
*GRP_0018
  8
ガラス
  6
DOT
 62
     7
 10
0.0
 20
0.0
  0
INSERT
  2
*GRP_0019
  8
ガラス
  6
DOT
 62
     7
 10
0.0
 20
0.0
  0
INSERT
  2
*GRP_0020
  8
ガラス
  6
DOT
 62
     7
 10
0.0
 20
0.0
  0
INSERT
  2
*GRP_0021
  8
ガラス
  6
DOT
 62
     7
 10
0.0
 20
0.0
  0
LINE
  8
ガラス
  6
CONTINUOUS
 10
-64.793455
 20
-3.303482
 11
-64.793455
 21
-1.036815
  0
LINE
  8
ガラス
  6
CONTINUOUS
 10
3.29181
 20
-1.203482
 11
-64.793455
 21
-1.203482
  0
LINE
  8
ガラス
  6
CONTINUOUS
 10
3.29181
 20
-1.036815
 11
-64.793455
 21
-1.036815
  0
LINE
  8
ガラス
  6
CONTINUOUS
 10
3.29181
 20
-3.303482
 11
-64.793455
 21
-3.303482
  0
LINE
  8
ガラス
  6
CONTINUOUS
 10
3.29181
 20
-3.136815
 11
-64.793455
 21
-3.136815
  0
LINE
  8
ガラス
  6
CONTINUOUS
 62
    48
 10
71.37609
 20
-1.036815
 11
71.37609
 21
-3.303482
  0
LINE
  8
ガラス
  6
CONTINUOUS
 10
3.291317
 20
-1.036815
 11
71.37609
 21
-1.036815
  0
LINE
  8
ガラス
  6
CONTINUOUS
 10
3.291317
 20
-1.203482
 11
71.37609
 21
-1.203482
  0
LINE
  8
ガラス
  6
CONTINUOUS
 10
3.291317
 20
-3.136815
 11
71.37609
 21
-3.136815
  0
LINE
  8
ガラス
  6
CONTINUOUS
 10
3.291317
 20
-3.303482
 11
71.37609
 21
-3.303482
  0
INSERT
  2
*GRP_0022
  8
ボルト／ビス
  6
CONTINUOUS
 62
    64
 10
0.0
 20
0.0
  0
INSERT
  2
*GRP_0023
  8
ボルト／ビス
  6
CONTINUOUS
 62
    64
 10
0.0
 20
0.0
  0
INSERT
  2
*GRP_0024
  8
ボルト／ビス
  6
CONTINUOUS
 10
0.0
 20
0.0
  0
INSERT
  2
*GRP_0025
  8
ボルト／ビス
  6
CONTINUOUS
 10
0.0
 20
0.0
  0
INSERT
  2
*GRP_0026
  8
ボルト／ビス
  6
CONTINUOUS
 10
0.0
 20
0.0
  0
INSERT
  2
*GRP_0027
  8
ボルト／ビス
  6
CONTINUOUS
 10
0.0
 20
0.0
  0
INSERT
  2
*GRP_0028
  8
ボルト／ビス
  6
CONTINUOUS
 10
0.0
 20
0.0
  0
INSERT
  2
*GRP_0029
  8
ボルト／ビス
  6
CONTINUOUS
 10
0.0
 20
0.0
  0
INSERT
  2
*GRP_0030
  8
ボルト／ビス
  6
CONTINUOUS
 10
0.0
 20
0.0
  0
INSERT
  2
*GRP_0031
  8
ボルト／ビス
  6
CONTINUOUS
 62
    64
 10
0.0
 20
0.0
  0
INSERT
  2
*GRP_0032
  8
ボルト／ビス
  6
CONTINUOUS
 62
    64
 10
0.0
 20
0.0
  0
INSERT
  2
*GRP_0033
  8
ボルト／ビス
  6
CONTINUOUS
 10
0.0
 20
0.0
  0
INSERT
  2
*GRP_0034
  8
ボルト／ビス
  6
CONTINUOUS
 10
0.0
 20
0.0
  0
INSERT
  2
*GRP_0035
  8
ボルト／ビス
  6
CONTINUOUS
 10
0.0
 20
0.0
  0
INSERT
  2
*GRP_0036
  8
ボルト／ビス
  6
CONTINUOUS
 10
0.0
 20
0.0
  0
INSERT
  2
*GRP_0037
  8
ボルト／ビス
  6
CONTINUOUS
 10
0.0
 20
0.0
  0
INSERT
  2
*GRP_0038
  8
ボルト／ビス
  6
CONTINUOUS
 10
0.0
 20
0.0
  0
INSERT
  2
*GRP_0039
  8
ボルト／ビス
  6
CONTINUOUS
 10
0.0
 20
0.0
  0
INSERT
  2
*GRP_0040
  8
ボルト／ビス
  6
CONTINUOUS
 10
0.0
 20
0.0
  0
INSERT
  2
*GRP_0041
  8
ボルト／ビス
  6
CONTINUOUS
 10
0.0
 20
0.0
  0
TEXT
  7
TextStyle03
  8
文字
  6
CONTINUOUS
 10
97.525
 20
125.25
  1
シリーズ：ＴＤＲ２Ｋ
 40
5.0
 72
     5
 11
153.15
 21
125.25
  0
TEXT
  7
TextStyle03
  8
文字
  6
CONTINUOUS
 10
97.525
 20
119.625
  1
　　　　　(固定)
 40
5.0
 72
     5
 11
142.2125
 21
119.625
  0
TEXT
  7
TextStyle03
  8
文字
  6
CONTINUOUS
 10
97.525
 20
114.0
  1
図面名　：全体納まり断面図
 40
5.0
 72
     5
 11
170.025
 21
114.0
  0
TEXT
  7
TextStyle03
  8
文字
  6
CONTINUOUS
 10
100.75
 20
87.225
  1
耐火仕様
 40
5.0
 72
     5
 11
122.625
 21
87.225
  0
TEXT
  7
TextStyle03
  8
文字
  6
CONTINUOUS
 10
142.9
 20
89.325
  1
＝Ｓt
 40
3.0
 72
     5
 11
151.15
 21
89.325
  0
TEXT
  7
TextStyle03
  8
文字
  6
CONTINUOUS
 10
142.9
 20
82.25
  1
＝ＳＵＳ
 40
3.0
 72
     5
 11
156.025
 21
82.25
  0
TEXT
  7
TextStyle03
  8
文字
  6
CONTINUOUS
 10
142.9
 20
75.525
  1
＝ＡＬ
 40
3.0
 72
     5
 11
152.65
 21
75.525
  0
TEXT
  7
TextStyle03
  8
文字
  6
CONTINUOUS
 10
156.95
 20
-67.925
  1
排水パイプ
 40
3.0
 72
     5
 11
173.45
 21
-67.925
  0
TEXT
  7
TextStyle03
  8
文字
  6
CONTINUOUS
 10
156.95
 20
-71.3
  1
(オプション)
 40
3.0
 72
     5
 11
177.0125
 21
-71.3
  0
TEXT
  7
TextStyle03
  8
文字
  6
CONTINUOUS
 10
156.95
 20
-74.675
  1
□10×10×1 L=60
 40
3.0
 72
     5
 11
183.7625
 21
-74.675
  0
TEXT
  7
TextStyle03
  8
文字
  6
CONTINUOUS
 10
139.625
 20
-44.85
  1
規格水切
 40
3.0
 72
     5
 11
152.75
 21
-44.85
  0
INSERT
  2
*DIM_0042
  8
寸法
  6
CONTINUOUS
 10
0.0
 20
0.0
  0
INSERT
  2
*DIM_0043
  8
寸法
  6
CONTINUOUS
 10
0.0
 20
0.0
  0
INSERT
  2
*DIM_0044
  8
寸法
  6
CONTINUOUS
 10
0.0
 20
0.0
  0
INSERT
  2
*DIM_0045
  8
寸法
  6
CONTINUOUS
 10
0.0
 20
0.0
  0
INSERT
  2
*DIM_0046
  8
寸法
  6
CONTINUOUS
 10
0.0
 20
0.0
  0
INSERT
  2
*DIM_0047
  8
寸法
  6
CONTINUOUS
 10
0.0
 20
0.0
  0
INSERT
  2
*DIM_0048
  8
寸法
  6
CONTINUOUS
 10
0.0
 20
0.0
  0
INSERT
  2
*DIM_0049
  8
寸法
  6
CONTINUOUS
 10
0.0
 20
0.0
  0
INSERT
  2
*DIM_0050
  8
寸法
  6
CONTINUOUS
 10
0.0
 20
0.0
  0
INSERT
  2
*DIM_0051
  8
寸法
  6
CONTINUOUS
 10
0.0
 20
0.0
  0
INSERT
  2
*DIM_0052
  8
寸法
  6
CONTINUOUS
 10
0.0
 20
0.0
  0
INSERT
  2
*DIM_0053
  8
寸法
  6
CONTINUOUS
 10
0.0
 20
0.0
  0
INSERT
  2
*DIM_0054
  8
寸法
  6
CONTINUOUS
 10
0.0
 20
0.0
  0
INSERT
  2
*DIM_0055
  8
寸法
  6
CONTINUOUS
 10
0.0
 20
0.0
  0
INSERT
  2
*DIM_0056
  8
寸法
  6
CONTINUOUS
 10
0.0
 20
0.0
  0
INSERT
  2
*DIM_0057
  8
寸法
  6
CONTINUOUS
 10
0.0
 20
0.0
  0
INSERT
  2
*DIM_0058
  8
寸法
  6
CONTINUOUS
 10
0.0
 20
0.0
  0
INSERT
  2
*DIM_0059
  8
寸法
  6
CONTINUOUS
 10
0.0
 20
0.0
  0
INSERT
  2
*DIM_0060
  8
寸法
  6
CONTINUOUS
 10
0.0
 20
0.0
  0
INSERT
  2
*GRP_0061
  8
寸法
  6
CONTINUOUS
 10
0.0
 20
0.0
  0
INSERT
  2
*GRP_0062
  8
寸法
  6
CONTINUOUS
 10
0.0
 20
0.0
  0
INSERT
  2
*DIM_0063
  8
寸法
  6
CONTINUOUS
 10
0.0
 20
0.0
  0
INSERT
  2
*DIM_0064
  8
寸法
  6
CONTINUOUS
 10
0.0
 20
0.0
  0
INSERT
  2
*DIM_0065
  8
寸法
  6
CONTINUOUS
 10
0.0
 20
0.0
  0
INSERT
  2
*DIM_0066
  8
寸法
  6
CONTINUOUS
 10
0.0
 20
0.0
  0
INSERT
  2
*DIM_0067
  8
寸法
  6
CONTINUOUS
 10
0.0
 20
0.0
  0
INSERT
  2
*DIM_0085
  8
寸法
  6
CONTINUOUS
 10
0.0
 20
0.0
  0
INSERT
  2
*DIM_0086
  8
寸法
  6
CONTINUOUS
 10
0.0
 20
0.0
  0
INSERT
  2
*DIM_0087
  8
寸法
  6
CONTINUOUS
 10
0.0
 20
0.0
  0
INSERT
  2
*DIM_0088
  8
寸法
  6
CONTINUOUS
 10
0.0
 20
0.0
  0
INSERT
  2
*DIM_0089
  8
寸法
  6
CONTINUOUS
 10
0.0
 20
0.0
  0
INSERT
  2
*DIM_0090
  8
寸法
  6
CONTINUOUS
 10
0.0
 20
0.0
  0
INSERT
  2
*DIM_0091
  8
寸法
  6
CONTINUOUS
 10
0.0
 20
0.0
  0
INSERT
  2
*DIM_0092
  8
寸法
  6
CONTINUOUS
 10
0.0
 20
0.0
  0
INSERT
  2
*HAT_0001
  8
ﾊｯﾁﾝｸﾞ
 10
0.0
 20
0.0
  0
INSERT
  2
*HAT_0002
  8
ﾊｯﾁﾝｸﾞ
 10
0.0
 20
0.0
  0
INSERT
  2
*HAT_0003
  8
ﾊｯﾁﾝｸﾞ
 10
0.0
 20
0.0
  0
INSERT
  2
*HAT_0004
  8
ﾊｯﾁﾝｸﾞ
 10
0.0
 20
0.0
  0
INSERT
  2
*HAT_0005
  8
ﾊｯﾁﾝｸﾞ
 10
0.0
 20
0.0
  0
INSERT
  2
*HAT_0006
  8
ﾊｯﾁﾝｸﾞ
 10
0.0
 20
0.0
  0
INSERT
  2
*HAT_0007
  8
ﾊｯﾁﾝｸﾞ
 10
0.0
 20
0.0
  0
INSERT
  2
*HAT_0008
  8
ﾊｯﾁﾝｸﾞ
 10
0.0
 20
0.0
  0
INSERT
  2
*HAT_0009
  8
ﾊｯﾁﾝｸﾞ
 10
0.0
 20
0.0
  0
INSERT
  2
*HAT_0010
  8
ﾊｯﾁﾝｸﾞ
 10
0.0
 20
0.0
  0
LINE
  8
別途部材
  6
DOT
 10
-63.593452
 20
-23.703467
 11
-63.593452
 21
-27.203467
  0
LINE
  8
別途部材
  6
CONTINUOUS
 62
    96
 10
-113.29345
 20
-65.303482
 11
-107.29345
 21
-65.303482
  0
INSERT
  2
*GRP_0068
  8
別途部材
  6
CONTINUOUS
 10
0.0
 20
0.0
  0
LINE
  8
別途部材
  6
DOT
 10
70.176087
 20
-23.703467
 11
70.176087
 21
-27.203467
  0
LINE
  8
別途部材
  6
CONTINUOUS
 62
    96
 10
119.876085
 20
-65.303482
 11
113.876085
 21
-65.303482
  0
INSERT
  2
*GRP_0069
  8
別途部材
  6
CONTINUOUS
 10
0.0
 20
0.0
  0
INSERT
  2
*GRP_0070
  8
曲げ物
  6
CONTINUOUS
 10
0.0
 20
0.0
  0
INSERT
  2
*GRP_0071
  8
曲げ物
  6
CONTINUOUS
 10
0.0
 20
0.0
  0
INSERT
  2
*GRP_0072
  8
曲げ物
  6
CONTINUOUS
 10
0.0
 20
0.0
  0
INSERT
  2
*GRP_0073
  8
曲げ物
  6
CONTINUOUS
 10
0.0
 20
0.0
  0
INSERT
  2
*GRP_0074
  8
曲げ物
  6
CONTINUOUS
 10
0.0
 20
0.0
  0
INSERT
  2
*GRP_0075
  8
曲げ物
  6
CONTINUOUS
 10
0.0
 20
0.0
  0
POLYLINE
  8
St
  6
CONTINUOUS
 66
     1
 70
     1
  0
VERTEX
  8
St
 10
123.988443
 20
93.307957
  0
VERTEX
  8
St
 10
98.746667
 20
93.307957
  0
VERTEX
  8
St
 10
98.746667
 20
85.506968
  0
VERTEX
  8
St
 10
123.988443
 20
85.506968
  0
SEQEND
  0
LINE
  8
St
  6
CONTINUOUS
 10
132.683845
 20
89.013425
 11
136.417178
 21
92.746758
  0
LINE
  8
St
  6
CONTINUOUS
 10
133.626655
 20
89.013425
 11
137.359987
 21
92.746758
  0
LINE
  8
St
  6
CONTINUOUS
 10
129.43372
 20
92.746758
 11
140.18794
 21
92.746758
  0
LINE
  8
St
  6
CONTINUOUS
 10
129.43372
 20
89.013425
 11
140.18794
 21
89.013425
  0
LINE
  8
St
  6
CONTINUOUS
 10
132.683845
 20
81.908952
 11
136.417178
 21
85.642285
  0
LINE
  8
St
  6
CONTINUOUS
 10
129.43372
 20
85.642285
 11
140.18794
 21
85.642285
  0
LINE
  8
St
  6
CONTINUOUS
 10
129.43372
 20
81.908952
 11
140.18794
 21
81.908952
  0
LINE
  8
St
  6
CONTINUOUS
 10
129.43372
 20
79.067165
 11
140.18794
 21
79.067165
  0
LINE
  8
St
  6
CONTINUOUS
 10
129.43372
 20
75.333833
 11
140.18794
 21
75.333833
  0
INSERT
  2
*GRP_0076
  8
St
  6
DOT
 10
0.0
 20
0.0
  0
INSERT
  2
*GRP_0077
  8
St
  6
CONTINUOUS
 10
0.0
 20
0.0
  0
INSERT
  2
*GRP_0078
  8
St
  6
CONTINUOUS
 10
0.0
 20
0.0
  0
INSERT
  2
*GRP_0079
  8
St
  6
CONTINUOUS
 10
0.0
 20
0.0
  0
INSERT
  2
*GRP_0080
  8
St
  6
CONTINUOUS
 10
0.0
 20
0.0
  0
INSERT
  2
*GRP_0081
  8
St
  6
CONTINUOUS
 10
0.0
 20
0.0
  0
INSERT
  2
*GRP_0082
  8
St
  6
CONTINUOUS
 10
0.0
 20
0.0
  0
INSERT
  2
*GRP_0083
  8
St
  6
CONTINUOUS
 10
0.0
 20
0.0
  0
INSERT
  2
*GRP_0084
  8
St
  6
CONTINUOUS
 10
0.0
 20
0.0
  0
INSERT
  2
*GRP_0093
  8
St
  6
DOT
 10
0.0
 20
0.0
  0
INSERT
  2
*GRP_0094
  8
St
  6
DOT
 10
0.0
 20
0.0
  0
LINE
  8
その他部品等
  6
CONTINUOUS
 10
-60.29345
 20
0.963183
 11
-60.29345
 21
-1.036815
  0
LINE
  8
その他部品等
  6
CONTINUOUS
 10
-64.626782
 20
0.963183
 11
-64.626782
 21
-1.036815
  0
LINE
  8
その他部品等
  6
CONTINUOUS
 10
-123.360157
 20
-74.350878
 11
-117.293452
 21
-74.350878
  0
LINE
  8
その他部品等
  6
CONTINUOUS
 10
-123.360157
 20
-71.68421
 11
-117.293452
 21
-71.68421
  0
LINE
  8
その他部品等
  6
CONTINUOUS
 10
-117.293452
 20
-69.017543
 11
-122.26015
 21
-69.017543
  0
LINE
  8
その他部品等
  6
CONTINUOUS
 10
-122.26015
 20
-71.68421
 11
-122.26015
 21
-69.017543
  0
LINE
  8
その他部品等
  6
CONTINUOUS
 10
-117.293452
 20
-69.017543
 11
-122.26015
 21
-71.68421
  0
LINE
  8
その他部品等
  6
CONTINUOUS
 10
-84.29345
 20
-44.636817
 11
-84.29345
 21
-48.95405
  0
LINE
  8
その他部品等
  6
CONTINUOUS
 10
-81.226785
 20
-44.636817
 11
-84.29345
 21
-48.95405
  0
LINE
  8
その他部品等
  6
CONTINUOUS
 10
66.876085
 20
0.963183
 11
66.876085
 21
-1.036815
  0
LINE
  8
その他部品等
  6
CONTINUOUS
 10
71.209418
 20
0.963183
 11
71.209418
 21
-1.036815
  0
LINE
  8
その他部品等
  6
CONTINUOUS
 10
129.942793
 20
-74.350878
 11
123.876088
 21
-74.350878
  0
LINE
  8
その他部品等
  6
CONTINUOUS
 10
129.942793
 20
-71.68421
 11
123.876088
 21
-71.68421
  0
LINE
  8
その他部品等
  6
CONTINUOUS
 10
123.876088
 20
-69.017543
 11
128.842785
 21
-69.017543
  0
LINE
  8
その他部品等
  6
CONTINUOUS
 10
128.842785
 20
-71.68421
 11
128.842785
 21
-69.017543
  0
LINE
  8
その他部品等
  6
CONTINUOUS
 10
123.876088
 20
-69.017543
 11
128.842785
 21
-71.68421
  0
LINE
  8
その他部品等
  6
CONTINUOUS
 10
90.876085
 20
-44.636817
 11
90.876085
 21
-48.95405
  0
LINE
  8
その他部品等
  6
CONTINUOUS
 10
87.80942
 20
-44.636817
 11
90.876085
 21
-48.95405
  0
POLYLINE
  8
断面線08
  6
CONTINUOUS
 66
     1
  0
VERTEX
  8
断面線08
 10
-88.29345
 20
-44.636817
  0
VERTEX
  8
断面線08
 10
-88.29345
 20
-48.52495
  0
VERTEX
  8
断面線08
 10
-88.57225
 20
-49.545268
  0
SEQEND
  0
LINE
  8
断面線08
  6
CONTINUOUS
 10
-82.29345
 20
-32.870132
 11
-82.29345
 21
-36.303482
  0
LINE
  8
断面線08
  6
CONTINUOUS
 10
-79.048485
 20
-32.870132
 11
-79.048485
 21
-36.303482
  0
LINE
  8
断面線08
  6
CONTINUOUS
 10
-79.048485
 20
-36.303482
 11
-77.29345
 21
-32.870132
  0
POLYLINE
  8
断面線08
  6
CONTINUOUS
 66
     1
  0
VERTEX
  8
断面線08
 10
94.876085
 20
-44.636817
  0
VERTEX
  8
断面線08
 10
94.876085
 20
-48.52495
  0
VERTEX
  8
断面線08
 10
95.154885
 20
-49.545268
  0
SEQEND
  0
LINE
  8
断面線08
  6
CONTINUOUS
 10
88.876085
 20
-32.870132
 11
88.876085
 21
-36.303482
  0
LINE
  8
断面線08
  6
CONTINUOUS
 10
85.63112
 20
-32.870132
 11
85.63112
 21
-36.303482
  0
LINE
  8
断面線08
  6
CONTINUOUS
 10
85.63112
 20
-36.303482
 11
83.876085
 21
-32.870132
  0
ENDSEC
  0
EOF
