  0
SECTION
  2
HEADER
  9
$EXTMIN
 10
-210.0
 20
-148.5
  9
$EXTMAX
 10
210.0
 20
148.5
  9
$PDMODE
 70
    32
  9
$PDSIZE
 40
1.5
  9
$LTSCALE
 40
10.0
  0
ENDSEC
  0
SECTION
  2
TABLES
  0
TABLE
  2
LTYPE
 70
    15
  0
LTYPE
  2
CONTINUOUS
 70
    64
  3
実線
 72
    65
 73
     0
 40
0.0
  0
LTYPE
  2
DASHED
 70
    64
  3
破線A
 72
    65
 73
     2
 40
0.6
 49
0.4
 49
-0.2
  0
LTYPE
  2
DASHEDX2
 70
    64
  3
破線B
 72
    65
 73
     2
 40
1.3
 49
0.9
 49
-0.4
  0
LTYPE
  2
DASHDOT
 70
    64
  3
１点鎖線A
 72
    65
 73
     4
 40
0.5375
 49
0.375
 49
-0.05
 49
0.0625
 49
-0.05
  0
LTYPE
  2
DASHDOTX2
 70
    64
  3
１点鎖線B
 72
    65
 73
     4
 40
1.075
 49
0.75
 49
-0.1
 49
0.125
 49
-0.1
  0
LTYPE
  2
DIVIDE2
 70
    64
  3
２点鎖線A
 72
    65
 73
     6
 40
0.5125
 49
0.3
 49
-0.0375
 49
0.05
 49
-0.0375
 49
0.05
 49
-0.0375
  0
LTYPE
  2
DIVIDE
 70
    64
  3
２点鎖線B
 72
    65
 73
     6
 40
1.05
 49
0.55
 49
-0.1
 49
0.1
 49
-0.1
 49
0.1
 49
-0.1
  0
LTYPE
  2
DOT
 70
    64
  3
点線A
 72
    65
 73
     2
 40
0.1125
 49
0.0625
 49
-0.05
  0
LTYPE
  2
DOTX2
 70
    64
  3
点線B
 72
    65
 73
     2
 40
0.275
 49
0.15
 49
-0.125
  0
LTYPE
  2
CONTINUOUS
 70
    64
  3
実線
 72
    65
 73
     0
 40
0.0
  0
LTYPE
  2
CONTINUOUS
 70
    64
  3
実線
 72
    65
 73
     0
 40
0.0
  0
LTYPE
  2
CONTINUOUS
 70
    64
  3
実線
 72
    65
 73
     0
 40
0.0
  0
LTYPE
  2
CONTINUOUS
 70
    64
  3
実線
 72
    65
 73
     0
 40
0.0
  0
LTYPE
  2
CONTINUOUS
 70
    64
  3
実線
 72
    65
 73
     0
 40
0.0
  0
LTYPE
  2
CONTINUOUS
 70
    64
  3
実線
 72
    65
 73
     0
 40
0.0
  0
ENDTAB
  0
TABLE
  2
LAYER
 70
    35
  0
LAYER
  2
通り芯
 70
     0
 62
    15
  6
CONTINUOUS
  0
LAYER
  2
補助線
 70
     0
 62
    16
  6
DOT
  0
LAYER
  2
躯体
 70
     0
 62
    31
  6
CONTINUOUS
  0
LAYER
  2
型材
 70
     0
 62
    32
  6
CONTINUOUS
  0
LAYER
  2
型材断面
 70
     0
 62
    47
  6
CONTINUOUS
  0
LAYER
  2
ガラス
 70
     0
 62
    48
  6
CONTINUOUS
  0
LAYER
  2
ゴム等
 70
     0
 62
    63
  6
CONTINUOUS
  0
LAYER
  2
ボルト／ビス
 70
     0
 62
    64
  6
CONTINUOUS
  0
LAYER
  2
文字
 70
     0
 62
    79
  6
CONTINUOUS
  0
LAYER
  2
寸法
 70
     0
 62
    80
  6
CONTINUOUS
  0
LAYER
  2
ﾊｯﾁﾝｸﾞ
 70
     0
 62
    95
  6
CONTINUOUS
  0
LAYER
  2
別途部材
 70
     0
 62
    96
  6
CONTINUOUS
  0
LAYER
  2
曲げ物
 70
     0
 62
   111
  6
CONTINUOUS
  0
LAYER
  2
鉄骨等
 70
     0
 62
   112
  6
CONTINUOUS
  0
LAYER
  2
St
 70
     0
 62
   127
  6
CONTINUOUS
  0
LAYER
  2
その他部品等
 70
     0
 62
   128
  6
CONTINUOUS
  0
LAYER
  2
ｶﾞｽｹｯﾄ
 70
     0
 62
   143
  6
CONTINUOUS
  0
LAYER
  2
ｽｹｯﾁ
 70
     0
 62
    14
  6
CONTINUOUS
  0
LAYER
  2
0
 70
     0
 62
    17
  6
CONTINUOUS
  0
LAYER
  2
1
 70
     0
 62
    30
  6
CONTINUOUS
  0
LAYER
  2
4
 70
     0
 62
    33
  6
CONTINUOUS
  0
LAYER
  2
ﾚｲﾔ3
 70
     0
 62
    46
  6
CONTINUOUS
  0
LAYER
  2
外形線
 70
     0
 62
    49
  6
CONTINUOUS
  0
LAYER
  2
部品
 70
     0
 62
    14
  6
CONTINUOUS
  0
LAYER
  2
サッシ芯
 70
     0
 62
    17
  6
DASHDOTX2
  0
LAYER
  2
寸法線
 70
     0
 62
    62
  6
CONTINUOUS
  0
LAYER
  2
姿図外形線
 70
     0
 62
    65
  6
CONTINUOUS
  0
LAYER
  2
姿補助線
 70
     0
 62
    30
  6
CONTINUOUS
  0
LAYER
  2
透視線
 70
     0
 62
    78
  6
DOT
  0
LAYER
  2
用紙
 70
     0
 62
    81
  6
CONTINUOUS
  0
LAYER
  2
実線図枠
 70
     0
 62
    94
  6
CONTINUOUS
  0
LAYER
  2
補助図枠
 70
     0
 62
    97
  6
CONTINUOUS
  0
LAYER
  2
建具記号
 70
     0
 62
   110
  6
CONTINUOUS
  0
LAYER
  2
補助文字
 70
     0
 62
   113
  6
CONTINUOUS
  0
LAYER
  2
LAYER010
 70
     0
 62
    11
  6
CONTINUOUS
  0
ENDTAB
  0
TABLE
  2
STYLE
 70
    10
  0
STYLE
  2
STANDARD
 70
     0
 40
1.0
 41
1.0
 42
1.0
 50
0.0
 71
     0
  3
TXT
  4
BIGFONT
  0
STYLE
  2
TATE
 70
     4
 40
1.0
 41
1.0
 42
1.0
 50
0.0
 71
     0
  3
TXT
  4
BIGFONT
  0
STYLE
  2
TextStyle03
 70
     0
 40
1.0
 41
1.0
 42
1.0
 50
0.0
 71
     0
  3
MONOTXT
  4
BIGFONT
  0
STYLE
  2
TextStyle04
 70
     0
 40
1.0
 41
1.0
 42
1.0
 50
0.0
 71
     0
  3
MONOTXT
  4
BIGFONT
  0
STYLE
  2
TextStyle05
 70
     0
 40
1.0
 41
1.0
 42
1.0
 50
0.0
 71
     0
  3
MONOTXT
  4
BIGFONT
  0
STYLE
  2
TextStyle06
 70
     0
 40
1.0
 41
1.0
 42
1.0
 50
0.0
 71
     0
  3
MONOTXT
  4
BIGFONT
  0
STYLE
  2
TextStyle07
 70
     0
 40
1.0
 41
1.0
 42
1.0
 50
0.0
 71
     0
  3
MONOTXT
  4
BIGFONT
  0
STYLE
  2
TextStyle08
 70
     0
 40
1.0
 41
1.0
 42
1.0
 50
0.0
 71
     0
  3
MONOTXT
  4
BIGFONT
  0
STYLE
  2
TextStyle09
 70
     0
 40
1.0
 41
1.0
 42
1.0
 50
0.0
 71
     0
  3
MONOTXT
  4
BIGFONT
  0
STYLE
  2
TextStyle10
 70
     0
 40
1.0
 41
1.0
 42
1.0
 50
0.0
 71
     0
  3
MONOTXT
  4
BIGFONT
  0
ENDTAB
  0
ENDSEC
  0
SECTION
  2
BLOCKS
  0
BLOCK
  2
*GRP_0001
 70
    65
 10
0.0
 20
0.0
  0
LINE
  8
型材断面
  6
CONTINUOUS
 10
195.0
 20
133.5
 11
195.0
 21
-133.5
  0
LINE
  8
型材断面
  6
CONTINUOUS
 10
195.0
 20
-133.5
 11
-185.0
 21
-133.5
  0
LINE
  8
型材断面
  6
CONTINUOUS
 10
-185.0
 20
-133.5
 11
-185.0
 21
133.5
  0
LINE
  8
型材断面
  6
CONTINUOUS
 10
195.0
 20
133.5
 11
-185.0
 21
133.5
  0
LINE
  8
型材断面
  6
CONTINUOUS
 10
145.0
 20
-133.5
 11
145.0
 21
-118.5
  0
LINE
  8
型材断面
  6
CONTINUOUS
 10
195.0
 20
-118.5
 11
145.0
 21
-118.5
  0
ENDBLK
  0
BLOCK
  2
*DIM_0002
 70
    65
 10
0.0
 20
0.0
  0
LINE
  8
寸法
  6
BYBLOCK
 62
     0
 10
43.990438
 20
-61.87628
 11
73.960088
 21
-61.87628
  0
LINE
  8
寸法
  6
BYBLOCK
 62
     0
 10
73.960088
 20
-70.209613
 11
73.960088
 21
-61.87628
  0
POINT
  8
寸法
 62
     0
 10
73.960088
 20
-70.209613
  0
POINT
  8
寸法
 62
     0
 10
73.960088
 20
-61.87628
  0
TEXT
  7
TextStyle03
  8
寸法
  6
CONTINUOUS
 62
     0
 10
73.6
 20
-68.5125
  1
250
 40
3.0
 50
90.0
 72
     5
 11
73.6
 21
-63.6375
  0
ENDBLK
  0
BLOCK
  2
*DIM_0003
 70
    65
 10
0.0
 20
0.0
  0
LINE
  8
寸法
  6
BYBLOCK
 62
     0
 10
154.076993
 20
-53.785395
 11
162.135282
 21
-53.785395
  0
LINE
  8
寸法
  6
BYBLOCK
 62
     0
 10
154.076993
 20
-83.118728
 11
162.135282
 21
-83.118728
  0
LINE
  8
寸法
  6
BYBLOCK
 62
     0
 10
162.135282
 20
-53.785395
 11
162.135282
 21
-83.118728
  0
POINT
  8
寸法
 62
     0
 10
162.135282
 20
-53.785395
  0
POINT
  8
寸法
 62
     0
 10
162.135282
 20
-83.118728
  0
TEXT
  7
TextStyle03
  8
寸法
  6
CONTINUOUS
 62
     0
 10
161.775
 20
-70.9125
  1
880
 40
3.0
 50
90.0
 72
     5
 11
161.775
 21
-66.0375
  0
ENDBLK
  0
BLOCK
  2
*DIM_0004
 70
    65
 10
0.0
 20
0.0
  0
LINE
  8
寸法
  6
BYBLOCK
 62
     0
 10
-75.342895
 20
-13.511205
 11
-75.342895
 21
-13.121378
  0
LINE
  8
寸法
  6
BYBLOCK
 62
     0
 10
57.990438
 20
-13.121378
 11
-75.342895
 21
-13.121378
  0
POINT
  8
寸法
 62
     0
 10
57.990438
 20
-13.121378
  0
POINT
  8
寸法
 62
     0
 10
-75.342895
 20
-13.121378
  0
TEXT
  7
TextStyle03
  8
寸法
  6
CONTINUOUS
 62
     0
 10
-20.41875
 20
-12.75
  1
呼称寸法　4000
 40
3.0
 72
     5
 11
3.01875
 21
-12.75
  0
ENDBLK
  0
BLOCK
  2
*DIM_0005
 70
    65
 10
0.0
 20
0.0
  0
LINE
  8
寸法
  6
BYBLOCK
 62
     0
 10
120.710325
 20
-52.785395
 11
120.710325
 21
-44.778748
  0
LINE
  8
寸法
  6
BYBLOCK
 62
     0
 10
153.076993
 20
-52.785395
 11
153.076993
 21
-44.778748
  0
LINE
  8
寸法
  6
BYBLOCK
 62
     0
 10
120.710325
 20
-44.778748
 11
153.076993
 21
-44.778748
  0
POINT
  8
寸法
 62
     0
 10
120.710325
 20
-44.778748
  0
POINT
  8
寸法
 62
     0
 10
153.076993
 20
-44.778748
  0
TEXT
  7
TextStyle03
  8
寸法
  6
CONTINUOUS
 62
     0
 10
134.4375
 20
-44.425
  1
971
 40
3.0
 72
     5
 11
139.3125
 21
-44.425
  0
ENDBLK
  0
BLOCK
  2
*DIM_0006
 70
    65
 10
0.0
 20
0.0
  0
LINE
  8
寸法
  6
BYBLOCK
 62
     0
 10
-58.676228
 20
19.183902
 11
-58.676228
 21
14.132895
  0
LINE
  8
寸法
  6
BYBLOCK
 62
     0
 10
41.323768
 20
19.183902
 11
41.323768
 21
14.132895
  0
LINE
  8
寸法
  6
BYBLOCK
 62
     0
 10
-58.676228
 20
14.132895
 11
41.323768
 21
14.132895
  0
POINT
  8
寸法
 62
     0
 10
-58.676228
 20
14.132895
  0
POINT
  8
寸法
 62
     0
 10
41.323768
 20
14.132895
  0
TEXT
  7
TextStyle03
  8
寸法
  6
CONTINUOUS
 62
     0
 10
-11.98125
 20
14.5
  1
3000
 40
3.0
 72
     5
 11
-5.41875
 21
14.5
  0
ENDBLK
  0
BLOCK
  2
*GRP_0007
 70
    65
 10
0.0
 20
0.0
  0
LINE
  8
別途部材
  6
CONTINUOUS
 62
    96
 10
-77.009562
 20
-70.209613
 11
-77.409562
 21
-71.209613
  0
ARC
  8
別途部材
  6
CONTINUOUS
 10
-60.342897
 20
-79.542947
 40
17.666667
 50
90.0
 51
148.109204
  0
LINE
  8
別途部材
  6
CONTINUOUS
 62
    96
 10
-77.009562
 20
-70.209613
 11
-8.676228
 21
-70.209613
  0
LINE
  8
別途部材
  6
CONTINUOUS
 10
-77.409562
 20
-71.209613
 11
-8.676228
 21
-71.209613
  0
LINE
  8
別途部材
  6
CONTINUOUS
 10
-9.176228
 20
-60.87628
 11
-10.176228
 21
-61.87628
  0
LINE
  8
別途部材
  6
CONTINUOUS
 10
-11.176228
 20
-61.87628
 11
-12.176228
 21
-60.87628
  0
LINE
  8
別途部材
  6
CONTINUOUS
 10
-13.176228
 20
-60.87628
 11
-14.176228
 21
-61.87628
  0
LINE
  8
別途部材
  6
CONTINUOUS
 10
-12.176228
 20
-60.87628
 11
-13.176228
 21
-60.87628
  0
LINE
  8
別途部材
  6
CONTINUOUS
 10
-9.176228
 20
-60.87628
 11
-8.676228
 21
-60.87628
  0
LINE
  8
別途部材
  6
CONTINUOUS
 10
-15.176228
 20
-61.87628
 11
-16.176228
 21
-60.87628
  0
LINE
  8
別途部材
  6
CONTINUOUS
 10
-17.176228
 20
-60.87628
 11
-18.176228
 21
-61.87628
  0
LINE
  8
別途部材
  6
CONTINUOUS
 10
-16.176228
 20
-60.87628
 11
-17.176228
 21
-60.87628
  0
LINE
  8
別途部材
  6
CONTINUOUS
 10
-19.176228
 20
-61.87628
 11
-20.176228
 21
-60.87628
  0
LINE
  8
別途部材
  6
CONTINUOUS
 10
-21.176228
 20
-60.87628
 11
-22.176228
 21
-61.87628
  0
LINE
  8
別途部材
  6
CONTINUOUS
 10
-20.176228
 20
-60.87628
 11
-21.176228
 21
-60.87628
  0
LINE
  8
別途部材
  6
CONTINUOUS
 10
-23.176228
 20
-61.87628
 11
-24.176228
 21
-60.87628
  0
LINE
  8
別途部材
  6
CONTINUOUS
 10
-25.176228
 20
-60.87628
 11
-26.176228
 21
-61.87628
  0
LINE
  8
別途部材
  6
CONTINUOUS
 10
-24.176228
 20
-60.87628
 11
-25.176228
 21
-60.87628
  0
LINE
  8
別途部材
  6
CONTINUOUS
 10
-27.176228
 20
-61.87628
 11
-28.176228
 21
-60.87628
  0
LINE
  8
別途部材
  6
CONTINUOUS
 10
-29.176228
 20
-60.87628
 11
-30.176228
 21
-61.87628
  0
LINE
  8
別途部材
  6
CONTINUOUS
 10
-28.176228
 20
-60.87628
 11
-29.176228
 21
-60.87628
  0
LINE
  8
別途部材
  6
CONTINUOUS
 10
-31.176228
 20
-61.87628
 11
-32.176228
 21
-60.87628
  0
LINE
  8
別途部材
  6
CONTINUOUS
 10
-33.176228
 20
-60.87628
 11
-34.176228
 21
-61.87628
  0
LINE
  8
別途部材
  6
CONTINUOUS
 10
-32.176228
 20
-60.87628
 11
-33.176228
 21
-60.87628
  0
LINE
  8
別途部材
  6
CONTINUOUS
 10
-35.176228
 20
-61.87628
 11
-36.176228
 21
-60.87628
  0
LINE
  8
別途部材
  6
CONTINUOUS
 10
-37.176228
 20
-60.87628
 11
-38.176228
 21
-61.87628
  0
LINE
  8
別途部材
  6
CONTINUOUS
 10
-36.176228
 20
-60.87628
 11
-37.176228
 21
-60.87628
  0
LINE
  8
別途部材
  6
CONTINUOUS
 10
-39.176228
 20
-61.87628
 11
-40.176228
 21
-60.87628
  0
LINE
  8
別途部材
  6
CONTINUOUS
 10
-41.176228
 20
-60.87628
 11
-42.176228
 21
-61.87628
  0
LINE
  8
別途部材
  6
CONTINUOUS
 10
-40.176228
 20
-60.87628
 11
-41.176228
 21
-60.87628
  0
LINE
  8
別途部材
  6
CONTINUOUS
 10
-43.176228
 20
-61.87628
 11
-44.176228
 21
-60.87628
  0
LINE
  8
別途部材
  6
CONTINUOUS
 10
-45.176228
 20
-60.87628
 11
-46.176228
 21
-61.87628
  0
LINE
  8
別途部材
  6
CONTINUOUS
 10
-44.176228
 20
-60.87628
 11
-45.176228
 21
-60.87628
  0
LINE
  8
別途部材
  6
CONTINUOUS
 10
-47.176228
 20
-61.87628
 11
-48.176228
 21
-60.87628
  0
LINE
  8
別途部材
  6
CONTINUOUS
 10
-49.176228
 20
-60.87628
 11
-50.176228
 21
-61.87628
  0
LINE
  8
別途部材
  6
CONTINUOUS
 10
-48.176228
 20
-60.87628
 11
-49.176228
 21
-60.87628
  0
LINE
  8
別途部材
  6
CONTINUOUS
 10
-51.176228
 20
-61.87628
 11
-52.176228
 21
-60.87628
  0
LINE
  8
別途部材
  6
CONTINUOUS
 10
-53.176228
 20
-60.87628
 11
-54.176228
 21
-61.87628
  0
LINE
  8
別途部材
  6
CONTINUOUS
 10
-52.176228
 20
-60.87628
 11
-53.176228
 21
-60.87628
  0
LINE
  8
別途部材
  6
CONTINUOUS
 10
-50.176228
 20
-61.87628
 11
-51.176228
 21
-61.87628
  0
LINE
  8
別途部材
  6
CONTINUOUS
 10
-46.176228
 20
-61.87628
 11
-47.176228
 21
-61.87628
  0
LINE
  8
別途部材
  6
CONTINUOUS
 10
-42.176228
 20
-61.87628
 11
-43.176228
 21
-61.87628
  0
LINE
  8
別途部材
  6
CONTINUOUS
 10
-38.176228
 20
-61.87628
 11
-39.176228
 21
-61.87628
  0
LINE
  8
別途部材
  6
CONTINUOUS
 10
-34.176228
 20
-61.87628
 11
-35.176228
 21
-61.87628
  0
LINE
  8
別途部材
  6
CONTINUOUS
 10
-30.176228
 20
-61.87628
 11
-31.176228
 21
-61.87628
  0
LINE
  8
別途部材
  6
CONTINUOUS
 10
-26.176228
 20
-61.87628
 11
-27.176228
 21
-61.87628
  0
LINE
  8
別途部材
  6
CONTINUOUS
 10
-22.176228
 20
-61.87628
 11
-23.176228
 21
-61.87628
  0
LINE
  8
別途部材
  6
CONTINUOUS
 10
-18.176228
 20
-61.87628
 11
-19.176228
 21
-61.87628
  0
LINE
  8
別途部材
  6
CONTINUOUS
 10
-14.176228
 20
-61.87628
 11
-15.176228
 21
-61.87628
  0
LINE
  8
別途部材
  6
CONTINUOUS
 10
-11.176228
 20
-61.87628
 11
-10.176228
 21
-61.87628
  0
LINE
  8
別途部材
  6
CONTINUOUS
 10
-55.176228
 20
-61.87628
 11
-56.176228
 21
-60.87628
  0
LINE
  8
別途部材
  6
CONTINUOUS
 10
-57.176228
 20
-60.87628
 11
-58.176228
 21
-61.87628
  0
LINE
  8
別途部材
  6
CONTINUOUS
 10
-56.176228
 20
-60.87628
 11
-57.176228
 21
-60.87628
  0
LINE
  8
別途部材
  6
CONTINUOUS
 10
-54.176228
 20
-61.87628
 11
-55.176228
 21
-61.87628
  0
LINE
  8
別途部材
  6
CONTINUOUS
 10
-53.176228
 20
-60.87628
 11
-53.176228
 21
-70.209613
  0
LINE
  8
別途部材
  6
CONTINUOUS
 10
-49.176228
 20
-60.87628
 11
-49.176228
 21
-70.209613
  0
LINE
  8
別途部材
  6
CONTINUOUS
 10
-47.176228
 20
-61.87628
 11
-47.176228
 21
-70.209613
  0
LINE
  8
別途部材
  6
CONTINUOUS
 10
-52.176228
 20
-60.87628
 11
-52.176228
 21
-70.209613
  0
LINE
  8
別途部材
  6
CONTINUOUS
 10
-56.176228
 20
-60.87628
 11
-56.176228
 21
-70.209613
  0
LINE
  8
別途部材
  6
CONTINUOUS
 10
-58.176228
 20
-61.87628
 11
-58.176228
 21
-70.209613
  0
LINE
  8
別途部材
  6
CONTINUOUS
 10
-57.176228
 20
-60.87628
 11
-57.176228
 21
-70.209613
  0
LINE
  8
別途部材
  6
CONTINUOUS
 10
-55.176228
 20
-61.87628
 11
-55.176228
 21
-70.209613
  0
LINE
  8
別途部材
  6
CONTINUOUS
 10
-54.176228
 20
-61.87628
 11
-54.176228
 21
-70.209613
  0
LINE
  8
別途部材
  6
CONTINUOUS
 10
-51.176228
 20
-61.87628
 11
-51.176228
 21
-70.209613
  0
LINE
  8
別途部材
  6
CONTINUOUS
 10
-50.176228
 20
-61.87628
 11
-50.176228
 21
-70.209613
  0
LINE
  8
別途部材
  6
CONTINUOUS
 10
-48.176228
 20
-60.87628
 11
-48.176228
 21
-70.209613
  0
LINE
  8
別途部材
  6
CONTINUOUS
 10
-45.176228
 20
-60.87628
 11
-45.176228
 21
-70.209613
  0
LINE
  8
別途部材
  6
CONTINUOUS
 10
-46.176228
 20
-61.87628
 11
-46.176228
 21
-70.209613
  0
LINE
  8
別途部材
  6
CONTINUOUS
 10
-44.176228
 20
-60.87628
 11
-44.176228
 21
-70.209613
  0
LINE
  8
別途部材
  6
CONTINUOUS
 10
-43.176228
 20
-61.87628
 11
-43.176228
 21
-70.209613
  0
LINE
  8
別途部材
  6
CONTINUOUS
 10
-42.176228
 20
-61.87628
 11
-42.176228
 21
-70.209613
  0
LINE
  8
別途部材
  6
CONTINUOUS
 10
-41.176228
 20
-60.87628
 11
-41.176228
 21
-70.209613
  0
LINE
  8
別途部材
  6
CONTINUOUS
 10
-39.176228
 20
-61.87628
 11
-39.176228
 21
-70.209613
  0
LINE
  8
別途部材
  6
CONTINUOUS
 10
-40.176228
 20
-60.87628
 11
-40.176228
 21
-70.209613
  0
LINE
  8
別途部材
  6
CONTINUOUS
 10
-37.176228
 20
-60.87628
 11
-37.176228
 21
-70.209613
  0
LINE
  8
別途部材
  6
CONTINUOUS
 10
-38.176228
 20
-61.87628
 11
-38.176228
 21
-70.209613
  0
LINE
  8
別途部材
  6
CONTINUOUS
 10
-34.176228
 20
-61.87628
 11
-34.176228
 21
-70.209613
  0
LINE
  8
別途部材
  6
CONTINUOUS
 10
-33.176228
 20
-60.87628
 11
-33.176228
 21
-70.209613
  0
LINE
  8
別途部材
  6
CONTINUOUS
 10
-32.176228
 20
-60.87628
 11
-32.176228
 21
-70.209613
  0
LINE
  8
別途部材
  6
CONTINUOUS
 10
-35.176228
 20
-61.87628
 11
-35.176228
 21
-70.209613
  0
LINE
  8
別途部材
  6
CONTINUOUS
 10
-36.176228
 20
-60.87628
 11
-36.176228
 21
-70.209613
  0
LINE
  8
別途部材
  6
CONTINUOUS
 10
-28.176228
 20
-60.87628
 11
-28.176228
 21
-70.209613
  0
LINE
  8
別途部材
  6
CONTINUOUS
 10
-30.176228
 20
-61.87628
 11
-30.176228
 21
-70.209613
  0
LINE
  8
別途部材
  6
CONTINUOUS
 10
-31.176228
 20
-61.87628
 11
-31.176228
 21
-70.209613
  0
LINE
  8
別途部材
  6
CONTINUOUS
 10
-29.176228
 20
-60.87628
 11
-29.176228
 21
-70.209613
  0
LINE
  8
別途部材
  6
CONTINUOUS
 10
-27.176228
 20
-61.87628
 11
-27.176228
 21
-70.209613
  0
LINE
  8
別途部材
  6
CONTINUOUS
 10
-25.176228
 20
-60.87628
 11
-25.176228
 21
-70.209613
  0
LINE
  8
別途部材
  6
CONTINUOUS
 10
-24.176228
 20
-60.87628
 11
-24.176228
 21
-70.209613
  0
LINE
  8
別途部材
  6
CONTINUOUS
 10
-22.176228
 20
-61.87628
 11
-22.176228
 21
-70.209613
  0
LINE
  8
別途部材
  6
CONTINUOUS
 10
-23.176228
 20
-61.87628
 11
-23.176228
 21
-70.209613
  0
LINE
  8
別途部材
  6
CONTINUOUS
 10
-26.176228
 20
-61.87628
 11
-26.176228
 21
-70.209613
  0
LINE
  8
別途部材
  6
CONTINUOUS
 10
-21.176228
 20
-60.87628
 11
-21.176228
 21
-70.209613
  0
LINE
  8
別途部材
  6
CONTINUOUS
 10
-19.176228
 20
-61.87628
 11
-19.176228
 21
-70.209613
  0
LINE
  8
別途部材
  6
CONTINUOUS
 10
-20.176228
 20
-60.87628
 11
-20.176228
 21
-70.209613
  0
LINE
  8
別途部材
  6
CONTINUOUS
 10
-18.176228
 20
-61.87628
 11
-18.176228
 21
-70.209613
  0
LINE
  8
別途部材
  6
CONTINUOUS
 10
-17.176228
 20
-60.87628
 11
-17.176228
 21
-70.209613
  0
LINE
  8
別途部材
  6
CONTINUOUS
 10
-15.176228
 20
-61.87628
 11
-15.176228
 21
-70.209613
  0
LINE
  8
別途部材
  6
CONTINUOUS
 10
-16.176228
 20
-60.87628
 11
-16.176228
 21
-70.209613
  0
LINE
  8
別途部材
  6
CONTINUOUS
 10
-14.176228
 20
-61.87628
 11
-14.176228
 21
-70.209613
  0
LINE
  8
別途部材
  6
CONTINUOUS
 10
-13.176228
 20
-60.87628
 11
-13.176228
 21
-70.209613
  0
LINE
  8
別途部材
  6
CONTINUOUS
 10
-11.176228
 20
-61.87628
 11
-11.176228
 21
-70.209613
  0
LINE
  8
別途部材
  6
CONTINUOUS
 10
-12.176228
 20
-60.87628
 11
-12.176228
 21
-70.209613
  0
LINE
  8
別途部材
  6
CONTINUOUS
 10
-10.176228
 20
-61.87628
 11
-10.176228
 21
-70.209613
  0
LINE
  8
別途部材
  6
CONTINUOUS
 10
-9.176228
 20
-60.87628
 11
-9.176228
 21
-70.209613
  0
LINE
  8
別途部材
  6
CONTINUOUS
 10
-58.176228
 20
-61.87628
 11
-60.342895
 21
-61.87628
  0
LINE
  8
別途部材
  6
CONTINUOUS
 62
    96
 10
59.657105
 20
-70.209613
 11
60.057105
 21
-71.209613
  0
ARC
  8
別途部材
  6
CONTINUOUS
 10
42.99044
 20
-79.542947
 40
17.666667
 50
31.890796
 51
90.0
  0
LINE
  8
別途部材
  6
CONTINUOUS
 62
    96
 10
59.657105
 20
-70.209613
 11
-8.676228
 21
-70.209613
  0
LINE
  8
別途部材
  6
CONTINUOUS
 10
60.057105
 20
-71.209613
 11
-8.676228
 21
-71.209613
  0
LINE
  8
別途部材
  6
CONTINUOUS
 10
-8.176228
 20
-60.87628
 11
-7.176228
 21
-61.87628
  0
LINE
  8
別途部材
  6
CONTINUOUS
 10
-6.176228
 20
-61.87628
 11
-5.176228
 21
-60.87628
  0
LINE
  8
別途部材
  6
CONTINUOUS
 10
-4.176228
 20
-60.87628
 11
-3.176228
 21
-61.87628
  0
LINE
  8
別途部材
  6
CONTINUOUS
 10
-5.176228
 20
-60.87628
 11
-4.176228
 21
-60.87628
  0
LINE
  8
別途部材
  6
CONTINUOUS
 10
-8.176228
 20
-60.87628
 11
-8.676228
 21
-60.87628
  0
LINE
  8
別途部材
  6
CONTINUOUS
 10
-2.176228
 20
-61.87628
 11
-1.176228
 21
-60.87628
  0
LINE
  8
別途部材
  6
CONTINUOUS
 10
-0.176228
 20
-60.87628
 11
0.823773
 21
-61.87628
  0
LINE
  8
別途部材
  6
CONTINUOUS
 10
-1.176228
 20
-60.87628
 11
-0.176228
 21
-60.87628
  0
LINE
  8
別途部材
  6
CONTINUOUS
 10
1.823773
 20
-61.87628
 11
2.823773
 21
-60.87628
  0
LINE
  8
別途部材
  6
CONTINUOUS
 10
3.823773
 20
-60.87628
 11
4.823773
 21
-61.87628
  0
LINE
  8
別途部材
  6
CONTINUOUS
 10
2.823773
 20
-60.87628
 11
3.823773
 21
-60.87628
  0
LINE
  8
別途部材
  6
CONTINUOUS
 10
5.823773
 20
-61.87628
 11
6.823773
 21
-60.87628
  0
LINE
  8
別途部材
  6
CONTINUOUS
 10
7.823773
 20
-60.87628
 11
8.823773
 21
-61.87628
  0
LINE
  8
別途部材
  6
CONTINUOUS
 10
6.823773
 20
-60.87628
 11
7.823773
 21
-60.87628
  0
LINE
  8
別途部材
  6
CONTINUOUS
 10
9.823773
 20
-61.87628
 11
10.823773
 21
-60.87628
  0
LINE
  8
別途部材
  6
CONTINUOUS
 10
11.823773
 20
-60.87628
 11
12.823773
 21
-61.87628
  0
LINE
  8
別途部材
  6
CONTINUOUS
 10
10.823773
 20
-60.87628
 11
11.823773
 21
-60.87628
  0
LINE
  8
別途部材
  6
CONTINUOUS
 10
13.823773
 20
-61.87628
 11
14.823773
 21
-60.87628
  0
LINE
  8
別途部材
  6
CONTINUOUS
 10
15.823773
 20
-60.87628
 11
16.823773
 21
-61.87628
  0
LINE
  8
別途部材
  6
CONTINUOUS
 10
14.823773
 20
-60.87628
 11
15.823773
 21
-60.87628
  0
LINE
  8
別途部材
  6
CONTINUOUS
 10
17.823773
 20
-61.87628
 11
18.823773
 21
-60.87628
  0
LINE
  8
別途部材
  6
CONTINUOUS
 10
19.823773
 20
-60.87628
 11
20.823773
 21
-61.87628
  0
LINE
  8
別途部材
  6
CONTINUOUS
 10
18.823773
 20
-60.87628
 11
19.823773
 21
-60.87628
  0
LINE
  8
別途部材
  6
CONTINUOUS
 10
21.823773
 20
-61.87628
 11
22.823773
 21
-60.87628
  0
LINE
  8
別途部材
  6
CONTINUOUS
 10
23.823773
 20
-60.87628
 11
24.823773
 21
-61.87628
  0
LINE
  8
別途部材
  6
CONTINUOUS
 10
22.823773
 20
-60.87628
 11
23.823773
 21
-60.87628
  0
LINE
  8
別途部材
  6
CONTINUOUS
 10
25.823773
 20
-61.87628
 11
26.823773
 21
-60.87628
  0
LINE
  8
別途部材
  6
CONTINUOUS
 10
27.823773
 20
-60.87628
 11
28.823773
 21
-61.87628
  0
LINE
  8
別途部材
  6
CONTINUOUS
 10
26.823773
 20
-60.87628
 11
27.823773
 21
-60.87628
  0
LINE
  8
別途部材
  6
CONTINUOUS
 10
29.823773
 20
-61.87628
 11
30.823773
 21
-60.87628
  0
LINE
  8
別途部材
  6
CONTINUOUS
 10
31.823773
 20
-60.87628
 11
32.823773
 21
-61.87628
  0
LINE
  8
別途部材
  6
CONTINUOUS
 10
30.823773
 20
-60.87628
 11
31.823773
 21
-60.87628
  0
LINE
  8
別途部材
  6
CONTINUOUS
 10
33.823773
 20
-61.87628
 11
34.823773
 21
-60.87628
  0
LINE
  8
別途部材
  6
CONTINUOUS
 10
35.823773
 20
-60.87628
 11
36.823773
 21
-61.87628
  0
LINE
  8
別途部材
  6
CONTINUOUS
 10
34.823773
 20
-60.87628
 11
35.823773
 21
-60.87628
  0
LINE
  8
別途部材
  6
CONTINUOUS
 10
32.823773
 20
-61.87628
 11
33.823773
 21
-61.87628
  0
LINE
  8
別途部材
  6
CONTINUOUS
 10
28.823773
 20
-61.87628
 11
29.823773
 21
-61.87628
  0
LINE
  8
別途部材
  6
CONTINUOUS
 10
24.823773
 20
-61.87628
 11
25.823773
 21
-61.87628
  0
LINE
  8
別途部材
  6
CONTINUOUS
 10
20.823773
 20
-61.87628
 11
21.823773
 21
-61.87628
  0
LINE
  8
別途部材
  6
CONTINUOUS
 10
16.823773
 20
-61.87628
 11
17.823773
 21
-61.87628
  0
LINE
  8
別途部材
  6
CONTINUOUS
 10
12.823773
 20
-61.87628
 11
13.823773
 21
-61.87628
  0
LINE
  8
別途部材
  6
CONTINUOUS
 10
8.823773
 20
-61.87628
 11
9.823773
 21
-61.87628
  0
LINE
  8
別途部材
  6
CONTINUOUS
 10
4.823773
 20
-61.87628
 11
5.823773
 21
-61.87628
  0
LINE
  8
別途部材
  6
CONTINUOUS
 10
0.823773
 20
-61.87628
 11
1.823773
 21
-61.87628
  0
LINE
  8
別途部材
  6
CONTINUOUS
 10
-3.176228
 20
-61.87628
 11
-2.176228
 21
-61.87628
  0
LINE
  8
別途部材
  6
CONTINUOUS
 10
-6.176228
 20
-61.87628
 11
-7.176228
 21
-61.87628
  0
LINE
  8
別途部材
  6
CONTINUOUS
 10
37.823773
 20
-61.87628
 11
38.823773
 21
-60.87628
  0
LINE
  8
別途部材
  6
CONTINUOUS
 10
39.823773
 20
-60.87628
 11
40.823773
 21
-61.87628
  0
LINE
  8
別途部材
  6
CONTINUOUS
 10
38.823773
 20
-60.87628
 11
39.823773
 21
-60.87628
  0
LINE
  8
別途部材
  6
CONTINUOUS
 10
36.823773
 20
-61.87628
 11
37.823773
 21
-61.87628
  0
LINE
  8
別途部材
  6
CONTINUOUS
 10
35.823773
 20
-60.87628
 11
35.823773
 21
-70.209613
  0
LINE
  8
別途部材
  6
CONTINUOUS
 10
31.823773
 20
-60.87628
 11
31.823773
 21
-70.209613
  0
LINE
  8
別途部材
  6
CONTINUOUS
 10
29.823773
 20
-61.87628
 11
29.823773
 21
-70.209613
  0
LINE
  8
別途部材
  6
CONTINUOUS
 10
34.823773
 20
-60.87628
 11
34.823773
 21
-70.209613
  0
LINE
  8
別途部材
  6
CONTINUOUS
 10
38.823773
 20
-60.87628
 11
38.823773
 21
-70.209613
  0
LINE
  8
別途部材
  6
CONTINUOUS
 10
40.823773
 20
-61.87628
 11
40.823773
 21
-70.209613
  0
LINE
  8
別途部材
  6
CONTINUOUS
 10
39.823773
 20
-60.87628
 11
39.823773
 21
-70.209613
  0
LINE
  8
別途部材
  6
CONTINUOUS
 10
37.823773
 20
-61.87628
 11
37.823773
 21
-70.209613
  0
LINE
  8
別途部材
  6
CONTINUOUS
 10
36.823773
 20
-61.87628
 11
36.823773
 21
-70.209613
  0
LINE
  8
別途部材
  6
CONTINUOUS
 10
33.823773
 20
-61.87628
 11
33.823773
 21
-70.209613
  0
LINE
  8
別途部材
  6
CONTINUOUS
 10
32.823773
 20
-61.87628
 11
32.823773
 21
-70.209613
  0
LINE
  8
別途部材
  6
CONTINUOUS
 10
30.823773
 20
-60.87628
 11
30.823773
 21
-70.209613
  0
LINE
  8
別途部材
  6
CONTINUOUS
 10
27.823773
 20
-60.87628
 11
27.823773
 21
-70.209613
  0
LINE
  8
別途部材
  6
CONTINUOUS
 10
28.823773
 20
-61.87628
 11
28.823773
 21
-70.209613
  0
LINE
  8
別途部材
  6
CONTINUOUS
 10
26.823773
 20
-60.87628
 11
26.823773
 21
-70.209613
  0
LINE
  8
別途部材
  6
CONTINUOUS
 10
25.823773
 20
-61.87628
 11
25.823773
 21
-70.209613
  0
LINE
  8
別途部材
  6
CONTINUOUS
 10
24.823773
 20
-61.87628
 11
24.823773
 21
-70.209613
  0
LINE
  8
別途部材
  6
CONTINUOUS
 10
23.823773
 20
-60.87628
 11
23.823773
 21
-70.209613
  0
LINE
  8
別途部材
  6
CONTINUOUS
 10
21.823773
 20
-61.87628
 11
21.823773
 21
-70.209613
  0
LINE
  8
別途部材
  6
CONTINUOUS
 10
22.823773
 20
-60.87628
 11
22.823773
 21
-70.209613
  0
LINE
  8
別途部材
  6
CONTINUOUS
 10
19.823773
 20
-60.87628
 11
19.823773
 21
-70.209613
  0
LINE
  8
別途部材
  6
CONTINUOUS
 10
20.823773
 20
-61.87628
 11
20.823773
 21
-70.209613
  0
LINE
  8
別途部材
  6
CONTINUOUS
 10
16.823773
 20
-61.87628
 11
16.823773
 21
-70.209613
  0
LINE
  8
別途部材
  6
CONTINUOUS
 10
15.823773
 20
-60.87628
 11
15.823773
 21
-70.209613
  0
LINE
  8
別途部材
  6
CONTINUOUS
 10
14.823773
 20
-60.87628
 11
14.823773
 21
-70.209613
  0
LINE
  8
別途部材
  6
CONTINUOUS
 10
17.823773
 20
-61.87628
 11
17.823773
 21
-70.209613
  0
LINE
  8
別途部材
  6
CONTINUOUS
 10
18.823773
 20
-60.87628
 11
18.823773
 21
-70.209613
  0
LINE
  8
別途部材
  6
CONTINUOUS
 10
10.823773
 20
-60.87628
 11
10.823773
 21
-70.209613
  0
LINE
  8
別途部材
  6
CONTINUOUS
 10
12.823773
 20
-61.87628
 11
12.823773
 21
-70.209613
  0
LINE
  8
別途部材
  6
CONTINUOUS
 10
13.823773
 20
-61.87628
 11
13.823773
 21
-70.209613
  0
LINE
  8
別途部材
  6
CONTINUOUS
 10
11.823773
 20
-60.87628
 11
11.823773
 21
-70.209613
  0
LINE
  8
別途部材
  6
CONTINUOUS
 10
9.823773
 20
-61.87628
 11
9.823773
 21
-70.209613
  0
LINE
  8
別途部材
  6
CONTINUOUS
 10
7.823773
 20
-60.87628
 11
7.823773
 21
-70.209613
  0
LINE
  8
別途部材
  6
CONTINUOUS
 10
6.823773
 20
-60.87628
 11
6.823773
 21
-70.209613
  0
LINE
  8
別途部材
  6
CONTINUOUS
 10
4.823773
 20
-61.87628
 11
4.823773
 21
-70.209613
  0
LINE
  8
別途部材
  6
CONTINUOUS
 10
5.823773
 20
-61.87628
 11
5.823773
 21
-70.209613
  0
LINE
  8
別途部材
  6
CONTINUOUS
 10
8.823773
 20
-61.87628
 11
8.823773
 21
-70.209613
  0
LINE
  8
別途部材
  6
CONTINUOUS
 10
3.823773
 20
-60.87628
 11
3.823773
 21
-70.209613
  0
LINE
  8
別途部材
  6
CONTINUOUS
 10
1.823773
 20
-61.87628
 11
1.823773
 21
-70.209613
  0
LINE
  8
別途部材
  6
CONTINUOUS
 10
2.823773
 20
-60.87628
 11
2.823773
 21
-70.209613
  0
LINE
  8
別途部材
  6
CONTINUOUS
 10
0.823773
 20
-61.87628
 11
0.823773
 21
-70.209613
  0
LINE
  8
別途部材
  6
CONTINUOUS
 10
-0.176228
 20
-60.87628
 11
-0.176228
 21
-70.209613
  0
LINE
  8
別途部材
  6
CONTINUOUS
 10
-2.176228
 20
-61.87628
 11
-2.176228
 21
-70.209613
  0
LINE
  8
別途部材
  6
CONTINUOUS
 10
-1.176228
 20
-60.87628
 11
-1.176228
 21
-70.209613
  0
LINE
  8
別途部材
  6
CONTINUOUS
 10
-3.176228
 20
-61.87628
 11
-3.176228
 21
-70.209613
  0
LINE
  8
別途部材
  6
CONTINUOUS
 10
-4.176228
 20
-60.87628
 11
-4.176228
 21
-70.209613
  0
LINE
  8
別途部材
  6
CONTINUOUS
 10
-6.176228
 20
-61.87628
 11
-6.176228
 21
-70.209613
  0
LINE
  8
別途部材
  6
CONTINUOUS
 10
-5.176228
 20
-60.87628
 11
-5.176228
 21
-70.209613
  0
LINE
  8
別途部材
  6
CONTINUOUS
 10
-7.176228
 20
-61.87628
 11
-7.176228
 21
-70.209613
  0
LINE
  8
別途部材
  6
CONTINUOUS
 10
-8.176228
 20
-60.87628
 11
-8.176228
 21
-70.209613
  0
LINE
  8
別途部材
  6
CONTINUOUS
 10
40.823773
 20
-61.87628
 11
42.990438
 21
-61.87628
  0
ENDBLK
  0
BLOCK
  2
*DIM_0008
 70
    65
 10
0.0
 20
0.0
  0
LINE
  8
寸法
  6
BYBLOCK
 62
     0
 10
139.19037
 20
38.814033
 11
139.19037
 21
68.369967
  0
LINE
  8
寸法
  6
BYBLOCK
 62
     0
 10
147.523703
 20
68.369967
 11
139.19037
 21
68.369967
  0
POINT
  8
寸法
 62
     0
 10
147.523703
 20
68.369967
  0
POINT
  8
寸法
 62
     0
 10
139.19037
 20
68.369967
  0
TEXT
  7
TextStyle03
  8
寸法
  6
CONTINUOUS
 62
     0
 10
140.9125
 20
68.725
  1
250
 40
3.0
 72
     5
 11
145.7875
 21
68.725
  0
ENDBLK
  0
BLOCK
  2
*DIM_0009
 70
    65
 10
0.0
 20
0.0
  0
LINE
  8
寸法
  6
BYBLOCK
 62
     0
 10
92.010088
 20
22.814033
 11
92.010088
 21
52.814033
  0
POINT
  8
寸法
 62
     0
 10
92.010088
 20
22.814033
  0
POINT
  8
寸法
 62
     0
 10
92.010088
 20
52.814033
  0
TEXT
  7
TextStyle03
  8
寸法
  6
CONTINUOUS
 62
     0
 10
91.65
 20
26.9
  1
呼称寸法　900
 40
3.0
 50
90.0
 72
     5
 11
91.65
 21
48.65
  0
ENDBLK
  0
BLOCK
  2
*DIM_0010
 70
    65
 10
0.0
 20
0.0
  0
LINE
  8
寸法
  6
BYBLOCK
 62
     0
 10
148.890373
 20
55.814077
 11
92.010088
 21
55.814077
  0
LINE
  8
寸法
  6
BYBLOCK
 62
     0
 10
92.010088
 20
52.814033
 11
92.010088
 21
55.814077
  0
POINT
  8
寸法
 62
     0
 10
92.010088
 20
52.814033
  0
POINT
  8
寸法
 62
     0
 10
92.010088
 20
55.814077
  0
TEXT
  7
TextStyle03
  8
寸法
  6
CONTINUOUS
 62
     0
 10
91.65
 20
56.05625
  1
90
 40
3.0
 50
90.0
 72
     5
 11
91.65
 21
59.24375
  0
ENDBLK
  0
BLOCK
  2
*DIM_0011
 70
    65
 10
0.0
 20
0.0
  0
LINE
  8
寸法
  6
BYBLOCK
 62
     0
 10
148.890373
 20
19.813988
 11
92.010088
 21
19.813988
  0
LINE
  8
寸法
  6
BYBLOCK
 62
     0
 10
92.010088
 20
22.814033
 11
92.010088
 21
19.813988
  0
POINT
  8
寸法
 62
     0
 10
92.010088
 20
22.814033
  0
POINT
  8
寸法
 62
     0
 10
92.010088
 20
19.813988
  0
TEXT
  7
TextStyle03
  8
寸法
  6
CONTINUOUS
 62
     0
 10
91.65
 20
16.30625
  1
90
 40
3.0
 50
90.0
 72
     5
 11
91.65
 21
19.49375
  0
ENDBLK
  0
BLOCK
  2
*DIM_0012
 70
    65
 10
0.0
 20
0.0
  0
LINE
  8
寸法
  6
BYBLOCK
 62
     0
 10
147.523703
 20
55.4807
 11
147.523703
 21
68.369967
  0
LINE
  8
寸法
  6
BYBLOCK
 62
     0
 10
150.39037
 20
56.814077
 11
150.39037
 21
68.369967
  0
LINE
  8
寸法
  6
BYBLOCK
 62
     0
 10
147.523703
 20
68.369967
 11
150.39037
 21
68.369967
  0
POINT
  8
寸法
 62
     0
 10
147.523703
 20
68.369967
  0
POINT
  8
寸法
 62
     0
 10
150.39037
 20
68.369967
  0
TEXT
  7
TextStyle03
  8
寸法
  6
CONTINUOUS
 62
     0
 10
150.73125
 20
68.725
  1
86
 40
3.0
 72
     5
 11
153.91875
 21
68.725
  0
ENDBLK
  0
BLOCK
  2
*DIM_0013
 70
    65
 10
0.0
 20
0.0
  0
LINE
  8
寸法
  6
BYBLOCK
 62
     0
 10
60.657105
 20
-70.209613
 11
73.960088
 21
-70.209613
  0
LINE
  8
寸法
  6
BYBLOCK
 62
     0
 10
61.990482
 20
-73.07628
 11
73.960088
 21
-73.07628
  0
LINE
  8
寸法
  6
BYBLOCK
 62
     0
 10
73.960088
 20
-70.209613
 11
73.960088
 21
-73.07628
  0
POINT
  8
寸法
 62
     0
 10
73.960088
 20
-70.209613
  0
POINT
  8
寸法
 62
     0
 10
73.960088
 20
-73.07628
  0
TEXT
  7
TextStyle03
  8
寸法
  6
CONTINUOUS
 62
     0
 10
73.6
 20
-76.64375
  1
86
 40
3.0
 50
90.0
 72
     5
 11
73.6
 21
-73.45625
  0
ENDBLK
  0
BLOCK
  2
*DIM_0014
 70
    65
 10
0.0
 20
0.0
  0
LINE
  8
寸法
  6
BYBLOCK
 62
     0
 10
60.990482
 20
-71.576282
 11
60.990482
 21
-13.121378
  0
LINE
  8
寸法
  6
BYBLOCK
 62
     0
 10
57.990438
 20
-13.121378
 11
60.990482
 21
-13.121378
  0
POINT
  8
寸法
 62
     0
 10
57.990438
 20
-13.121378
  0
POINT
  8
寸法
 62
     0
 10
60.990482
 20
-13.121378
  0
TEXT
  7
TextStyle03
  8
寸法
  6
CONTINUOUS
 62
     0
 10
61.28125
 20
-12.775
  1
90
 40
3.0
 72
     5
 11
64.46875
 21
-12.775
  0
ENDBLK
  0
BLOCK
  2
*DIM_0015
 70
    65
 10
0.0
 20
0.0
  0
LINE
  8
寸法
  6
BYBLOCK
 62
     0
 10
-78.342943
 20
-71.576282
 11
-78.342943
 21
-13.121378
  0
LINE
  8
寸法
  6
BYBLOCK
 62
     0
 10
-75.342895
 20
-13.121378
 11
-78.342943
 21
-13.121378
  0
POINT
  8
寸法
 62
     0
 10
-75.342895
 20
-13.121378
  0
POINT
  8
寸法
 62
     0
 10
-78.342943
 20
-13.121378
  0
TEXT
  7
TextStyle03
  8
寸法
  6
CONTINUOUS
 62
     0
 10
-81.81875
 20
-12.75
  1
90
 40
3.0
 72
     5
 11
-78.63125
 21
-12.75
  0
ENDBLK
  0
BLOCK
  2
*DIM_0016
 70
    65
 10
0.0
 20
0.0
  0
LINE
  8
寸法
  6
BYBLOCK
 62
     0
 10
-78.342895
 20
47.814033
 11
-91.635732
 21
47.814033
  0
LINE
  8
寸法
  6
BYBLOCK
 62
     0
 10
-78.342895
 20
27.814033
 11
-91.635732
 21
27.814033
  0
LINE
  8
寸法
  6
BYBLOCK
 62
     0
 10
-91.635732
 20
47.814033
 11
-91.635732
 21
27.814033
  0
POINT
  8
寸法
 62
     0
 10
-91.635732
 20
47.814033
  0
POINT
  8
寸法
 62
     0
 10
-91.635732
 20
27.814033
  0
TEXT
  7
TextStyle03
  8
寸法
  6
CONTINUOUS
 62
     0
 10
-92.025
 20
35.3625
  1
600
 40
3.0
 50
90.0
 72
     5
 11
-92.025
 21
40.2375
  0
ENDBLK
  0
BLOCK
  2
*DIM_0017
 70
    65
 10
0.0
 20
0.0
  0
LINE
  8
寸法
  6
BYBLOCK
 62
     0
 10
-67.009562
 20
55.814033
 11
-67.009562
 21
84.922105
  0
LINE
  8
寸法
  6
BYBLOCK
 62
     0
 10
-43.67623
 20
55.814033
 11
-43.67623
 21
84.922105
  0
LINE
  8
寸法
  6
BYBLOCK
 62
     0
 10
-67.009562
 20
84.922105
 11
-43.67623
 21
84.922105
  0
POINT
  8
寸法
 62
     0
 10
-67.009562
 20
84.922105
  0
POINT
  8
寸法
 62
     0
 10
-43.67623
 20
84.922105
  0
TEXT
  7
TextStyle03
  8
寸法
  6
CONTINUOUS
 62
     0
 10
-57.7875
 20
85.275
  1
700
 40
3.0
 72
     5
 11
-52.9125
 21
85.275
  0
ENDBLK
  0
BLOCK
  2
*DIM_0018
 70
    65
 10
0.0
 20
0.0
  0
LINE
  8
寸法
  6
BYBLOCK
 62
     0
 10
-20.342897
 20
55.814033
 11
-20.342897
 21
84.922105
  0
LINE
  8
寸法
  6
BYBLOCK
 62
     0
 10
-43.67623
 20
84.922105
 11
-20.342897
 21
84.922105
  0
POINT
  8
寸法
 62
     0
 10
-20.342897
 20
84.922105
  0
TEXT
  7
TextStyle03
  8
寸法
  6
CONTINUOUS
 62
     0
 10
-34.4625
 20
85.275
  1
700
 40
3.0
 72
     5
 11
-29.5875
 21
85.275
  0
ENDBLK
  0
BLOCK
  2
*DIM_0019
 70
    65
 10
0.0
 20
0.0
  0
LINE
  8
寸法
  6
BYBLOCK
 62
     0
 10
2.990438
 20
55.814033
 11
2.990438
 21
84.922105
  0
LINE
  8
寸法
  6
BYBLOCK
 62
     0
 10
-20.342897
 20
84.922105
 11
2.990438
 21
84.922105
  0
POINT
  8
寸法
 62
     0
 10
2.990438
 20
84.922105
  0
TEXT
  7
TextStyle03
  8
寸法
  6
CONTINUOUS
 62
     0
 10
-11.1375
 20
85.275
  1
700
 40
3.0
 72
     5
 11
-6.2625
 21
85.275
  0
ENDBLK
  0
BLOCK
  2
*DIM_0020
 70
    65
 10
0.0
 20
0.0
  0
LINE
  8
寸法
  6
BYBLOCK
 62
     0
 10
26.32377
 20
55.814033
 11
26.32377
 21
84.922105
  0
LINE
  8
寸法
  6
BYBLOCK
 62
     0
 10
2.990438
 20
84.922105
 11
26.32377
 21
84.922105
  0
POINT
  8
寸法
 62
     0
 10
26.32377
 20
84.922105
  0
TEXT
  7
TextStyle03
  8
寸法
  6
CONTINUOUS
 62
     0
 10
12.2125
 20
85.275
  1
700
 40
3.0
 72
     5
 11
17.0875
 21
85.275
  0
ENDBLK
  0
BLOCK
  2
*DIM_0021
 70
    65
 10
0.0
 20
0.0
  0
LINE
  8
寸法
  6
BYBLOCK
 62
     0
 10
49.657102
 20
55.814033
 11
49.657102
 21
84.922105
  0
LINE
  8
寸法
  6
BYBLOCK
 62
     0
 10
26.32377
 20
84.922105
 11
49.657102
 21
84.922105
  0
POINT
  8
寸法
 62
     0
 10
49.657102
 20
84.922105
  0
TEXT
  7
TextStyle03
  8
寸法
  6
CONTINUOUS
 62
     0
 10
35.5375
 20
85.275
  1
700
 40
3.0
 72
     5
 11
40.4125
 21
85.275
  0
ENDBLK
  0
BLOCK
  2
*GRP_0022
 70
    65
 10
0.0
 20
0.0
  0
LINE
  8
ボルト／ビス
  6
CONTINUOUS
 10
-76.009565
 20
-70.209613
 11
-76.009565
 21
-69.742945
  0
LINE
  8
ボルト／ビス
  6
CONTINUOUS
 10
-76.376232
 20
-70.209613
 11
-76.376232
 21
-70.142945
  0
LINE
  8
ボルト／ビス
  6
CONTINUOUS
 10
-76.376232
 20
-70.142945
 11
-75.6429
 21
-70.142945
  0
LINE
  8
ボルト／ビス
  6
CONTINUOUS
 10
-75.6429
 20
-70.142945
 11
-75.6429
 21
-70.209613
  0
LINE
  8
ボルト／ビス
  6
CONTINUOUS
 10
-76.376232
 20
-70.209613
 11
-75.6429
 21
-70.209613
  0
LINE
  8
ボルト／ビス
  6
CONTINUOUS
 10
-76.309565
 20
-70.109612
 11
-76.309565
 21
-70.142945
  0
LINE
  8
ボルト／ビス
  6
CONTINUOUS
 10
-76.309565
 20
-70.109612
 11
-75.709565
 21
-70.109612
  0
LINE
  8
ボルト／ビス
  6
CONTINUOUS
 10
-75.709565
 20
-70.109612
 11
-75.709565
 21
-70.142945
  0
LINE
  8
ボルト／ビス
  6
CONTINUOUS
 62
    64
 10
-76.16994
 20
-69.909613
 11
-76.202015
 21
-69.921288
  0
ARC
  8
ボルト／ビス
  6
CONTINUOUS
 62
    64
 10
-76.153903
 20
-70.01459
 40
0.104978
 50
62.721967
 51
90.0
  0
ARC
  8
ボルト／ビス
  6
CONTINUOUS
 62
    64
 10
-76.009565
 20
-70.312014
 40
0.402402
 50
76.165002
 51
103.834985
  0
LINE
  8
ボルト／ビス
  6
CONTINUOUS
 62
    64
 10
-75.84919
 20
-69.909613
 11
-75.817115
 21
-69.921288
  0
ARC
  8
ボルト／ビス
  6
CONTINUOUS
 62
    64
 10
-75.865227
 20
-70.01459
 40
0.104978
 50
90.0
 51
117.278033
  0
LINE
  8
ボルト／ビス
  6
CONTINUOUS
 62
    64
 10
-76.16994
 20
-69.909613
 11
-75.84919
 21
-69.909613
  0
LINE
  8
ボルト／ビス
  6
CONTINUOUS
 62
    64
 10
-75.817115
 20
-69.921288
 11
-75.817115
 21
-70.042945
  0
LINE
  8
ボルト／ビス
  6
CONTINUOUS
 62
    64
 10
-75.91334
 20
-69.921288
 11
-75.91334
 21
-70.042945
  0
LINE
  8
ボルト／ビス
  6
CONTINUOUS
 62
    64
 10
-76.202015
 20
-69.921288
 11
-76.202015
 21
-70.042945
  0
LINE
  8
ボルト／ビス
  6
CONTINUOUS
 62
    64
 10
-76.10579
 20
-69.921288
 11
-76.10579
 21
-70.042945
  0
LINE
  8
ボルト／ビス
  6
CONTINUOUS
 10
-76.202015
 20
-70.042945
 11
-75.817115
 21
-70.042945
  0
LINE
  8
ボルト／ビス
  6
CONTINUOUS
 10
-76.209565
 20
-70.042945
 11
-76.209565
 21
-70.109612
  0
LINE
  8
ボルト／ビス
  6
CONTINUOUS
 10
-76.209565
 20
-70.042945
 11
-75.809565
 21
-70.042945
  0
LINE
  8
ボルト／ビス
  6
CONTINUOUS
 10
-75.809565
 20
-70.042945
 11
-75.809565
 21
-70.109612
  0
ENDBLK
  0
BLOCK
  2
*GRP_0023
 70
    65
 10
0.0
 20
0.0
  0
LINE
  8
ボルト／ビス
  6
CONTINUOUS
 10
58.657105
 20
-70.209613
 11
58.657105
 21
-69.742945
  0
LINE
  8
ボルト／ビス
  6
CONTINUOUS
 10
58.290438
 20
-70.209613
 11
58.290438
 21
-70.142945
  0
LINE
  8
ボルト／ビス
  6
CONTINUOUS
 10
58.290438
 20
-70.142945
 11
59.02377
 21
-70.142945
  0
LINE
  8
ボルト／ビス
  6
CONTINUOUS
 10
59.02377
 20
-70.142945
 11
59.02377
 21
-70.209613
  0
LINE
  8
ボルト／ビス
  6
CONTINUOUS
 10
58.290438
 20
-70.209613
 11
59.02377
 21
-70.209613
  0
LINE
  8
ボルト／ビス
  6
CONTINUOUS
 10
58.357105
 20
-70.109612
 11
58.357105
 21
-70.142945
  0
LINE
  8
ボルト／ビス
  6
CONTINUOUS
 10
58.357105
 20
-70.109612
 11
58.957105
 21
-70.109612
  0
LINE
  8
ボルト／ビス
  6
CONTINUOUS
 10
58.957105
 20
-70.109612
 11
58.957105
 21
-70.142945
  0
LINE
  8
ボルト／ビス
  6
CONTINUOUS
 62
    64
 10
58.49673
 20
-69.909613
 11
58.464655
 21
-69.921288
  0
ARC
  8
ボルト／ビス
  6
CONTINUOUS
 62
    64
 10
58.512767
 20
-70.01459
 40
0.104978
 50
62.721967
 51
90.0
  0
ARC
  8
ボルト／ビス
  6
CONTINUOUS
 62
    64
 10
58.657105
 20
-70.312014
 40
0.402402
 50
76.165002
 51
103.834985
  0
LINE
  8
ボルト／ビス
  6
CONTINUOUS
 62
    64
 10
58.81748
 20
-69.909613
 11
58.849555
 21
-69.921288
  0
ARC
  8
ボルト／ビス
  6
CONTINUOUS
 62
    64
 10
58.801443
 20
-70.01459
 40
0.104978
 50
90.0
 51
117.278033
  0
LINE
  8
ボルト／ビス
  6
CONTINUOUS
 62
    64
 10
58.49673
 20
-69.909613
 11
58.81748
 21
-69.909613
  0
LINE
  8
ボルト／ビス
  6
CONTINUOUS
 62
    64
 10
58.849555
 20
-69.921288
 11
58.849555
 21
-70.042945
  0
LINE
  8
ボルト／ビス
  6
CONTINUOUS
 62
    64
 10
58.75333
 20
-69.921288
 11
58.75333
 21
-70.042945
  0
LINE
  8
ボルト／ビス
  6
CONTINUOUS
 62
    64
 10
58.464655
 20
-69.921288
 11
58.464655
 21
-70.042945
  0
LINE
  8
ボルト／ビス
  6
CONTINUOUS
 62
    64
 10
58.56088
 20
-69.921288
 11
58.56088
 21
-70.042945
  0
LINE
  8
ボルト／ビス
  6
CONTINUOUS
 10
58.464655
 20
-70.042945
 11
58.849555
 21
-70.042945
  0
LINE
  8
ボルト／ビス
  6
CONTINUOUS
 10
58.457105
 20
-70.042945
 11
58.457105
 21
-70.109612
  0
LINE
  8
ボルト／ビス
  6
CONTINUOUS
 10
58.457105
 20
-70.042945
 11
58.857105
 21
-70.042945
  0
LINE
  8
ボルト／ビス
  6
CONTINUOUS
 10
58.857105
 20
-70.042945
 11
58.857105
 21
-70.109612
  0
ENDBLK
  0
BLOCK
  2
*GRP_0024
 70
    65
 10
0.0
 20
0.0
  0
LINE
  8
ボルト／ビス
  6
CONTINUOUS
 10
147.523703
 20
22.147365
 11
147.057035
 21
22.147365
  0
LINE
  8
ボルト／ビス
  6
CONTINUOUS
 10
147.523703
 20
21.780697
 11
147.457035
 21
21.780697
  0
LINE
  8
ボルト／ビス
  6
CONTINUOUS
 10
147.457035
 20
21.780697
 11
147.457035
 21
22.51403
  0
LINE
  8
ボルト／ビス
  6
CONTINUOUS
 10
147.457035
 20
22.51403
 11
147.523703
 21
22.51403
  0
LINE
  8
ボルト／ビス
  6
CONTINUOUS
 10
147.523703
 20
21.780697
 11
147.523703
 21
22.51403
  0
LINE
  8
ボルト／ビス
  6
CONTINUOUS
 10
147.423703
 20
21.847365
 11
147.457035
 21
21.847365
  0
LINE
  8
ボルト／ビス
  6
CONTINUOUS
 10
147.423703
 20
21.847365
 11
147.423703
 21
22.447365
  0
LINE
  8
ボルト／ビス
  6
CONTINUOUS
 10
147.423703
 20
22.447365
 11
147.457035
 21
22.447365
  0
LINE
  8
ボルト／ビス
  6
CONTINUOUS
 62
    64
 10
147.223703
 20
21.98699
 11
147.235377
 21
21.954915
  0
ARC
  8
ボルト／ビス
  6
CONTINUOUS
 62
    64
 10
147.328678
 20
22.003027
 40
0.104978
 50
152.721967
 51
180.0
  0
ARC
  8
ボルト／ビス
  6
CONTINUOUS
 62
    64
 10
147.626102
 20
22.147365
 40
0.402402
 50
166.165002
 51
193.834985
  0
LINE
  8
ボルト／ビス
  6
CONTINUOUS
 62
    64
 10
147.223703
 20
22.30774
 11
147.235377
 21
22.339815
  0
ARC
  8
ボルト／ビス
  6
CONTINUOUS
 62
    64
 10
147.328678
 20
22.291703
 40
0.104978
 50
180.0
 51
207.278033
  0
LINE
  8
ボルト／ビス
  6
CONTINUOUS
 62
    64
 10
147.223703
 20
21.98699
 11
147.223703
 21
22.30774
  0
LINE
  8
ボルト／ビス
  6
CONTINUOUS
 62
    64
 10
147.235377
 20
22.339815
 11
147.357035
 21
22.339815
  0
LINE
  8
ボルト／ビス
  6
CONTINUOUS
 62
    64
 10
147.235377
 20
22.24359
 11
147.357035
 21
22.24359
  0
LINE
  8
ボルト／ビス
  6
CONTINUOUS
 62
    64
 10
147.235377
 20
21.954915
 11
147.357035
 21
21.954915
  0
LINE
  8
ボルト／ビス
  6
CONTINUOUS
 62
    64
 10
147.235377
 20
22.05114
 11
147.357035
 21
22.05114
  0
LINE
  8
ボルト／ビス
  6
CONTINUOUS
 10
147.357035
 20
21.954915
 11
147.357035
 21
22.339815
  0
LINE
  8
ボルト／ビス
  6
CONTINUOUS
 10
147.357035
 20
21.947365
 11
147.423703
 21
21.947365
  0
LINE
  8
ボルト／ビス
  6
CONTINUOUS
 10
147.357035
 20
21.947365
 11
147.357035
 21
22.347365
  0
LINE
  8
ボルト／ビス
  6
CONTINUOUS
 10
147.357035
 20
22.347365
 11
147.423703
 21
22.347365
  0
ENDBLK
  0
BLOCK
  2
*GRP_0025
 70
    65
 10
0.0
 20
0.0
  0
LINE
  8
ボルト／ビス
  6
CONTINUOUS
 10
147.523703
 20
53.4807
 11
147.057035
 21
53.4807
  0
LINE
  8
ボルト／ビス
  6
CONTINUOUS
 10
147.523703
 20
53.114033
 11
147.457035
 21
53.114033
  0
LINE
  8
ボルト／ビス
  6
CONTINUOUS
 10
147.457035
 20
53.114033
 11
147.457035
 21
53.847365
  0
LINE
  8
ボルト／ビス
  6
CONTINUOUS
 10
147.457035
 20
53.847365
 11
147.523703
 21
53.847365
  0
LINE
  8
ボルト／ビス
  6
CONTINUOUS
 10
147.523703
 20
53.114033
 11
147.523703
 21
53.847365
  0
LINE
  8
ボルト／ビス
  6
CONTINUOUS
 10
147.423703
 20
53.1807
 11
147.457035
 21
53.1807
  0
LINE
  8
ボルト／ビス
  6
CONTINUOUS
 10
147.423703
 20
53.1807
 11
147.423703
 21
53.7807
  0
LINE
  8
ボルト／ビス
  6
CONTINUOUS
 10
147.423703
 20
53.7807
 11
147.457035
 21
53.7807
  0
LINE
  8
ボルト／ビス
  6
CONTINUOUS
 62
    64
 10
147.223703
 20
53.320325
 11
147.235377
 21
53.28825
  0
ARC
  8
ボルト／ビス
  6
CONTINUOUS
 62
    64
 10
147.328678
 20
53.336362
 40
0.104978
 50
152.721967
 51
180.0
  0
ARC
  8
ボルト／ビス
  6
CONTINUOUS
 62
    64
 10
147.626102
 20
53.4807
 40
0.402402
 50
166.165002
 51
193.834985
  0
LINE
  8
ボルト／ビス
  6
CONTINUOUS
 62
    64
 10
147.223703
 20
53.641075
 11
147.235377
 21
53.67315
  0
ARC
  8
ボルト／ビス
  6
CONTINUOUS
 62
    64
 10
147.328678
 20
53.625038
 40
0.104978
 50
180.0
 51
207.278033
  0
LINE
  8
ボルト／ビス
  6
CONTINUOUS
 62
    64
 10
147.223703
 20
53.320325
 11
147.223703
 21
53.641075
  0
LINE
  8
ボルト／ビス
  6
CONTINUOUS
 62
    64
 10
147.235377
 20
53.67315
 11
147.357035
 21
53.67315
  0
LINE
  8
ボルト／ビス
  6
CONTINUOUS
 62
    64
 10
147.235377
 20
53.576925
 11
147.357035
 21
53.576925
  0
LINE
  8
ボルト／ビス
  6
CONTINUOUS
 62
    64
 10
147.235377
 20
53.28825
 11
147.357035
 21
53.28825
  0
LINE
  8
ボルト／ビス
  6
CONTINUOUS
 62
    64
 10
147.235377
 20
53.384475
 11
147.357035
 21
53.384475
  0
LINE
  8
ボルト／ビス
  6
CONTINUOUS
 10
147.357035
 20
53.28825
 11
147.357035
 21
53.67315
  0
LINE
  8
ボルト／ビス
  6
CONTINUOUS
 10
147.357035
 20
53.2807
 11
147.423703
 21
53.2807
  0
LINE
  8
ボルト／ビス
  6
CONTINUOUS
 10
147.357035
 20
53.2807
 11
147.357035
 21
53.6807
  0
LINE
  8
ボルト／ビス
  6
CONTINUOUS
 10
147.357035
 20
53.6807
 11
147.423703
 21
53.6807
  0
ENDBLK
  0
ENDSEC
  0
SECTION
  2
ENTITIES
  0
POLYLINE
  8
通り芯
  6
CONTINUOUS
 66
     1
 70
     1
  0
VERTEX
  8
通り芯
 10
-210.0
 20
-148.5
  0
VERTEX
  8
通り芯
 10
210.0
 20
-148.5
  0
VERTEX
  8
通り芯
 10
210.0
 20
148.5
  0
VERTEX
  8
通り芯
 10
-210.0
 20
148.5
  0
SEQEND
  0
INSERT
  2
*GRP_0001
  8
型材断面
  6
CONTINUOUS
 10
0.0
 20
0.0
  0
LINE
  8
型材断面
  6
DASHDOT
 10
57.990438
 20
-77.836442
 11
57.990438
 21
52.814033
  0
LINE
  8
型材断面
  6
DASHDOT
 10
-8.67623
 20
-77.836442
 11
-8.67623
 21
52.814033
  0
LINE
  8
型材断面
  6
DASHDOT
 10
-75.342895
 20
-77.836442
 11
-75.342895
 21
52.814033
  0
LINE
  8
型材断面
  6
DASHDOT
 10
155.6672
 20
52.814033
 11
-75.342895
 21
52.814033
  0
LINE
  8
型材断面
  6
DASHDOT
 10
155.6672
 20
37.814033
 11
-75.342895
 21
37.814033
  0
LINE
  8
型材断面
  6
DASHDOT
 10
155.6672
 20
22.814033
 11
-75.342895
 21
22.814033
  0
LINE
  8
型材断面
  6
DOT
 10
23.5071
 20
22.814033
 11
23.5071
 21
52.814033
  0
LINE
  8
型材断面
  6
DOT
 10
26.0071
 20
22.814033
 11
26.0071
 21
52.814033
  0
LINE
  8
型材断面
  6
DASHDOT
 10
24.7571
 20
22.814033
 11
24.7571
 21
52.814033
  0
LINE
  8
型材断面
  6
DOT
 10
-40.85956
 20
22.814033
 11
-40.85956
 21
52.814033
  0
LINE
  8
型材断面
  6
DOT
 10
-43.35956
 20
22.814033
 11
-43.35956
 21
52.814033
  0
LINE
  8
型材断面
  6
DASHDOT
 10
-42.10956
 20
22.814033
 11
-42.10956
 21
52.814033
  0
LINE
  8
型材断面
  6
DOT
 10
-7.42623
 20
22.814033
 11
-7.42623
 21
52.814033
  0
LINE
  8
型材断面
  6
DOT
 10
-9.92623
 20
22.814033
 11
-9.92623
 21
52.814033
  0
LINE
  8
型材断面
  6
DASHDOT
 10
-8.67623
 20
22.814033
 11
-8.67623
 21
52.814033
  0
LINE
  8
型材断面
  6
CONTINUOUS
 10
-58.676228
 20
55.444162
 11
-60.171857
 21
58.03467
  0
LINE
  8
型材断面
  6
CONTINUOUS
 10
-58.676228
 20
55.444162
 11
-57.180598
 21
58.03467
  0
LINE
  8
型材断面
  6
CONTINUOUS
 10
-57.180598
 20
58.03467
 11
-60.171857
 21
58.03467
  0
LINE
  8
型材断面
  6
CONTINUOUS
 10
-77.973025
 20
37.814033
 11
-80.563533
 21
39.309663
  0
LINE
  8
型材断面
  6
CONTINUOUS
 10
-77.973025
 20
37.814033
 11
-80.563533
 21
36.318403
  0
LINE
  8
型材断面
  6
CONTINUOUS
 10
-80.563533
 20
36.318403
 11
-80.563533
 21
39.309663
  0
LINE
  8
型材断面
  6
CONTINUOUS
 10
-58.676228
 20
20.183902
 11
-60.171857
 21
17.593395
  0
LINE
  8
型材断面
  6
CONTINUOUS
 10
-58.676228
 20
20.183902
 11
-57.180598
 21
17.593395
  0
LINE
  8
型材断面
  6
CONTINUOUS
 10
-57.180598
 20
17.593395
 11
-60.171857
 21
17.593395
  0
LINE
  8
型材断面
  6
CONTINUOUS
 10
41.323768
 20
55.444162
 11
42.819398
 21
58.03467
  0
LINE
  8
型材断面
  6
CONTINUOUS
 10
41.323768
 20
55.444162
 11
39.828138
 21
58.03467
  0
LINE
  8
型材断面
  6
CONTINUOUS
 10
39.828138
 20
58.03467
 11
42.819398
 21
58.03467
  0
LINE
  8
型材断面
  6
CONTINUOUS
 10
41.323768
 20
20.183902
 11
42.819398
 21
17.593395
  0
LINE
  8
型材断面
  6
CONTINUOUS
 10
41.323768
 20
20.183902
 11
39.828138
 21
17.593395
  0
LINE
  8
型材断面
  6
CONTINUOUS
 10
39.828138
 20
17.593395
 11
42.819398
 21
17.593395
  0
LINE
  8
型材断面
  6
CONTINUOUS
 10
-129.221418
 20
97.32138
 11
-130.717047
 21
94.730873
  0
LINE
  8
型材断面
  6
CONTINUOUS
 10
-129.221418
 20
97.32138
 11
-127.725788
 21
94.730873
  0
LINE
  8
型材断面
  6
CONTINUOUS
 10
-127.725788
 20
94.730873
 11
-130.717047
 21
94.730873
  0
LINE
  8
型材断面
  6
CONTINUOUS
 10
-135.244005
 20
93.792277
 11
-89.002228
 21
93.792277
  0
LINE
  8
型材断面
  6
CONTINUOUS
 10
-135.244005
 20
87.826605
 11
-89.002228
 21
87.826605
  0
LINE
  8
型材断面
  6
CONTINUOUS
 62
    47
 10
150.39037
 20
55.814077
 11
149.890373
 21
55.814077
  0
LINE
  8
型材断面
  6
CONTINUOUS
 62
    47
 10
149.890373
 20
55.814077
 11
149.393193
 21
52.880747
  0
LINE
  8
型材断面
  6
CONTINUOUS
 62
    47
 10
150.39037
 20
55.314087
 11
150.89037
 21
55.314087
  0
LINE
  8
型材断面
  6
CONTINUOUS
 62
    47
 10
149.393193
 20
52.880747
 11
148.523703
 21
52.880747
  0
LINE
  8
型材断面
  6
CONTINUOUS
 10
149.890373
 20
55.814077
 11
149.890373
 21
37.814033
  0
LINE
  8
型材断面
  6
CONTINUOUS
 10
149.393193
 20
52.880747
 11
149.393193
 21
37.814033
  0
LINE
  8
型材断面
  6
CONTINUOUS
 62
    47
 10
150.39037
 20
55.814077
 11
150.39037
 21
37.814033
  0
LINE
  8
型材断面
  6
CONTINUOUS
 10
150.89037
 20
55.314087
 11
150.89037
 21
37.814033
  0
LINE
  8
型材断面
  6
CONTINUOUS
 62
    47
 10
150.39037
 20
19.813988
 11
149.890373
 21
19.813988
  0
LINE
  8
型材断面
  6
CONTINUOUS
 62
    47
 10
149.890373
 20
19.813988
 11
149.393193
 21
22.747317
  0
LINE
  8
型材断面
  6
CONTINUOUS
 62
    47
 10
150.39037
 20
20.313977
 11
150.89037
 21
20.313977
  0
LINE
  8
型材断面
  6
CONTINUOUS
 62
    47
 10
149.393193
 20
22.747317
 11
148.523703
 21
22.747317
  0
LINE
  8
型材断面
  6
CONTINUOUS
 10
149.890373
 20
19.813988
 11
149.890373
 21
37.814033
  0
LINE
  8
型材断面
  6
CONTINUOUS
 10
149.393193
 20
22.747317
 11
149.393193
 21
37.814033
  0
LINE
  8
型材断面
  6
CONTINUOUS
 62
    47
 10
150.39037
 20
19.813988
 11
150.39037
 21
37.814033
  0
LINE
  8
型材断面
  6
CONTINUOUS
 10
150.89037
 20
20.313977
 11
150.89037
 21
37.814033
  0
LINE
  8
型材断面
  6
CONTINUOUS
 62
    47
 10
60.990482
 20
-73.07628
 11
60.990482
 21
-72.576282
  0
LINE
  8
型材断面
  6
CONTINUOUS
 62
    47
 10
60.990482
 20
-72.576282
 11
58.057152
 21
-72.079103
  0
LINE
  8
型材断面
  6
CONTINUOUS
 62
    47
 10
60.490493
 20
-73.07628
 11
60.490493
 21
-73.57628
  0
LINE
  8
型材断面
  6
CONTINUOUS
 62
    47
 10
58.057152
 20
-72.079103
 11
58.057152
 21
-71.209613
  0
LINE
  8
型材断面
  6
CONTINUOUS
 10
60.490493
 20
-73.57628
 11
-8.67623
 21
-73.57628
  0
LINE
  8
型材断面
  6
CONTINUOUS
 62
    47
 10
60.990482
 20
-73.07628
 11
-8.67623
 21
-73.07628
  0
LINE
  8
型材断面
  6
CONTINUOUS
 10
58.057152
 20
-72.079103
 11
-8.67623
 21
-72.079103
  0
LINE
  8
型材断面
  6
CONTINUOUS
 10
60.990482
 20
-72.576282
 11
-8.67623
 21
-72.576282
  0
LINE
  8
型材断面
  6
CONTINUOUS
 62
    47
 10
-78.342943
 20
-73.07628
 11
-78.342943
 21
-72.576282
  0
LINE
  8
型材断面
  6
CONTINUOUS
 62
    47
 10
-78.342943
 20
-72.576282
 11
-75.409613
 21
-72.079103
  0
LINE
  8
型材断面
  6
CONTINUOUS
 62
    47
 10
-77.842952
 20
-73.07628
 11
-77.842952
 21
-73.57628
  0
LINE
  8
型材断面
  6
CONTINUOUS
 62
    47
 10
-75.409613
 20
-72.079103
 11
-75.409613
 21
-71.209613
  0
LINE
  8
型材断面
  6
CONTINUOUS
 10
-77.842952
 20
-73.57628
 11
-8.67623
 21
-73.57628
  0
LINE
  8
型材断面
  6
CONTINUOUS
 62
    47
 10
-78.342943
 20
-73.07628
 11
-8.67623
 21
-73.07628
  0
LINE
  8
型材断面
  6
CONTINUOUS
 10
-75.409613
 20
-72.079103
 11
-8.67623
 21
-72.079103
  0
LINE
  8
型材断面
  6
CONTINUOUS
 10
-78.342943
 20
-72.576282
 11
-8.67623
 21
-72.576282
  0
TEXT
  7
TextStyle03
  8
文字
  6
CONTINUOUS
 10
134.525
 20
-76.7
  1
網入り6.8t
 40
3.0
 72
     5
 11
151.2125
 21
-76.7
  0
TEXT
  7
TextStyle03
  8
文字
  6
CONTINUOUS
 10
141.2
 20
-81.375
  1
×４枚
 40
3.0
 72
     5
 11
150.95
 21
-81.375
  0
TEXT
  7
TextStyle03
  8
文字
  6
CONTINUOUS
 10
-126.45
 20
94.925
  1
は排水穴位置を示す
 40
3.0
 72
     5
 11
-96.45
 21
94.925
  0
TEXT
  7
TextStyle03
  8
文字
  6
CONTINUOUS
 10
-96.35
 20
16.275
  1
アンカーピッチ
 40
3.0
 50
90.0
 72
     5
 11
-96.35
 21
39.525
  0
TEXT
  7
TextStyle03
  8
文字
  6
CONTINUOUS
 10
-67.25
 20
90.825
  1
アンカーピッチ
 40
3.0
 72
     5
 11
-44.0
 21
90.825
  0
TEXT
  7
TextStyle03
  8
文字
  6
CONTINUOUS
 10
-130.175
 20
88.725
  1
アンカー数量　１６ヶ所
 40
3.0
 72
     5
 11
-93.425
 21
88.725
  0
TEXT
  7
TextStyle03
  8
文字
  6
CONTINUOUS
 10
78.1
 20
125.25
  1
シリーズ：ＴＤ２ＫＬ
 40
5.0
 72
     5
 11
133.725
 21
125.25
  0
TEXT
  7
TextStyle03
  8
文字
  6
CONTINUOUS
 10
78.1
 20
119.625
  1
　　　　　（固定）900×4000タイプ
 40
5.0
 72
     5
 11
170.2875
 21
119.625
  0
TEXT
  7
TextStyle03
  8
文字
  6
CONTINUOUS
 10
78.1
 20
114.0
  1
図面名　：外観姿図
 40
5.0
 72
     5
 11
128.1
 21
114.0
  0
TEXT
  7
TextStyle03
  8
文字
  6
CONTINUOUS
 10
78.1
 20
108.375
  1
　　　　　　
 40
5.0
 72
     5
 11
111.225
 21
108.375
  0
TEXT
  7
TextStyle03
  8
文字
  6
CONTINUOUS
 10
77.65
 20
103.925
  1
ＮＳコード：ＮＳＫＺＬ
 40
5.0
 72
     5
 11
138.9
 21
103.925
  0
INSERT
  2
*DIM_0002
  8
寸法
  6
CONTINUOUS
 10
0.0
 20
0.0
  0
INSERT
  2
*DIM_0003
  8
寸法
  6
CONTINUOUS
 10
0.0
 20
0.0
  0
INSERT
  2
*DIM_0004
  8
寸法
  6
CONTINUOUS
 10
0.0
 20
0.0
  0
INSERT
  2
*DIM_0005
  8
寸法
  6
CONTINUOUS
 10
0.0
 20
0.0
  0
INSERT
  2
*DIM_0006
  8
寸法
  6
CONTINUOUS
 10
0.0
 20
0.0
  0
INSERT
  2
*DIM_0008
  8
寸法
  6
CONTINUOUS
 10
0.0
 20
0.0
  0
INSERT
  2
*DIM_0009
  8
寸法
  6
CONTINUOUS
 10
0.0
 20
0.0
  0
INSERT
  2
*DIM_0010
  8
寸法
  6
CONTINUOUS
 10
0.0
 20
0.0
  0
INSERT
  2
*DIM_0011
  8
寸法
  6
CONTINUOUS
 10
0.0
 20
0.0
  0
INSERT
  2
*DIM_0012
  8
寸法
  6
CONTINUOUS
 10
0.0
 20
0.0
  0
INSERT
  2
*DIM_0013
  8
寸法
  6
CONTINUOUS
 10
0.0
 20
0.0
  0
INSERT
  2
*DIM_0014
  8
寸法
  6
CONTINUOUS
 10
0.0
 20
0.0
  0
LINE
  8
寸法
  6
CONTINUOUS
 10
60.990482
 20
19.813988
 11
60.990482
 21
37.814033
  0
LINE
  8
寸法
  6
CONTINUOUS
 10
60.057105
 20
20.747365
 11
60.990482
 21
19.813988
  0
LINE
  8
寸法
  6
CONTINUOUS
 10
60.990482
 20
19.813988
 11
-8.67623
 21
19.814007
  0
LINE
  8
寸法
  6
CONTINUOUS
 10
60.990482
 20
55.814077
 11
60.990482
 21
37.814033
  0
LINE
  8
寸法
  6
CONTINUOUS
 10
60.057105
 20
54.8807
 11
60.990482
 21
55.814077
  0
LINE
  8
寸法
  6
CONTINUOUS
 10
60.990482
 20
55.814077
 11
-8.67623
 21
55.814057
  0
LINE
  8
寸法
  6
CONTINUOUS
 10
-78.342943
 20
55.814077
 11
-78.342943
 21
37.814033
  0
LINE
  8
寸法
  6
CONTINUOUS
 10
-77.409565
 20
54.8807
 11
-78.342943
 21
55.814077
  0
LINE
  8
寸法
  6
CONTINUOUS
 10
-78.342943
 20
55.814077
 11
-8.67623
 21
55.814057
  0
LINE
  8
寸法
  6
CONTINUOUS
 10
-78.342943
 20
19.813988
 11
-78.342943
 21
37.814033
  0
LINE
  8
寸法
  6
CONTINUOUS
 10
-77.409565
 20
20.747365
 11
-78.342943
 21
19.813988
  0
LINE
  8
寸法
  6
CONTINUOUS
 10
-78.342943
 20
19.813988
 11
-8.67623
 21
19.814007
  0
INSERT
  2
*DIM_0015
  8
寸法
  6
CONTINUOUS
 10
0.0
 20
0.0
  0
INSERT
  2
*DIM_0016
  8
寸法
  6
CONTINUOUS
 10
0.0
 20
0.0
  0
INSERT
  2
*DIM_0017
  8
寸法
  6
CONTINUOUS
 10
0.0
 20
0.0
  0
INSERT
  2
*DIM_0018
  8
寸法
  6
CONTINUOUS
 10
0.0
 20
0.0
  0
INSERT
  2
*DIM_0019
  8
寸法
  6
CONTINUOUS
 10
0.0
 20
0.0
  0
INSERT
  2
*DIM_0020
  8
寸法
  6
CONTINUOUS
 10
0.0
 20
0.0
  0
INSERT
  2
*DIM_0021
  8
寸法
  6
CONTINUOUS
 10
0.0
 20
0.0
  0
LINE
  8
別途部材
  6
CONTINUOUS
 10
60.057105
 20
20.747365
 11
59.657105
 21
21.147365
  0
LINE
  8
別途部材
  6
CONTINUOUS
 10
57.990438
 20
22.814033
 11
49.931183
 21
30.87329
  0
LINE
  8
別途部材
  6
CONTINUOUS
 10
59.657105
 20
21.147365
 11
59.657105
 21
37.814033
  0
LINE
  8
別途部材
  6
CONTINUOUS
 10
60.057105
 20
20.747365
 11
60.057105
 21
37.814033
  0
LINE
  8
別途部材
  6
CONTINUOUS
 10
60.057105
 20
54.8807
 11
59.657105
 21
54.4807
  0
LINE
  8
別途部材
  6
CONTINUOUS
 10
57.990438
 20
52.814033
 11
49.931183
 21
44.754775
  0
LINE
  8
別途部材
  6
CONTINUOUS
 10
59.657105
 20
54.4807
 11
59.657105
 21
37.814033
  0
LINE
  8
別途部材
  6
CONTINUOUS
 10
60.057105
 20
54.8807
 11
60.057105
 21
37.814033
  0
LINE
  8
別途部材
  6
CONTINUOUS
 10
59.657105
 20
54.4807
 11
-8.67623
 21
54.4807
  0
LINE
  8
別途部材
  6
CONTINUOUS
 10
60.057105
 20
54.8807
 11
-8.67623
 21
54.8807
  0
LINE
  8
別途部材
  6
CONTINUOUS
 10
60.057105
 20
20.747365
 11
-8.67623
 21
20.747365
  0
LINE
  8
別途部材
  6
CONTINUOUS
 10
59.657105
 20
21.147365
 11
-8.67623
 21
21.147365
  0
LINE
  8
別途部材
  6
CONTINUOUS
 10
-77.409565
 20
20.747365
 11
-77.009565
 21
21.147365
  0
LINE
  8
別途部材
  6
CONTINUOUS
 10
-75.342897
 20
22.814033
 11
-67.283643
 21
30.87329
  0
LINE
  8
別途部材
  6
CONTINUOUS
 10
-77.009565
 20
21.147365
 11
-77.009565
 21
37.814033
  0
LINE
  8
別途部材
  6
CONTINUOUS
 10
-77.409565
 20
20.747365
 11
-77.409565
 21
37.814033
  0
LINE
  8
別途部材
  6
CONTINUOUS
 10
-77.409565
 20
54.8807
 11
-77.009565
 21
54.4807
  0
LINE
  8
別途部材
  6
CONTINUOUS
 10
-75.342897
 20
52.814033
 11
-67.283643
 21
44.754775
  0
LINE
  8
別途部材
  6
CONTINUOUS
 10
-77.009565
 20
54.4807
 11
-77.009565
 21
37.814033
  0
LINE
  8
別途部材
  6
CONTINUOUS
 10
-77.409565
 20
54.8807
 11
-77.409565
 21
37.814033
  0
LINE
  8
別途部材
  6
CONTINUOUS
 10
-77.009565
 20
54.4807
 11
-8.67623
 21
54.4807
  0
LINE
  8
別途部材
  6
CONTINUOUS
 10
-77.409565
 20
54.8807
 11
-8.67623
 21
54.8807
  0
LINE
  8
別途部材
  6
CONTINUOUS
 10
-77.409565
 20
20.747365
 11
-8.67623
 21
20.747365
  0
LINE
  8
別途部材
  6
CONTINUOUS
 10
-77.009565
 20
21.147365
 11
-8.67623
 21
21.147365
  0
INSERT
  2
*GRP_0007
  8
別途部材
  6
CONTINUOUS
 10
0.0
 20
0.0
  0
LINE
  8
別途部材
  6
CONTINUOUS
 62
    96
 10
147.523703
 20
21.147365
 11
148.523703
 21
20.747365
  0
LINE
  8
別途部材
  6
CONTINUOUS
 62
    96
 10
147.523703
 20
21.147365
 11
147.523703
 21
37.814033
  0
LINE
  8
別途部材
  6
CONTINUOUS
 10
148.523703
 20
20.747365
 11
148.523703
 21
37.814033
  0
LINE
  8
別途部材
  6
CONTINUOUS
 62
    96
 10
147.523703
 20
54.4807
 11
148.523703
 21
54.8807
  0
LINE
  8
別途部材
  6
CONTINUOUS
 62
    96
 10
147.523703
 20
54.4807
 11
147.523703
 21
37.814033
  0
LINE
  8
別途部材
  6
CONTINUOUS
 10
148.523703
 20
54.8807
 11
148.523703
 21
37.814033
  0
ARC
  8
別途部材
  6
CONTINUOUS
 10
156.857037
 20
37.814033
 40
17.666667
 50
121.890796
 51
238.109204
  0
INSERT
  2
*GRP_0022
  8
別途部材
  6
DOT
 10
0.0
 20
0.0
  0
INSERT
  2
*GRP_0023
  8
別途部材
  6
DOT
 10
0.0
 20
0.0
  0
INSERT
  2
*GRP_0024
  8
別途部材
  6
DOT
 10
0.0
 20
0.0
  0
INSERT
  2
*GRP_0025
  8
別途部材
  6
DOT
 10
0.0
 20
0.0
  0
LINE
  8
曲げ物
  6
CONTINUOUS
 10
153.076993
 20
-83.118728
 11
153.076993
 21
-53.785395
  0
LINE
  8
曲げ物
  6
CONTINUOUS
 10
120.710325
 20
-83.118728
 11
120.710325
 21
-53.785395
  0
LINE
  8
曲げ物
  6
CONTINUOUS
 10
153.076993
 20
-53.785395
 11
120.710325
 21
-53.785395
  0
LINE
  8
曲げ物
  6
CONTINUOUS
 10
153.076993
 20
-83.118728
 11
120.710325
 21
-83.118728
  0
CIRCLE
  8
LAYER010
  6
CONTINUOUS
 62
     7
 10
149.890373
 20
55.814077
 40
0.011113
  0
CIRCLE
  8
LAYER010
  6
CONTINUOUS
 62
     7
 10
149.890373
 20
55.814077
 40
0.011113
  0
CIRCLE
  8
LAYER010
  6
CONTINUOUS
 62
     7
 10
149.890373
 20
19.813988
 40
0.011113
  0
CIRCLE
  8
LAYER010
  6
CONTINUOUS
 62
     7
 10
149.890373
 20
19.813988
 40
0.011113
  0
CIRCLE
  8
LAYER010
  6
CONTINUOUS
 62
     7
 10
60.990482
 20
-72.576282
 40
0.011113
  0
CIRCLE
  8
LAYER010
  6
CONTINUOUS
 62
     7
 10
60.990482
 20
-72.576282
 40
0.011113
  0
CIRCLE
  8
LAYER010
  6
CONTINUOUS
 62
     7
 10
-78.342943
 20
-72.576282
 40
0.011113
  0
CIRCLE
  8
LAYER010
  6
CONTINUOUS
 62
     7
 10
-78.342943
 20
-72.576282
 40
0.011113
  0
ENDSEC
  0
EOF
