  0
SECTION
  2
HEADER
  9
$EXTMIN
 10
-210.0
 20
-148.5
  9
$EXTMAX
 10
210.0
 20
148.5
  9
$PDMODE
 70
    32
  9
$PDSIZE
 40
1.5
  9
$LTSCALE
 40
10.0
  0
ENDSEC
  0
SECTION
  2
TABLES
  0
TABLE
  2
LTYPE
 70
    15
  0
LTYPE
  2
CONTINUOUS
 70
    64
  3
実線
 72
    65
 73
     0
 40
0.0
  0
LTYPE
  2
DASHED
 70
    64
  3
破線A
 72
    65
 73
     2
 40
0.6
 49
0.4
 49
-0.2
  0
LTYPE
  2
DASHEDX2
 70
    64
  3
破線B
 72
    65
 73
     2
 40
1.3
 49
0.9
 49
-0.4
  0
LTYPE
  2
DASHDOT
 70
    64
  3
１点鎖線A
 72
    65
 73
     4
 40
0.5375
 49
0.375
 49
-0.05
 49
0.0625
 49
-0.05
  0
LTYPE
  2
DASHDOTX2
 70
    64
  3
１点鎖線B
 72
    65
 73
     4
 40
1.075
 49
0.75
 49
-0.1
 49
0.125
 49
-0.1
  0
LTYPE
  2
DIVIDE2
 70
    64
  3
２点鎖線A
 72
    65
 73
     6
 40
0.5125
 49
0.3
 49
-0.0375
 49
0.05
 49
-0.0375
 49
0.05
 49
-0.0375
  0
LTYPE
  2
DIVIDE
 70
    64
  3
２点鎖線B
 72
    65
 73
     6
 40
1.05
 49
0.55
 49
-0.1
 49
0.1
 49
-0.1
 49
0.1
 49
-0.1
  0
LTYPE
  2
DOT
 70
    64
  3
点線A
 72
    65
 73
     2
 40
0.1125
 49
0.0625
 49
-0.05
  0
LTYPE
  2
DOTX2
 70
    64
  3
点線B
 72
    65
 73
     2
 40
0.275
 49
0.15
 49
-0.125
  0
LTYPE
  2
CONTINUOUS
 70
    64
  3
実線
 72
    65
 73
     0
 40
0.0
  0
LTYPE
  2
CONTINUOUS
 70
    64
  3
実線
 72
    65
 73
     0
 40
0.0
  0
LTYPE
  2
CONTINUOUS
 70
    64
  3
実線
 72
    65
 73
     0
 40
0.0
  0
LTYPE
  2
CONTINUOUS
 70
    64
  3
実線
 72
    65
 73
     0
 40
0.0
  0
LTYPE
  2
CONTINUOUS
 70
    64
  3
実線
 72
    65
 73
     0
 40
0.0
  0
LTYPE
  2
CONTINUOUS
 70
    64
  3
実線
 72
    65
 73
     0
 40
0.0
  0
ENDTAB
  0
TABLE
  2
LAYER
 70
    35
  0
LAYER
  2
通り芯
 70
     0
 62
    15
  6
CONTINUOUS
  0
LAYER
  2
補助線
 70
     0
 62
    16
  6
DOT
  0
LAYER
  2
躯体
 70
     0
 62
    31
  6
CONTINUOUS
  0
LAYER
  2
型材
 70
     0
 62
    32
  6
CONTINUOUS
  0
LAYER
  2
型材断面
 70
     0
 62
    47
  6
CONTINUOUS
  0
LAYER
  2
ガラス
 70
     0
 62
    48
  6
CONTINUOUS
  0
LAYER
  2
ゴム等
 70
     0
 62
    63
  6
CONTINUOUS
  0
LAYER
  2
ボルト／ビス
 70
     0
 62
    64
  6
CONTINUOUS
  0
LAYER
  2
文字
 70
     0
 62
    79
  6
CONTINUOUS
  0
LAYER
  2
寸法
 70
     0
 62
    80
  6
CONTINUOUS
  0
LAYER
  2
ﾊｯﾁﾝｸﾞ
 70
     0
 62
    95
  6
CONTINUOUS
  0
LAYER
  2
別途部材
 70
     0
 62
    96
  6
CONTINUOUS
  0
LAYER
  2
曲げ物
 70
     0
 62
   111
  6
CONTINUOUS
  0
LAYER
  2
鉄骨等
 70
     0
 62
   112
  6
CONTINUOUS
  0
LAYER
  2
St
 70
     0
 62
   127
  6
CONTINUOUS
  0
LAYER
  2
その他部品等
 70
     0
 62
   128
  6
CONTINUOUS
  0
LAYER
  2
ｶﾞｽｹｯﾄ
 70
     0
 62
   143
  6
CONTINUOUS
  0
LAYER
  2
ｽｹｯﾁ
 70
     0
 62
    14
  6
CONTINUOUS
  0
LAYER
  2
0
 70
     0
 62
    17
  6
CONTINUOUS
  0
LAYER
  2
1
 70
     0
 62
    30
  6
CONTINUOUS
  0
LAYER
  2
4
 70
     0
 62
    33
  6
CONTINUOUS
  0
LAYER
  2
ﾚｲﾔ3
 70
     0
 62
    46
  6
CONTINUOUS
  0
LAYER
  2
外形線
 70
     0
 62
    49
  6
CONTINUOUS
  0
LAYER
  2
部品
 70
     0
 62
    14
  6
CONTINUOUS
  0
LAYER
  2
サッシ芯
 70
     0
 62
    17
  6
DASHDOTX2
  0
LAYER
  2
寸法線
 70
     0
 62
    62
  6
CONTINUOUS
  0
LAYER
  2
姿図外形線
 70
     0
 62
    65
  6
CONTINUOUS
  0
LAYER
  2
姿補助線
 70
     0
 62
    30
  6
CONTINUOUS
  0
LAYER
  2
透視線
 70
     0
 62
    78
  6
DOT
  0
LAYER
  2
用紙
 70
     0
 62
    81
  6
CONTINUOUS
  0
LAYER
  2
実線図枠
 70
     0
 62
    94
  6
CONTINUOUS
  0
LAYER
  2
補助図枠
 70
     0
 62
    97
  6
CONTINUOUS
  0
LAYER
  2
建具記号
 70
     0
 62
   110
  6
CONTINUOUS
  0
LAYER
  2
補助文字
 70
     0
 62
   113
  6
CONTINUOUS
  0
LAYER
  2
LAYER010
 70
     0
 62
    11
  6
CONTINUOUS
  0
ENDTAB
  0
TABLE
  2
STYLE
 70
    10
  0
STYLE
  2
STANDARD
 70
     0
 40
1.0
 41
1.0
 42
1.0
 50
0.0
 71
     0
  3
TXT
  4
BIGFONT
  0
STYLE
  2
TATE
 70
     4
 40
1.0
 41
1.0
 42
1.0
 50
0.0
 71
     0
  3
TXT
  4
BIGFONT
  0
STYLE
  2
TextStyle03
 70
     0
 40
1.0
 41
1.0
 42
1.0
 50
0.0
 71
     0
  3
MONOTXT
  4
BIGFONT
  0
STYLE
  2
TextStyle04
 70
     0
 40
1.0
 41
1.0
 42
1.0
 50
0.0
 71
     0
  3
MONOTXT
  4
BIGFONT
  0
STYLE
  2
TextStyle05
 70
     0
 40
1.0
 41
1.0
 42
1.0
 50
0.0
 71
     0
  3
MONOTXT
  4
BIGFONT
  0
STYLE
  2
TextStyle06
 70
     0
 40
1.0
 41
1.0
 42
1.0
 50
0.0
 71
     0
  3
MONOTXT
  4
BIGFONT
  0
STYLE
  2
TextStyle07
 70
     0
 40
1.0
 41
1.0
 42
1.0
 50
0.0
 71
     0
  3
MONOTXT
  4
BIGFONT
  0
STYLE
  2
TextStyle08
 70
     0
 40
1.0
 41
1.0
 42
1.0
 50
0.0
 71
     0
  3
MONOTXT
  4
BIGFONT
  0
STYLE
  2
TextStyle09
 70
     0
 40
1.0
 41
1.0
 42
1.0
 50
0.0
 71
     0
  3
MONOTXT
  4
BIGFONT
  0
STYLE
  2
TextStyle10
 70
     0
 40
1.0
 41
1.0
 42
1.0
 50
0.0
 71
     0
  3
MONOTXT
  4
BIGFONT
  0
ENDTAB
  0
ENDSEC
  0
SECTION
  2
BLOCKS
  0
BLOCK
  2
*GRP_0001
 70
    65
 10
0.0
 20
0.0
  0
LINE
  8
型材断面
  6
CONTINUOUS
 10
195.0
 20
133.5
 11
195.0
 21
-133.5
  0
LINE
  8
型材断面
  6
CONTINUOUS
 10
195.0
 20
-133.5
 11
-185.0
 21
-133.5
  0
LINE
  8
型材断面
  6
CONTINUOUS
 10
-185.0
 20
-133.5
 11
-185.0
 21
133.5
  0
LINE
  8
型材断面
  6
CONTINUOUS
 10
195.0
 20
133.5
 11
-185.0
 21
133.5
  0
LINE
  8
型材断面
  6
CONTINUOUS
 10
145.0
 20
-133.5
 11
145.0
 21
-118.5
  0
LINE
  8
型材断面
  6
CONTINUOUS
 10
195.0
 20
-118.5
 11
145.0
 21
-118.5
  0
ENDBLK
  0
BLOCK
  2
*DIM_0002
 70
    65
 10
0.0
 20
0.0
  0
LINE
  8
寸法
  6
BYBLOCK
 62
     0
 10
-4.287135
 20
-64.87628
 11
20.682515
 21
-64.87628
  0
LINE
  8
寸法
  6
BYBLOCK
 62
     0
 10
20.682515
 20
-70.209613
 11
20.682515
 21
-64.87628
  0
POINT
  8
寸法
 62
     0
 10
20.682515
 20
-70.209613
  0
POINT
  8
寸法
 62
     0
 10
20.682515
 20
-64.87628
  0
TEXT
  7
TextStyle03
  8
寸法
  6
CONTINUOUS
 62
     0
 10
20.3
 20
-69.9875
  1
160
 40
3.0
 50
90.0
 72
     5
 11
20.3
 21
-65.1125
  0
ENDBLK
  0
BLOCK
  2
*DIM_0003
 70
    65
 10
0.0
 20
0.0
  0
LINE
  8
寸法
  6
BYBLOCK
 62
     0
 10
100.79942
 20
-63.785395
 11
108.91095
 21
-63.785395
  0
LINE
  8
寸法
  6
BYBLOCK
 62
     0
 10
100.79942
 20
-83.118728
 11
108.91095
 21
-83.118728
  0
LINE
  8
寸法
  6
BYBLOCK
 62
     0
 10
108.91095
 20
-63.785395
 11
108.91095
 21
-83.118728
  0
POINT
  8
寸法
 62
     0
 10
108.91095
 20
-63.785395
  0
POINT
  8
寸法
 62
     0
 10
108.91095
 20
-83.118728
  0
TEXT
  7
TextStyle03
  8
寸法
  6
CONTINUOUS
 62
     0
 10
108.525
 20
-75.9125
  1
580
 40
3.0
 50
90.0
 72
     5
 11
108.525
 21
-71.0375
  0
ENDBLK
  0
BLOCK
  2
*DIM_0004
 70
    65
 10
0.0
 20
0.0
  0
LINE
  8
寸法
  6
BYBLOCK
 62
     0
 10
-61.953802
 20
-16.511205
 11
-61.953802
 21
-13.121378
  0
LINE
  8
寸法
  6
BYBLOCK
 62
     0
 10
4.712865
 20
-13.121378
 11
-61.953802
 21
-13.121378
  0
POINT
  8
寸法
 62
     0
 10
4.712865
 20
-13.121378
  0
POINT
  8
寸法
 62
     0
 10
-61.953802
 20
-13.121378
  0
TEXT
  7
TextStyle03
  8
寸法
  6
CONTINUOUS
 62
     0
 10
-40.34375
 20
-12.75
  1
呼称寸法　2000
 40
3.0
 72
     5
 11
-16.90625
 21
-12.75
  0
ENDBLK
  0
BLOCK
  2
*DIM_0005
 70
    65
 10
0.0
 20
0.0
  0
LINE
  8
寸法
  6
BYBLOCK
 62
     0
 10
67.332753
 20
-62.785395
 11
67.332753
 21
-53.993445
  0
LINE
  8
寸法
  6
BYBLOCK
 62
     0
 10
99.79942
 20
-62.785395
 11
99.79942
 21
-53.993445
  0
LINE
  8
寸法
  6
BYBLOCK
 62
     0
 10
67.332753
 20
-53.993445
 11
99.79942
 21
-53.993445
  0
POINT
  8
寸法
 62
     0
 10
67.332753
 20
-53.993445
  0
POINT
  8
寸法
 62
     0
 10
99.79942
 20
-53.993445
  0
TEXT
  7
TextStyle03
  8
寸法
  6
CONTINUOUS
 62
     0
 10
81.1125
 20
-53.625
  1
974
 40
3.0
 72
     5
 11
85.9875
 21
-53.625
  0
ENDBLK
  0
BLOCK
  2
*DIM_0006
 70
    65
 10
0.0
 20
0.0
  0
LINE
  8
寸法
  6
BYBLOCK
 62
     0
 10
-45.287135
 20
19.183902
 11
-45.287135
 21
14.182178
  0
LINE
  8
寸法
  6
BYBLOCK
 62
     0
 10
-11.9538
 20
19.183902
 11
-11.9538
 21
14.182178
  0
LINE
  8
寸法
  6
BYBLOCK
 62
     0
 10
-45.287135
 20
14.182178
 11
-11.9538
 21
14.182178
  0
POINT
  8
寸法
 62
     0
 10
-45.287135
 20
14.182178
  0
POINT
  8
寸法
 62
     0
 10
-11.9538
 20
14.182178
  0
TEXT
  7
TextStyle03
  8
寸法
  6
CONTINUOUS
 62
     0
 10
-31.90625
 20
14.55
  1
1000
 40
3.0
 72
     5
 11
-25.34375
 21
14.55
  0
ENDBLK
  0
BLOCK
  2
*GRP_0007
 70
    65
 10
0.0
 20
0.0
  0
LINE
  8
別途部材
  6
CONTINUOUS
 62
    96
 10
-63.620467
 20
-70.209613
 11
-64.020467
 21
-71.209613
  0
ARC
  8
別途部材
  6
CONTINUOUS
 10
-51.953803
 20
-76.917952
 40
12.041668
 50
90.0
 51
146.144967
  0
LINE
  8
別途部材
  6
CONTINUOUS
 10
-64.020467
 20
-71.209613
 11
-28.620467
 21
-71.209613
  0
LINE
  8
別途部材
  6
CONTINUOUS
 62
    96
 10
-63.620467
 20
-70.209613
 11
-28.620467
 21
-70.209613
  0
LINE
  8
別途部材
  6
CONTINUOUS
 10
-29.120467
 20
-63.87628
 11
-30.120467
 21
-64.87628
  0
LINE
  8
別途部材
  6
CONTINUOUS
 10
-31.120467
 20
-64.87628
 11
-32.120467
 21
-63.87628
  0
LINE
  8
別途部材
  6
CONTINUOUS
 10
-33.120467
 20
-63.87628
 11
-34.120467
 21
-64.87628
  0
LINE
  8
別途部材
  6
CONTINUOUS
 10
-32.120467
 20
-63.87628
 11
-33.120467
 21
-63.87628
  0
LINE
  8
別途部材
  6
CONTINUOUS
 10
-29.120467
 20
-63.87628
 11
-28.620467
 21
-63.87628
  0
LINE
  8
別途部材
  6
CONTINUOUS
 10
-35.120467
 20
-64.87628
 11
-36.120467
 21
-63.87628
  0
LINE
  8
別途部材
  6
CONTINUOUS
 10
-37.120467
 20
-63.87628
 11
-38.120467
 21
-64.87628
  0
LINE
  8
別途部材
  6
CONTINUOUS
 10
-36.120467
 20
-63.87628
 11
-37.120467
 21
-63.87628
  0
LINE
  8
別途部材
  6
CONTINUOUS
 10
-39.120467
 20
-64.87628
 11
-40.120467
 21
-63.87628
  0
LINE
  8
別途部材
  6
CONTINUOUS
 10
-41.120467
 20
-63.87628
 11
-42.120467
 21
-64.87628
  0
LINE
  8
別途部材
  6
CONTINUOUS
 10
-40.120467
 20
-63.87628
 11
-41.120467
 21
-63.87628
  0
LINE
  8
別途部材
  6
CONTINUOUS
 10
-43.120467
 20
-64.87628
 11
-44.120467
 21
-63.87628
  0
LINE
  8
別途部材
  6
CONTINUOUS
 10
-45.120467
 20
-63.87628
 11
-46.120467
 21
-64.87628
  0
LINE
  8
別途部材
  6
CONTINUOUS
 10
-44.120467
 20
-63.87628
 11
-45.120467
 21
-63.87628
  0
LINE
  8
別途部材
  6
CONTINUOUS
 10
-47.120467
 20
-64.87628
 11
-48.120467
 21
-63.87628
  0
LINE
  8
別途部材
  6
CONTINUOUS
 10
-49.120467
 20
-63.87628
 11
-50.120467
 21
-64.87628
  0
LINE
  8
別途部材
  6
CONTINUOUS
 10
-48.120467
 20
-63.87628
 11
-49.120467
 21
-63.87628
  0
LINE
  8
別途部材
  6
CONTINUOUS
 10
-46.120467
 20
-64.87628
 11
-47.120467
 21
-64.87628
  0
LINE
  8
別途部材
  6
CONTINUOUS
 10
-42.120467
 20
-64.87628
 11
-43.120467
 21
-64.87628
  0
LINE
  8
別途部材
  6
CONTINUOUS
 10
-38.120467
 20
-64.87628
 11
-39.120467
 21
-64.87628
  0
LINE
  8
別途部材
  6
CONTINUOUS
 10
-34.120467
 20
-64.87628
 11
-35.120467
 21
-64.87628
  0
LINE
  8
別途部材
  6
CONTINUOUS
 10
-31.120467
 20
-64.87628
 11
-30.120467
 21
-64.87628
  0
LINE
  8
別途部材
  6
CONTINUOUS
 10
-49.120467
 20
-63.87628
 11
-49.120467
 21
-70.209613
  0
LINE
  8
別途部材
  6
CONTINUOUS
 10
-48.120467
 20
-63.87628
 11
-48.120467
 21
-70.209613
  0
LINE
  8
別途部材
  6
CONTINUOUS
 10
-50.120467
 20
-64.87628
 11
-50.120467
 21
-70.209613
  0
LINE
  8
別途部材
  6
CONTINUOUS
 10
-47.120467
 20
-64.87628
 11
-47.120467
 21
-70.209613
  0
LINE
  8
別途部材
  6
CONTINUOUS
 10
-45.120467
 20
-63.87628
 11
-45.120467
 21
-70.209613
  0
LINE
  8
別途部材
  6
CONTINUOUS
 10
-44.120467
 20
-63.87628
 11
-44.120467
 21
-70.209613
  0
LINE
  8
別途部材
  6
CONTINUOUS
 10
-43.120467
 20
-64.87628
 11
-43.120467
 21
-70.209613
  0
LINE
  8
別途部材
  6
CONTINUOUS
 10
-42.120467
 20
-64.87628
 11
-42.120467
 21
-70.209613
  0
LINE
  8
別途部材
  6
CONTINUOUS
 10
-41.120467
 20
-63.87628
 11
-41.120467
 21
-70.209613
  0
LINE
  8
別途部材
  6
CONTINUOUS
 10
-46.120467
 20
-64.87628
 11
-46.120467
 21
-70.209613
  0
LINE
  8
別途部材
  6
CONTINUOUS
 10
-40.120467
 20
-63.87628
 11
-40.120467
 21
-70.209613
  0
LINE
  8
別途部材
  6
CONTINUOUS
 10
-39.120467
 20
-64.87628
 11
-39.120467
 21
-70.209613
  0
LINE
  8
別途部材
  6
CONTINUOUS
 10
-38.120467
 20
-64.87628
 11
-38.120467
 21
-70.209613
  0
LINE
  8
別途部材
  6
CONTINUOUS
 10
-36.120467
 20
-63.87628
 11
-36.120467
 21
-70.209613
  0
LINE
  8
別途部材
  6
CONTINUOUS
 10
-34.120467
 20
-64.87628
 11
-34.120467
 21
-70.209613
  0
LINE
  8
別途部材
  6
CONTINUOUS
 10
-33.120467
 20
-63.87628
 11
-33.120467
 21
-70.209613
  0
LINE
  8
別途部材
  6
CONTINUOUS
 10
-31.120467
 20
-64.87628
 11
-31.120467
 21
-70.209613
  0
LINE
  8
別途部材
  6
CONTINUOUS
 10
-30.120467
 20
-64.87628
 11
-30.120467
 21
-70.209613
  0
LINE
  8
別途部材
  6
CONTINUOUS
 10
-29.120467
 20
-63.87628
 11
-29.120467
 21
-70.209613
  0
LINE
  8
別途部材
  6
CONTINUOUS
 10
-32.120467
 20
-63.87628
 11
-32.120467
 21
-70.209613
  0
LINE
  8
別途部材
  6
CONTINUOUS
 10
-35.120467
 20
-64.87628
 11
-35.120467
 21
-70.209613
  0
LINE
  8
別途部材
  6
CONTINUOUS
 10
-37.120467
 20
-63.87628
 11
-37.120467
 21
-70.209613
  0
LINE
  8
別途部材
  6
CONTINUOUS
 10
-50.120467
 20
-64.87628
 11
-51.9538
 21
-64.87628
  0
LINE
  8
別途部材
  6
CONTINUOUS
 62
    96
 10
6.379532
 20
-70.209613
 11
6.779532
 21
-71.209613
  0
ARC
  8
別途部材
  6
CONTINUOUS
 10
-5.287132
 20
-76.917952
 40
12.041668
 50
33.855033
 51
90.0
  0
LINE
  8
別途部材
  6
CONTINUOUS
 10
6.779532
 20
-71.209613
 11
-28.620467
 21
-71.209613
  0
LINE
  8
別途部材
  6
CONTINUOUS
 62
    96
 10
6.379532
 20
-70.209613
 11
-28.620467
 21
-70.209613
  0
LINE
  8
別途部材
  6
CONTINUOUS
 10
-28.120467
 20
-63.87628
 11
-27.120467
 21
-64.87628
  0
LINE
  8
別途部材
  6
CONTINUOUS
 10
-26.120467
 20
-64.87628
 11
-25.120467
 21
-63.87628
  0
LINE
  8
別途部材
  6
CONTINUOUS
 10
-24.120467
 20
-63.87628
 11
-23.120467
 21
-64.87628
  0
LINE
  8
別途部材
  6
CONTINUOUS
 10
-25.120467
 20
-63.87628
 11
-24.120467
 21
-63.87628
  0
LINE
  8
別途部材
  6
CONTINUOUS
 10
-28.120467
 20
-63.87628
 11
-28.620467
 21
-63.87628
  0
LINE
  8
別途部材
  6
CONTINUOUS
 10
-22.120467
 20
-64.87628
 11
-21.120467
 21
-63.87628
  0
LINE
  8
別途部材
  6
CONTINUOUS
 10
-20.120467
 20
-63.87628
 11
-19.120467
 21
-64.87628
  0
LINE
  8
別途部材
  6
CONTINUOUS
 10
-21.120467
 20
-63.87628
 11
-20.120467
 21
-63.87628
  0
LINE
  8
別途部材
  6
CONTINUOUS
 10
-18.120467
 20
-64.87628
 11
-17.120467
 21
-63.87628
  0
LINE
  8
別途部材
  6
CONTINUOUS
 10
-16.120467
 20
-63.87628
 11
-15.120467
 21
-64.87628
  0
LINE
  8
別途部材
  6
CONTINUOUS
 10
-17.120467
 20
-63.87628
 11
-16.120467
 21
-63.87628
  0
LINE
  8
別途部材
  6
CONTINUOUS
 10
-14.120467
 20
-64.87628
 11
-13.120467
 21
-63.87628
  0
LINE
  8
別途部材
  6
CONTINUOUS
 10
-12.120467
 20
-63.87628
 11
-11.120467
 21
-64.87628
  0
LINE
  8
別途部材
  6
CONTINUOUS
 10
-13.120467
 20
-63.87628
 11
-12.120467
 21
-63.87628
  0
LINE
  8
別途部材
  6
CONTINUOUS
 10
-10.120467
 20
-64.87628
 11
-9.120467
 21
-63.87628
  0
LINE
  8
別途部材
  6
CONTINUOUS
 10
-8.120467
 20
-63.87628
 11
-7.120467
 21
-64.87628
  0
LINE
  8
別途部材
  6
CONTINUOUS
 10
-9.120467
 20
-63.87628
 11
-8.120467
 21
-63.87628
  0
LINE
  8
別途部材
  6
CONTINUOUS
 10
-11.120467
 20
-64.87628
 11
-10.120467
 21
-64.87628
  0
LINE
  8
別途部材
  6
CONTINUOUS
 10
-15.120467
 20
-64.87628
 11
-14.120467
 21
-64.87628
  0
LINE
  8
別途部材
  6
CONTINUOUS
 10
-19.120467
 20
-64.87628
 11
-18.120467
 21
-64.87628
  0
LINE
  8
別途部材
  6
CONTINUOUS
 10
-23.120467
 20
-64.87628
 11
-22.120467
 21
-64.87628
  0
LINE
  8
別途部材
  6
CONTINUOUS
 10
-26.120467
 20
-64.87628
 11
-27.120467
 21
-64.87628
  0
LINE
  8
別途部材
  6
CONTINUOUS
 10
-8.120467
 20
-63.87628
 11
-8.120467
 21
-70.209613
  0
LINE
  8
別途部材
  6
CONTINUOUS
 10
-9.120467
 20
-63.87628
 11
-9.120467
 21
-70.209613
  0
LINE
  8
別途部材
  6
CONTINUOUS
 10
-7.120467
 20
-64.87628
 11
-7.120467
 21
-70.209613
  0
LINE
  8
別途部材
  6
CONTINUOUS
 10
-10.120467
 20
-64.87628
 11
-10.120467
 21
-70.209613
  0
LINE
  8
別途部材
  6
CONTINUOUS
 10
-12.120467
 20
-63.87628
 11
-12.120467
 21
-70.209613
  0
LINE
  8
別途部材
  6
CONTINUOUS
 10
-13.120467
 20
-63.87628
 11
-13.120467
 21
-70.209613
  0
LINE
  8
別途部材
  6
CONTINUOUS
 10
-14.120467
 20
-64.87628
 11
-14.120467
 21
-70.209613
  0
LINE
  8
別途部材
  6
CONTINUOUS
 10
-15.120467
 20
-64.87628
 11
-15.120467
 21
-70.209613
  0
LINE
  8
別途部材
  6
CONTINUOUS
 10
-16.120467
 20
-63.87628
 11
-16.120467
 21
-70.209613
  0
LINE
  8
別途部材
  6
CONTINUOUS
 10
-11.120467
 20
-64.87628
 11
-11.120467
 21
-70.209613
  0
LINE
  8
別途部材
  6
CONTINUOUS
 10
-17.120467
 20
-63.87628
 11
-17.120467
 21
-70.209613
  0
LINE
  8
別途部材
  6
CONTINUOUS
 10
-18.120467
 20
-64.87628
 11
-18.120467
 21
-70.209613
  0
LINE
  8
別途部材
  6
CONTINUOUS
 10
-19.120467
 20
-64.87628
 11
-19.120467
 21
-70.209613
  0
LINE
  8
別途部材
  6
CONTINUOUS
 10
-21.120467
 20
-63.87628
 11
-21.120467
 21
-70.209613
  0
LINE
  8
別途部材
  6
CONTINUOUS
 10
-23.120467
 20
-64.87628
 11
-23.120467
 21
-70.209613
  0
LINE
  8
別途部材
  6
CONTINUOUS
 10
-24.120467
 20
-63.87628
 11
-24.120467
 21
-70.209613
  0
LINE
  8
別途部材
  6
CONTINUOUS
 10
-26.120467
 20
-64.87628
 11
-26.120467
 21
-70.209613
  0
LINE
  8
別途部材
  6
CONTINUOUS
 10
-27.120467
 20
-64.87628
 11
-27.120467
 21
-70.209613
  0
LINE
  8
別途部材
  6
CONTINUOUS
 10
-28.120467
 20
-63.87628
 11
-28.120467
 21
-70.209613
  0
LINE
  8
別途部材
  6
CONTINUOUS
 10
-25.120467
 20
-63.87628
 11
-25.120467
 21
-70.209613
  0
LINE
  8
別途部材
  6
CONTINUOUS
 10
-22.120467
 20
-64.87628
 11
-22.120467
 21
-70.209613
  0
LINE
  8
別途部材
  6
CONTINUOUS
 10
-20.120467
 20
-63.87628
 11
-20.120467
 21
-70.209613
  0
LINE
  8
別途部材
  6
CONTINUOUS
 10
-7.120467
 20
-64.87628
 11
-5.287135
 21
-64.87628
  0
ENDBLK
  0
BLOCK
  2
*DIM_0008
 70
    65
 10
0.0
 20
0.0
  0
LINE
  8
寸法
  6
BYBLOCK
 62
     0
 10
38.732515
 20
22.814033
 11
38.732515
 21
42.814033
  0
POINT
  8
寸法
 62
     0
 10
38.732515
 20
22.814033
  0
POINT
  8
寸法
 62
     0
 10
38.732515
 20
42.814033
  0
TEXT
  7
TextStyle03
  8
寸法
  6
CONTINUOUS
 62
     0
 10
38.375
 20
21.925
  1
呼称寸法　600
 40
3.0
 50
90.0
 72
     5
 11
38.375
 21
43.675
  0
ENDBLK
  0
BLOCK
  2
*DIM_0009
 70
    65
 10
0.0
 20
0.0
  0
LINE
  8
寸法
  6
BYBLOCK
 62
     0
 10
88.912797
 20
33.814033
 11
88.912797
 21
60.666798
  0
LINE
  8
寸法
  6
BYBLOCK
 62
     0
 10
94.24613
 20
60.666798
 11
88.912797
 21
60.666798
  0
POINT
  8
寸法
 62
     0
 10
94.24613
 20
60.666798
  0
POINT
  8
寸法
 62
     0
 10
88.912797
 20
60.666798
  0
TEXT
  7
TextStyle03
  8
寸法
  6
CONTINUOUS
 62
     0
 10
89.1625
 20
61.025
  1
160
 40
3.0
 72
     5
 11
94.0375
 21
61.025
  0
ENDBLK
  0
BLOCK
  2
*DIM_0010
 70
    65
 10
0.0
 20
0.0
  0
LINE
  8
寸法
  6
BYBLOCK
 62
     0
 10
94.24613
 20
45.4807
 11
94.24613
 21
60.666798
  0
LINE
  8
寸法
  6
BYBLOCK
 62
     0
 10
97.112797
 20
46.814077
 11
97.112797
 21
60.666798
  0
LINE
  8
寸法
  6
BYBLOCK
 62
     0
 10
94.24613
 20
60.666798
 11
97.112797
 21
60.666798
  0
POINT
  8
寸法
 62
     0
 10
94.24613
 20
60.666798
  0
POINT
  8
寸法
 62
     0
 10
97.112797
 20
60.666798
  0
TEXT
  7
TextStyle03
  8
寸法
  6
CONTINUOUS
 62
     0
 10
97.50625
 20
61.025
  1
86
 40
3.0
 72
     5
 11
100.69375
 21
61.025
  0
ENDBLK
  0
BLOCK
  2
*DIM_0011
 70
    65
 10
0.0
 20
0.0
  0
LINE
  8
寸法
  6
BYBLOCK
 62
     0
 10
95.6128
 20
19.813988
 11
38.732515
 21
19.813988
  0
LINE
  8
寸法
  6
BYBLOCK
 62
     0
 10
38.732515
 20
22.814033
 11
38.732515
 21
19.813988
  0
POINT
  8
寸法
 62
     0
 10
38.732515
 20
22.814033
  0
POINT
  8
寸法
 62
     0
 10
38.732515
 20
19.813988
  0
TEXT
  7
TextStyle03
  8
寸法
  6
CONTINUOUS
 62
     0
 10
38.4
 20
16.33125
  1
90
 40
3.0
 50
90.0
 72
     5
 11
38.4
 21
19.51875
  0
ENDBLK
  0
BLOCK
  2
*DIM_0012
 70
    65
 10
0.0
 20
0.0
  0
LINE
  8
寸法
  6
BYBLOCK
 62
     0
 10
95.6128
 20
45.814077
 11
38.732515
 21
45.814077
  0
LINE
  8
寸法
  6
BYBLOCK
 62
     0
 10
38.732515
 20
42.814033
 11
38.732515
 21
45.814077
  0
POINT
  8
寸法
 62
     0
 10
38.732515
 20
42.814033
  0
POINT
  8
寸法
 62
     0
 10
38.732515
 20
45.814077
  0
TEXT
  7
TextStyle03
  8
寸法
  6
CONTINUOUS
 62
     0
 10
38.4
 20
46.08125
  1
90
 40
3.0
 50
90.0
 72
     5
 11
38.4
 21
49.26875
  0
ENDBLK
  0
BLOCK
  2
*DIM_0013
 70
    65
 10
0.0
 20
0.0
  0
LINE
  8
寸法
  6
BYBLOCK
 62
     0
 10
7.379532
 20
-70.209613
 11
20.682515
 21
-70.209613
  0
LINE
  8
寸法
  6
BYBLOCK
 62
     0
 10
8.71291
 20
-73.07628
 11
20.682515
 21
-73.07628
  0
LINE
  8
寸法
  6
BYBLOCK
 62
     0
 10
20.682515
 20
-70.209613
 11
20.682515
 21
-73.07628
  0
POINT
  8
寸法
 62
     0
 10
20.682515
 20
-70.209613
  0
POINT
  8
寸法
 62
     0
 10
20.682515
 20
-73.07628
  0
TEXT
  7
TextStyle03
  8
寸法
  6
CONTINUOUS
 62
     0
 10
20.35
 20
-76.61875
  1
86
 40
3.0
 50
90.0
 72
     5
 11
20.35
 21
-73.43125
  0
ENDBLK
  0
BLOCK
  2
*DIM_0014
 70
    65
 10
0.0
 20
0.0
  0
LINE
  8
寸法
  6
BYBLOCK
 62
     0
 10
7.71291
 20
-71.576282
 11
7.71291
 21
-13.121378
  0
LINE
  8
寸法
  6
BYBLOCK
 62
     0
 10
4.712865
 20
-13.121378
 11
7.71291
 21
-13.121378
  0
POINT
  8
寸法
 62
     0
 10
4.712865
 20
-13.121378
  0
POINT
  8
寸法
 62
     0
 10
7.71291
 20
-13.121378
  0
TEXT
  7
TextStyle03
  8
寸法
  6
CONTINUOUS
 62
     0
 10
8.03125
 20
-12.75
  1
90
 40
3.0
 72
     5
 11
11.21875
 21
-12.75
  0
ENDBLK
  0
BLOCK
  2
*DIM_0015
 70
    65
 10
0.0
 20
0.0
  0
LINE
  8
寸法
  6
BYBLOCK
 62
     0
 10
-64.953845
 20
-71.576282
 11
-64.953845
 21
-13.121378
  0
LINE
  8
寸法
  6
BYBLOCK
 62
     0
 10
-61.953802
 20
-13.121378
 11
-64.953845
 21
-13.121378
  0
POINT
  8
寸法
 62
     0
 10
-61.953802
 20
-13.121378
  0
POINT
  8
寸法
 62
     0
 10
-64.953845
 20
-13.121378
  0
TEXT
  7
TextStyle03
  8
寸法
  6
CONTINUOUS
 62
     0
 10
-68.44375
 20
-12.75
  1
90
 40
3.0
 72
     5
 11
-65.25625
 21
-12.75
  0
ENDBLK
  0
BLOCK
  2
*DIM_0016
 70
    65
 10
0.0
 20
0.0
  0
LINE
  8
寸法
  6
BYBLOCK
 62
     0
 10
-64.953802
 20
39.4807
 11
-78.24664
 21
39.4807
  0
LINE
  8
寸法
  6
BYBLOCK
 62
     0
 10
-64.953802
 20
26.147365
 11
-78.24664
 21
26.147365
  0
LINE
  8
寸法
  6
BYBLOCK
 62
     0
 10
-78.24664
 20
39.4807
 11
-78.24664
 21
26.147365
  0
POINT
  8
寸法
 62
     0
 10
-78.24664
 20
39.4807
  0
POINT
  8
寸法
 62
     0
 10
-78.24664
 20
26.147365
  0
TEXT
  7
TextStyle03
  8
寸法
  6
CONTINUOUS
 62
     0
 10
-78.7
 20
30.3625
  1
400
 40
3.0
 50
90.0
 72
     5
 11
-78.7
 21
35.2375
  0
ENDBLK
  0
BLOCK
  2
*DIM_0017
 70
    65
 10
0.0
 20
0.0
  0
LINE
  8
寸法
  6
BYBLOCK
 62
     0
 10
-51.9538
 20
45.814033
 11
-51.9538
 21
74.741653
  0
LINE
  8
寸法
  6
BYBLOCK
 62
     0
 10
-28.620467
 20
45.814033
 11
-28.620467
 21
74.741653
  0
LINE
  8
寸法
  6
BYBLOCK
 62
     0
 10
-51.9538
 20
74.741653
 11
-28.620467
 21
74.741653
  0
POINT
  8
寸法
 62
     0
 10
-51.9538
 20
74.741653
  0
POINT
  8
寸法
 62
     0
 10
-28.620467
 20
74.741653
  0
TEXT
  7
TextStyle03
  8
寸法
  6
CONTINUOUS
 62
     0
 10
-42.7375
 20
75.125
  1
700
 40
3.0
 72
     5
 11
-37.8625
 21
75.125
  0
ENDBLK
  0
BLOCK
  2
*DIM_0018
 70
    65
 10
0.0
 20
0.0
  0
LINE
  8
寸法
  6
BYBLOCK
 62
     0
 10
-5.287135
 20
45.814033
 11
-5.287135
 21
74.741653
  0
LINE
  8
寸法
  6
BYBLOCK
 62
     0
 10
-28.620467
 20
74.741653
 11
-5.287135
 21
74.741653
  0
POINT
  8
寸法
 62
     0
 10
-5.287135
 20
74.741653
  0
TEXT
  7
TextStyle03
  8
寸法
  6
CONTINUOUS
 62
     0
 10
-19.4125
 20
75.125
  1
700
 40
3.0
 72
     5
 11
-14.5375
 21
75.125
  0
ENDBLK
  0
BLOCK
  2
*GRP_0019
 70
    65
 10
0.0
 20
0.0
  0
LINE
  8
ボルト／ビス
  6
CONTINUOUS
 10
-62.620467
 20
-70.209613
 11
-62.620467
 21
-69.742947
  0
LINE
  8
ボルト／ビス
  6
CONTINUOUS
 10
-62.987135
 20
-70.209613
 11
-62.987135
 21
-70.142947
  0
LINE
  8
ボルト／ビス
  6
CONTINUOUS
 10
-62.987135
 20
-70.142947
 11
-62.2538
 21
-70.142947
  0
LINE
  8
ボルト／ビス
  6
CONTINUOUS
 10
-62.2538
 20
-70.142947
 11
-62.2538
 21
-70.209613
  0
LINE
  8
ボルト／ビス
  6
CONTINUOUS
 10
-62.987135
 20
-70.209613
 11
-62.2538
 21
-70.209613
  0
LINE
  8
ボルト／ビス
  6
CONTINUOUS
 10
-62.920467
 20
-70.109612
 11
-62.920467
 21
-70.142947
  0
LINE
  8
ボルト／ビス
  6
CONTINUOUS
 10
-62.920467
 20
-70.109612
 11
-62.320467
 21
-70.109612
  0
LINE
  8
ボルト／ビス
  6
CONTINUOUS
 10
-62.320467
 20
-70.109612
 11
-62.320467
 21
-70.142947
  0
LINE
  8
ボルト／ビス
  6
CONTINUOUS
 62
    64
 10
-62.780843
 20
-69.909613
 11
-62.812918
 21
-69.921288
  0
ARC
  8
ボルト／ビス
  6
CONTINUOUS
 62
    64
 10
-62.764804
 20
-70.014592
 40
0.104978
 50
62.721967
 51
90.0
  0
ARC
  8
ボルト／ビス
  6
CONTINUOUS
 62
    64
 10
-62.620466
 20
-70.312016
 40
0.402402
 50
76.165002
 51
103.834985
  0
LINE
  8
ボルト／ビス
  6
CONTINUOUS
 62
    64
 10
-62.460092
 20
-69.909613
 11
-62.428017
 21
-69.921288
  0
ARC
  8
ボルト／ビス
  6
CONTINUOUS
 62
    64
 10
-62.476129
 20
-70.014592
 40
0.104978
 50
90.0
 51
117.278033
  0
LINE
  8
ボルト／ビス
  6
CONTINUOUS
 62
    64
 10
-62.780843
 20
-69.909613
 11
-62.460092
 21
-69.909613
  0
LINE
  8
ボルト／ビス
  6
CONTINUOUS
 62
    64
 10
-62.428017
 20
-69.921288
 11
-62.428017
 21
-70.042947
  0
LINE
  8
ボルト／ビス
  6
CONTINUOUS
 62
    64
 10
-62.524243
 20
-69.921288
 11
-62.524243
 21
-70.042947
  0
LINE
  8
ボルト／ビス
  6
CONTINUOUS
 62
    64
 10
-62.812918
 20
-69.921288
 11
-62.812918
 21
-70.042947
  0
LINE
  8
ボルト／ビス
  6
CONTINUOUS
 62
    64
 10
-62.716693
 20
-69.921288
 11
-62.716693
 21
-70.042947
  0
LINE
  8
ボルト／ビス
  6
CONTINUOUS
 10
-62.812918
 20
-70.042947
 11
-62.428017
 21
-70.042947
  0
LINE
  8
ボルト／ビス
  6
CONTINUOUS
 10
-62.820467
 20
-70.042947
 11
-62.820467
 21
-70.109612
  0
LINE
  8
ボルト／ビス
  6
CONTINUOUS
 10
-62.820467
 20
-70.042947
 11
-62.420467
 21
-70.042947
  0
LINE
  8
ボルト／ビス
  6
CONTINUOUS
 10
-62.420467
 20
-70.042947
 11
-62.420467
 21
-70.109612
  0
ENDBLK
  0
BLOCK
  2
*GRP_0020
 70
    65
 10
0.0
 20
0.0
  0
LINE
  8
ボルト／ビス
  6
CONTINUOUS
 10
5.379532
 20
-70.209613
 11
5.379532
 21
-69.742947
  0
LINE
  8
ボルト／ビス
  6
CONTINUOUS
 10
5.012865
 20
-70.209613
 11
5.012865
 21
-70.142947
  0
LINE
  8
ボルト／ビス
  6
CONTINUOUS
 10
5.012865
 20
-70.142947
 11
5.7462
 21
-70.142947
  0
LINE
  8
ボルト／ビス
  6
CONTINUOUS
 10
5.7462
 20
-70.142947
 11
5.7462
 21
-70.209613
  0
LINE
  8
ボルト／ビス
  6
CONTINUOUS
 10
5.012865
 20
-70.209613
 11
5.7462
 21
-70.209613
  0
LINE
  8
ボルト／ビス
  6
CONTINUOUS
 10
5.079532
 20
-70.109612
 11
5.079532
 21
-70.142947
  0
LINE
  8
ボルト／ビス
  6
CONTINUOUS
 10
5.079532
 20
-70.109612
 11
5.679532
 21
-70.109612
  0
LINE
  8
ボルト／ビス
  6
CONTINUOUS
 10
5.679532
 20
-70.109612
 11
5.679532
 21
-70.142947
  0
LINE
  8
ボルト／ビス
  6
CONTINUOUS
 62
    64
 10
5.219158
 20
-69.909613
 11
5.187082
 21
-69.921288
  0
ARC
  8
ボルト／ビス
  6
CONTINUOUS
 62
    64
 10
5.235196
 20
-70.014592
 40
0.104978
 50
62.721967
 51
90.0
  0
ARC
  8
ボルト／ビス
  6
CONTINUOUS
 62
    64
 10
5.379534
 20
-70.312016
 40
0.402402
 50
76.165002
 51
103.834985
  0
LINE
  8
ボルト／ビス
  6
CONTINUOUS
 62
    64
 10
5.539907
 20
-69.909613
 11
5.571983
 21
-69.921288
  0
ARC
  8
ボルト／ビス
  6
CONTINUOUS
 62
    64
 10
5.523871
 20
-70.014592
 40
0.104978
 50
90.0
 51
117.278033
  0
LINE
  8
ボルト／ビス
  6
CONTINUOUS
 62
    64
 10
5.219158
 20
-69.909613
 11
5.539907
 21
-69.909613
  0
LINE
  8
ボルト／ビス
  6
CONTINUOUS
 62
    64
 10
5.571983
 20
-69.921288
 11
5.571983
 21
-70.042947
  0
LINE
  8
ボルト／ビス
  6
CONTINUOUS
 62
    64
 10
5.475757
 20
-69.921288
 11
5.475757
 21
-70.042947
  0
LINE
  8
ボルト／ビス
  6
CONTINUOUS
 62
    64
 10
5.187082
 20
-69.921288
 11
5.187082
 21
-70.042947
  0
LINE
  8
ボルト／ビス
  6
CONTINUOUS
 62
    64
 10
5.283308
 20
-69.921288
 11
5.283308
 21
-70.042947
  0
LINE
  8
ボルト／ビス
  6
CONTINUOUS
 10
5.187082
 20
-70.042947
 11
5.571983
 21
-70.042947
  0
LINE
  8
ボルト／ビス
  6
CONTINUOUS
 10
5.179532
 20
-70.042947
 11
5.179532
 21
-70.109612
  0
LINE
  8
ボルト／ビス
  6
CONTINUOUS
 10
5.179532
 20
-70.042947
 11
5.579532
 21
-70.042947
  0
LINE
  8
ボルト／ビス
  6
CONTINUOUS
 10
5.579532
 20
-70.042947
 11
5.579532
 21
-70.109612
  0
ENDBLK
  0
BLOCK
  2
*GRP_0021
 70
    65
 10
0.0
 20
0.0
  0
LINE
  8
ボルト／ビス
  6
CONTINUOUS
 10
94.24613
 20
22.147365
 11
93.779465
 21
22.147365
  0
LINE
  8
ボルト／ビス
  6
CONTINUOUS
 10
94.24613
 20
21.780697
 11
94.179465
 21
21.780697
  0
LINE
  8
ボルト／ビス
  6
CONTINUOUS
 10
94.179465
 20
21.780697
 11
94.179465
 21
22.514033
  0
LINE
  8
ボルト／ビス
  6
CONTINUOUS
 10
94.179465
 20
22.514033
 11
94.24613
 21
22.514033
  0
LINE
  8
ボルト／ビス
  6
CONTINUOUS
 10
94.24613
 20
21.780697
 11
94.24613
 21
22.514033
  0
LINE
  8
ボルト／ビス
  6
CONTINUOUS
 10
94.14613
 20
21.847365
 11
94.179465
 21
21.847365
  0
LINE
  8
ボルト／ビス
  6
CONTINUOUS
 10
94.14613
 20
21.847365
 11
94.14613
 21
22.447365
  0
LINE
  8
ボルト／ビス
  6
CONTINUOUS
 10
94.14613
 20
22.447365
 11
94.179465
 21
22.447365
  0
LINE
  8
ボルト／ビス
  6
CONTINUOUS
 62
    64
 10
93.94613
 20
21.98699
 11
93.957805
 21
21.954915
  0
ARC
  8
ボルト／ビス
  6
CONTINUOUS
 62
    64
 10
94.051107
 20
22.003031
 40
0.104978
 50
152.721967
 51
180.0
  0
ARC
  8
ボルト／ビス
  6
CONTINUOUS
 62
    64
 10
94.348531
 20
22.147368
 40
0.402402
 50
166.165002
 51
193.834985
  0
LINE
  8
ボルト／ビス
  6
CONTINUOUS
 62
    64
 10
93.94613
 20
22.30774
 11
93.957805
 21
22.339815
  0
ARC
  8
ボルト／ビス
  6
CONTINUOUS
 62
    64
 10
94.051107
 20
22.291706
 40
0.104978
 50
180.0
 51
207.278033
  0
LINE
  8
ボルト／ビス
  6
CONTINUOUS
 62
    64
 10
93.94613
 20
21.98699
 11
93.94613
 21
22.30774
  0
LINE
  8
ボルト／ビス
  6
CONTINUOUS
 62
    64
 10
93.957805
 20
22.339815
 11
94.079465
 21
22.339815
  0
LINE
  8
ボルト／ビス
  6
CONTINUOUS
 62
    64
 10
93.957805
 20
22.24359
 11
94.079465
 21
22.24359
  0
LINE
  8
ボルト／ビス
  6
CONTINUOUS
 62
    64
 10
93.957805
 20
21.954915
 11
94.079465
 21
21.954915
  0
LINE
  8
ボルト／ビス
  6
CONTINUOUS
 62
    64
 10
93.957805
 20
22.05114
 11
94.079465
 21
22.05114
  0
LINE
  8
ボルト／ビス
  6
CONTINUOUS
 10
94.079465
 20
21.954915
 11
94.079465
 21
22.339815
  0
LINE
  8
ボルト／ビス
  6
CONTINUOUS
 10
94.079465
 20
21.947365
 11
94.14613
 21
21.947365
  0
LINE
  8
ボルト／ビス
  6
CONTINUOUS
 10
94.079465
 20
21.947365
 11
94.079465
 21
22.347365
  0
LINE
  8
ボルト／ビス
  6
CONTINUOUS
 10
94.079465
 20
22.347365
 11
94.14613
 21
22.347365
  0
ENDBLK
  0
BLOCK
  2
*GRP_0022
 70
    65
 10
0.0
 20
0.0
  0
LINE
  8
ボルト／ビス
  6
CONTINUOUS
 10
94.24613
 20
43.4807
 11
93.779465
 21
43.4807
  0
LINE
  8
ボルト／ビス
  6
CONTINUOUS
 10
94.24613
 20
43.114033
 11
94.179465
 21
43.114033
  0
LINE
  8
ボルト／ビス
  6
CONTINUOUS
 10
94.179465
 20
43.114033
 11
94.179465
 21
43.847367
  0
LINE
  8
ボルト／ビス
  6
CONTINUOUS
 10
94.179465
 20
43.847367
 11
94.24613
 21
43.847367
  0
LINE
  8
ボルト／ビス
  6
CONTINUOUS
 10
94.24613
 20
43.114033
 11
94.24613
 21
43.847367
  0
LINE
  8
ボルト／ビス
  6
CONTINUOUS
 10
94.14613
 20
43.1807
 11
94.179465
 21
43.1807
  0
LINE
  8
ボルト／ビス
  6
CONTINUOUS
 10
94.14613
 20
43.1807
 11
94.14613
 21
43.7807
  0
LINE
  8
ボルト／ビス
  6
CONTINUOUS
 10
94.14613
 20
43.7807
 11
94.179465
 21
43.7807
  0
LINE
  8
ボルト／ビス
  6
CONTINUOUS
 62
    64
 10
93.94613
 20
43.320325
 11
93.957805
 21
43.28825
  0
ARC
  8
ボルト／ビス
  6
CONTINUOUS
 62
    64
 10
94.051107
 20
43.336366
 40
0.104978
 50
152.721967
 51
180.0
  0
ARC
  8
ボルト／ビス
  6
CONTINUOUS
 62
    64
 10
94.348531
 20
43.480703
 40
0.402402
 50
166.165002
 51
193.834985
  0
LINE
  8
ボルト／ビス
  6
CONTINUOUS
 62
    64
 10
93.94613
 20
43.641075
 11
93.957805
 21
43.67315
  0
ARC
  8
ボルト／ビス
  6
CONTINUOUS
 62
    64
 10
94.051107
 20
43.625041
 40
0.104978
 50
180.0
 51
207.278033
  0
LINE
  8
ボルト／ビス
  6
CONTINUOUS
 62
    64
 10
93.94613
 20
43.320325
 11
93.94613
 21
43.641075
  0
LINE
  8
ボルト／ビス
  6
CONTINUOUS
 62
    64
 10
93.957805
 20
43.67315
 11
94.079465
 21
43.67315
  0
LINE
  8
ボルト／ビス
  6
CONTINUOUS
 62
    64
 10
93.957805
 20
43.576925
 11
94.079465
 21
43.576925
  0
LINE
  8
ボルト／ビス
  6
CONTINUOUS
 62
    64
 10
93.957805
 20
43.28825
 11
94.079465
 21
43.28825
  0
LINE
  8
ボルト／ビス
  6
CONTINUOUS
 62
    64
 10
93.957805
 20
43.384475
 11
94.079465
 21
43.384475
  0
LINE
  8
ボルト／ビス
  6
CONTINUOUS
 10
94.079465
 20
43.28825
 11
94.079465
 21
43.67315
  0
LINE
  8
ボルト／ビス
  6
CONTINUOUS
 10
94.079465
 20
43.2807
 11
94.14613
 21
43.2807
  0
LINE
  8
ボルト／ビス
  6
CONTINUOUS
 10
94.079465
 20
43.2807
 11
94.079465
 21
43.6807
  0
LINE
  8
ボルト／ビス
  6
CONTINUOUS
 10
94.079465
 20
43.6807
 11
94.14613
 21
43.6807
  0
ENDBLK
  0
ENDSEC
  0
SECTION
  2
ENTITIES
  0
POLYLINE
  8
通り芯
  6
CONTINUOUS
 66
     1
 70
     1
  0
VERTEX
  8
通り芯
 10
-210.0
 20
-148.5
  0
VERTEX
  8
通り芯
 10
210.0
 20
-148.5
  0
VERTEX
  8
通り芯
 10
210.0
 20
148.5
  0
VERTEX
  8
通り芯
 10
-210.0
 20
148.5
  0
SEQEND
  0
INSERT
  2
*GRP_0001
  8
型材断面
  6
CONTINUOUS
 10
0.0
 20
0.0
  0
LINE
  8
型材断面
  6
DASHDOT
 10
4.712865
 20
-77.836442
 11
4.712865
 21
42.814033
  0
LINE
  8
型材断面
  6
DASHDOT
 10
-28.620467
 20
-77.836442
 11
-28.620467
 21
42.814033
  0
LINE
  8
型材断面
  6
DASHDOT
 10
-61.953802
 20
-77.836442
 11
-61.953802
 21
42.814033
  0
LINE
  8
型材断面
  6
DASHDOT
 10
102.389627
 20
42.814033
 11
-61.953802
 21
42.814033
  0
LINE
  8
型材断面
  6
DASHDOT
 10
102.389627
 20
32.814033
 11
-61.953802
 21
32.814033
  0
LINE
  8
型材断面
  6
DASHDOT
 10
102.389627
 20
22.814033
 11
-61.953802
 21
22.814033
  0
LINE
  8
型材断面
  6
DOT
 10
-27.370467
 20
22.814033
 11
-27.370467
 21
42.814033
  0
LINE
  8
型材断面
  6
DASHDOT
 10
-28.620467
 20
22.814033
 11
-28.620467
 21
42.814033
  0
LINE
  8
型材断面
  6
DOT
 10
-29.870467
 20
22.814033
 11
-29.870467
 21
42.814033
  0
LINE
  8
型材断面
  6
CONTINUOUS
 10
-45.287135
 20
45.444162
 11
-46.782765
 21
48.03467
  0
LINE
  8
型材断面
  6
CONTINUOUS
 10
-45.287135
 20
45.444162
 11
-43.791505
 21
48.03467
  0
LINE
  8
型材断面
  6
CONTINUOUS
 10
-43.791505
 20
48.03467
 11
-46.782765
 21
48.03467
  0
LINE
  8
型材断面
  6
CONTINUOUS
 10
-102.80601
 20
87.32138
 11
-104.30164
 21
84.730873
  0
LINE
  8
型材断面
  6
CONTINUOUS
 10
-102.80601
 20
87.32138
 11
-101.31038
 21
84.730873
  0
LINE
  8
型材断面
  6
CONTINUOUS
 10
-101.31038
 20
84.730873
 11
-104.30164
 21
84.730873
  0
LINE
  8
型材断面
  6
CONTINUOUS
 10
-108.828597
 20
83.792277
 11
-62.58682
 21
83.792277
  0
LINE
  8
型材断面
  6
CONTINUOUS
 10
-64.583932
 20
32.814033
 11
-67.17444
 21
34.309663
  0
LINE
  8
型材断面
  6
CONTINUOUS
 10
-64.583932
 20
32.814033
 11
-67.17444
 21
31.318403
  0
LINE
  8
型材断面
  6
CONTINUOUS
 10
-67.17444
 20
31.318403
 11
-67.17444
 21
34.309663
  0
LINE
  8
型材断面
  6
CONTINUOUS
 10
-45.287135
 20
20.183902
 11
-46.782765
 21
17.593395
  0
LINE
  8
型材断面
  6
CONTINUOUS
 10
-45.287135
 20
20.183902
 11
-43.791505
 21
17.593395
  0
LINE
  8
型材断面
  6
CONTINUOUS
 10
-43.791505
 20
17.593395
 11
-46.782765
 21
17.593395
  0
LINE
  8
型材断面
  6
CONTINUOUS
 10
-11.9538
 20
45.444162
 11
-10.45817
 21
48.03467
  0
LINE
  8
型材断面
  6
CONTINUOUS
 10
-11.9538
 20
45.444162
 11
-13.44943
 21
48.03467
  0
LINE
  8
型材断面
  6
CONTINUOUS
 10
-13.44943
 20
48.03467
 11
-10.45817
 21
48.03467
  0
LINE
  8
型材断面
  6
CONTINUOUS
 10
7.342997
 20
32.814033
 11
9.933505
 21
34.309663
  0
LINE
  8
型材断面
  6
CONTINUOUS
 10
7.342997
 20
32.814033
 11
9.933505
 21
31.318403
  0
LINE
  8
型材断面
  6
CONTINUOUS
 10
9.933505
 20
31.318403
 11
9.933505
 21
34.309663
  0
LINE
  8
型材断面
  6
CONTINUOUS
 10
-11.9538
 20
20.183902
 11
-10.45817
 21
17.593395
  0
LINE
  8
型材断面
  6
CONTINUOUS
 10
-11.9538
 20
20.183902
 11
-13.44943
 21
17.593395
  0
LINE
  8
型材断面
  6
CONTINUOUS
 10
-13.44943
 20
17.593395
 11
-10.45817
 21
17.593395
  0
LINE
  8
型材断面
  6
CONTINUOUS
 10
-108.828597
 20
77.993767
 11
-62.58682
 21
77.993767
  0
LINE
  8
型材断面
  6
CONTINUOUS
 62
    47
 10
97.112797
 20
19.813988
 11
96.6128
 21
19.813988
  0
LINE
  8
型材断面
  6
CONTINUOUS
 62
    47
 10
96.6128
 20
19.813988
 11
96.11562
 21
22.74732
  0
LINE
  8
型材断面
  6
CONTINUOUS
 62
    47
 10
97.112797
 20
19.813988
 11
97.112797
 21
32.814033
  0
LINE
  8
型材断面
  6
CONTINUOUS
 10
97.612797
 20
20.313977
 11
97.612797
 21
32.814033
  0
LINE
  8
型材断面
  6
CONTINUOUS
 62
    47
 10
97.112797
 20
20.31398
 11
97.612797
 21
20.31398
  0
LINE
  8
型材断面
  6
CONTINUOUS
 10
96.11562
 20
32.814033
 11
96.11562
 21
22.74732
  0
LINE
  8
型材断面
  6
CONTINUOUS
 10
96.6128
 20
19.813988
 11
96.6128
 21
32.814033
  0
LINE
  8
型材断面
  6
CONTINUOUS
 62
    47
 10
96.11562
 20
22.74732
 11
95.24613
 21
22.74732
  0
LINE
  8
型材断面
  6
CONTINUOUS
 62
    47
 10
97.112797
 20
45.814077
 11
96.6128
 21
45.814077
  0
LINE
  8
型材断面
  6
CONTINUOUS
 62
    47
 10
96.6128
 20
45.814077
 11
96.11562
 21
42.880747
  0
LINE
  8
型材断面
  6
CONTINUOUS
 62
    47
 10
97.112797
 20
45.814077
 11
97.112797
 21
32.814033
  0
LINE
  8
型材断面
  6
CONTINUOUS
 10
97.612797
 20
45.314087
 11
97.612797
 21
32.814033
  0
LINE
  8
型材断面
  6
CONTINUOUS
 62
    47
 10
97.112797
 20
45.314087
 11
97.612797
 21
45.314087
  0
LINE
  8
型材断面
  6
CONTINUOUS
 10
96.11562
 20
32.814033
 11
96.11562
 21
42.880747
  0
LINE
  8
型材断面
  6
CONTINUOUS
 10
96.6128
 20
45.814077
 11
96.6128
 21
32.814033
  0
LINE
  8
型材断面
  6
CONTINUOUS
 62
    47
 10
96.11562
 20
42.880747
 11
95.24613
 21
42.880747
  0
LINE
  8
型材断面
  6
CONTINUOUS
 62
    47
 10
7.71291
 20
-73.07628
 11
7.71291
 21
-72.576282
  0
LINE
  8
型材断面
  6
CONTINUOUS
 62
    47
 10
7.71291
 20
-72.576282
 11
4.77958
 21
-72.079103
  0
LINE
  8
型材断面
  6
CONTINUOUS
 62
    47
 10
7.21292
 20
-73.07628
 11
7.21292
 21
-73.57628
  0
LINE
  8
型材断面
  6
CONTINUOUS
 62
    47
 10
4.77958
 20
-72.079103
 11
4.77958
 21
-71.209613
  0
LINE
  8
型材断面
  6
CONTINUOUS
 10
7.71291
 20
32.814033
 11
7.71291
 21
19.813985
  0
LINE
  8
型材断面
  6
CONTINUOUS
 10
6.779532
 20
20.747365
 11
7.71291
 21
19.813992
  0
LINE
  8
型材断面
  6
CONTINUOUS
 10
7.71291
 20
19.813985
 11
-28.620467
 21
19.814003
  0
LINE
  8
型材断面
  6
CONTINUOUS
 10
7.71291
 20
32.814033
 11
7.71291
 21
45.81408
  0
LINE
  8
型材断面
  6
CONTINUOUS
 10
6.779532
 20
44.8807
 11
7.71291
 21
45.814072
  0
LINE
  8
型材断面
  6
CONTINUOUS
 10
7.71291
 20
45.81408
 11
-28.620467
 21
45.814062
  0
LINE
  8
型材断面
  6
CONTINUOUS
 10
-64.953845
 20
32.814033
 11
-64.953845
 21
45.81408
  0
LINE
  8
型材断面
  6
CONTINUOUS
 10
-64.020467
 20
44.8807
 11
-64.953845
 21
45.814072
  0
LINE
  8
型材断面
  6
CONTINUOUS
 10
-64.953845
 20
45.81408
 11
-28.620467
 21
45.814062
  0
LINE
  8
型材断面
  6
CONTINUOUS
 10
-64.953845
 20
32.814033
 11
-64.953845
 21
19.813985
  0
LINE
  8
型材断面
  6
CONTINUOUS
 10
-64.020467
 20
20.747365
 11
-64.953845
 21
19.813992
  0
LINE
  8
型材断面
  6
CONTINUOUS
 10
-64.953845
 20
19.813985
 11
-28.620467
 21
19.814003
  0
LINE
  8
型材断面
  6
CONTINUOUS
 10
7.21292
 20
-73.57628
 11
-28.620467
 21
-73.57628
  0
LINE
  8
型材断面
  6
CONTINUOUS
 62
    47
 10
7.71291
 20
-73.07628
 11
-28.620467
 21
-73.07628
  0
LINE
  8
型材断面
  6
CONTINUOUS
 10
4.77958
 20
-72.079103
 11
-28.620467
 21
-72.079103
  0
LINE
  8
型材断面
  6
CONTINUOUS
 10
7.71291
 20
-72.576282
 11
-28.620467
 21
-72.576282
  0
LINE
  8
型材断面
  6
CONTINUOUS
 62
    47
 10
-64.953845
 20
-73.07628
 11
-64.953845
 21
-72.576282
  0
LINE
  8
型材断面
  6
CONTINUOUS
 62
    47
 10
-64.953845
 20
-72.576282
 11
-62.020515
 21
-72.079103
  0
LINE
  8
型材断面
  6
CONTINUOUS
 62
    47
 10
-64.453855
 20
-73.07628
 11
-64.453855
 21
-73.57628
  0
LINE
  8
型材断面
  6
CONTINUOUS
 62
    47
 10
-62.020515
 20
-72.079103
 11
-62.020515
 21
-71.209613
  0
LINE
  8
型材断面
  6
CONTINUOUS
 10
-64.453855
 20
-73.57628
 11
-28.620467
 21
-73.57628
  0
LINE
  8
型材断面
  6
CONTINUOUS
 62
    47
 10
-64.953845
 20
-73.07628
 11
-28.620467
 21
-73.07628
  0
LINE
  8
型材断面
  6
CONTINUOUS
 10
-62.020515
 20
-72.079103
 11
-28.620467
 21
-72.079103
  0
LINE
  8
型材断面
  6
CONTINUOUS
 10
-64.953845
 20
-72.576282
 11
-28.620467
 21
-72.576282
  0
TEXT
  7
TextStyle03
  8
文字
  6
CONTINUOUS
 10
81.275
 20
-76.7
  1
網入り6.8t
 40
3.0
 72
     5
 11
97.9625
 21
-76.7
  0
TEXT
  7
TextStyle03
  8
文字
  6
CONTINUOUS
 10
87.95
 20
-81.375
  1
×２枚
 40
3.0
 72
     5
 11
97.7
 21
-81.375
  0
TEXT
  7
TextStyle03
  8
文字
  6
CONTINUOUS
 10
-100.025
 20
84.95
  1
は排水穴位置を示す
 40
3.0
 72
     5
 11
-70.025
 21
84.95
  0
TEXT
  7
TextStyle03
  8
文字
  6
CONTINUOUS
 10
-83.05
 20
11.275
  1
アンカーピッチ
 40
3.0
 50
90.0
 72
     5
 11
-83.05
 21
34.525
  0
TEXT
  7
TextStyle03
  8
文字
  6
CONTINUOUS
 10
-54.525
 20
79.675
  1
アンカーピッチ
 40
3.0
 72
     5
 11
-31.275
 21
79.675
  0
TEXT
  7
TextStyle03
  8
文字
  6
CONTINUOUS
 10
-103.75
 20
78.925
  1
アンカー数量　１０ヶ所
 40
3.0
 72
     5
 11
-67.0
 21
78.925
  0
TEXT
  7
TextStyle03
  8
文字
  6
CONTINUOUS
 10
78.1
 20
125.25
  1
シリーズ：ＴＤ２ＫＬ
 40
5.0
 72
     5
 11
133.725
 21
125.25
  0
TEXT
  7
TextStyle03
  8
文字
  6
CONTINUOUS
 10
78.1
 20
119.625
  1
　　　　　（固定）600×2000タイプ
 40
5.0
 72
     5
 11
170.2875
 21
119.625
  0
TEXT
  7
TextStyle03
  8
文字
  6
CONTINUOUS
 10
78.1
 20
114.0
  1
図面名　：外観姿図
 40
5.0
 72
     5
 11
128.1
 21
114.0
  0
TEXT
  7
TextStyle03
  8
文字
  6
CONTINUOUS
 10
78.1
 20
108.375
  1
　　　　　　
 40
5.0
 72
     5
 11
111.225
 21
108.375
  0
TEXT
  7
TextStyle03
  8
文字
  6
CONTINUOUS
 10
77.65
 20
104.325
  1
ＮＳコード：ＮＳＫＺＬ
 40
5.0
 72
     5
 11
138.9
 21
104.325
  0
INSERT
  2
*DIM_0002
  8
寸法
  6
CONTINUOUS
 10
0.0
 20
0.0
  0
INSERT
  2
*DIM_0003
  8
寸法
  6
CONTINUOUS
 10
0.0
 20
0.0
  0
INSERT
  2
*DIM_0004
  8
寸法
  6
CONTINUOUS
 10
0.0
 20
0.0
  0
INSERT
  2
*DIM_0005
  8
寸法
  6
CONTINUOUS
 10
0.0
 20
0.0
  0
INSERT
  2
*DIM_0006
  8
寸法
  6
CONTINUOUS
 10
0.0
 20
0.0
  0
INSERT
  2
*DIM_0008
  8
寸法
  6
CONTINUOUS
 10
0.0
 20
0.0
  0
INSERT
  2
*DIM_0009
  8
寸法
  6
CONTINUOUS
 10
0.0
 20
0.0
  0
INSERT
  2
*DIM_0010
  8
寸法
  6
CONTINUOUS
 10
0.0
 20
0.0
  0
INSERT
  2
*DIM_0011
  8
寸法
  6
CONTINUOUS
 10
0.0
 20
0.0
  0
INSERT
  2
*DIM_0012
  8
寸法
  6
CONTINUOUS
 10
0.0
 20
0.0
  0
INSERT
  2
*DIM_0013
  8
寸法
  6
CONTINUOUS
 10
0.0
 20
0.0
  0
INSERT
  2
*DIM_0014
  8
寸法
  6
CONTINUOUS
 10
0.0
 20
0.0
  0
INSERT
  2
*DIM_0015
  8
寸法
  6
CONTINUOUS
 10
0.0
 20
0.0
  0
INSERT
  2
*DIM_0016
  8
寸法
  6
CONTINUOUS
 10
0.0
 20
0.0
  0
INSERT
  2
*DIM_0017
  8
寸法
  6
CONTINUOUS
 10
0.0
 20
0.0
  0
INSERT
  2
*DIM_0018
  8
寸法
  6
CONTINUOUS
 10
0.0
 20
0.0
  0
LINE
  8
別途部材
  6
CONTINUOUS
 10
6.779532
 20
20.747365
 11
6.379532
 21
21.147365
  0
LINE
  8
別途部材
  6
CONTINUOUS
 10
4.712865
 20
22.814033
 11
-3.34639
 21
30.87329
  0
LINE
  8
別途部材
  6
CONTINUOUS
 10
6.379532
 20
21.147365
 11
6.379532
 21
32.814033
  0
LINE
  8
別途部材
  6
CONTINUOUS
 10
6.779532
 20
20.747365
 11
6.779532
 21
32.814033
  0
LINE
  8
別途部材
  6
CONTINUOUS
 10
6.779532
 20
44.8807
 11
6.379532
 21
44.4807
  0
LINE
  8
別途部材
  6
CONTINUOUS
 10
4.712865
 20
42.814033
 11
-3.34639
 21
34.754775
  0
LINE
  8
別途部材
  6
CONTINUOUS
 10
6.379532
 20
44.4807
 11
6.379532
 21
32.814033
  0
LINE
  8
別途部材
  6
CONTINUOUS
 10
6.779532
 20
44.8807
 11
6.779532
 21
32.814033
  0
LINE
  8
別途部材
  6
CONTINUOUS
 10
6.379532
 20
44.4807
 11
-28.620467
 21
44.4807
  0
LINE
  8
別途部材
  6
CONTINUOUS
 10
6.779532
 20
44.8807
 11
-28.620467
 21
44.8807
  0
LINE
  8
別途部材
  6
CONTINUOUS
 10
6.779532
 20
20.747365
 11
-28.620467
 21
20.747365
  0
LINE
  8
別途部材
  6
CONTINUOUS
 10
6.379532
 20
21.147365
 11
-28.620467
 21
21.147365
  0
LINE
  8
別途部材
  6
CONTINUOUS
 10
-64.020467
 20
20.747365
 11
-63.620467
 21
21.147365
  0
LINE
  8
別途部材
  6
CONTINUOUS
 10
-61.9538
 20
22.814033
 11
-53.894545
 21
30.87329
  0
LINE
  8
別途部材
  6
CONTINUOUS
 10
-63.620467
 20
21.147365
 11
-63.620467
 21
32.814033
  0
LINE
  8
別途部材
  6
CONTINUOUS
 10
-64.020467
 20
20.747365
 11
-64.020467
 21
32.814033
  0
LINE
  8
別途部材
  6
CONTINUOUS
 10
-64.020467
 20
44.8807
 11
-63.620467
 21
44.4807
  0
LINE
  8
別途部材
  6
CONTINUOUS
 10
-61.9538
 20
42.814033
 11
-53.894545
 21
34.754775
  0
LINE
  8
別途部材
  6
CONTINUOUS
 10
-63.620467
 20
44.4807
 11
-63.620467
 21
32.814033
  0
LINE
  8
別途部材
  6
CONTINUOUS
 10
-64.020467
 20
44.8807
 11
-64.020467
 21
32.814033
  0
LINE
  8
別途部材
  6
CONTINUOUS
 10
-63.620467
 20
44.4807
 11
-28.620467
 21
44.4807
  0
LINE
  8
別途部材
  6
CONTINUOUS
 10
-64.020467
 20
44.8807
 11
-28.620467
 21
44.8807
  0
LINE
  8
別途部材
  6
CONTINUOUS
 10
-64.020467
 20
20.747365
 11
-28.620467
 21
20.747365
  0
LINE
  8
別途部材
  6
CONTINUOUS
 10
-63.620467
 20
21.147365
 11
-28.620467
 21
21.147365
  0
INSERT
  2
*GRP_0007
  8
別途部材
  6
CONTINUOUS
 10
0.0
 20
0.0
  0
LINE
  8
別途部材
  6
CONTINUOUS
 62
    96
 10
94.24613
 20
21.147365
 11
95.24613
 21
20.747365
  0
LINE
  8
別途部材
  6
CONTINUOUS
 62
    96
 10
94.24613
 20
21.147365
 11
94.24613
 21
32.814033
  0
LINE
  8
別途部材
  6
CONTINUOUS
 10
95.24613
 20
20.747365
 11
95.24613
 21
32.814033
  0
LINE
  8
別途部材
  6
CONTINUOUS
 62
    96
 10
94.24613
 20
44.4807
 11
95.24613
 21
44.8807
  0
LINE
  8
別途部材
  6
CONTINUOUS
 62
    96
 10
94.24613
 20
44.4807
 11
94.24613
 21
32.814033
  0
LINE
  8
別途部材
  6
CONTINUOUS
 10
95.24613
 20
44.8807
 11
95.24613
 21
32.814033
  0
ARC
  8
別途部材
  6
CONTINUOUS
 10
100.954465
 20
32.814033
 40
12.041667
 50
123.855033
 51
236.144967
  0
INSERT
  2
*GRP_0019
  8
別途部材
  6
DOT
 10
0.0
 20
0.0
  0
INSERT
  2
*GRP_0020
  8
別途部材
  6
DOT
 10
0.0
 20
0.0
  0
INSERT
  2
*GRP_0021
  8
別途部材
  6
DOT
 10
0.0
 20
0.0
  0
INSERT
  2
*GRP_0022
  8
別途部材
  6
DOT
 10
0.0
 20
0.0
  0
LINE
  8
曲げ物
  6
CONTINUOUS
 10
99.79942
 20
-83.118728
 11
99.79942
 21
-63.785395
  0
LINE
  8
曲げ物
  6
CONTINUOUS
 10
67.332753
 20
-83.118728
 11
67.332753
 21
-63.785395
  0
LINE
  8
曲げ物
  6
CONTINUOUS
 10
99.79942
 20
-63.785395
 11
67.332753
 21
-63.785395
  0
LINE
  8
曲げ物
  6
CONTINUOUS
 10
99.79942
 20
-83.118728
 11
67.332753
 21
-83.118728
  0
CIRCLE
  8
LAYER010
  6
CONTINUOUS
 62
     7
 10
96.6128
 20
19.813988
 40
0.011113
  0
CIRCLE
  8
LAYER010
  6
CONTINUOUS
 62
     7
 10
96.6128
 20
19.813988
 40
0.011113
  0
CIRCLE
  8
LAYER010
  6
CONTINUOUS
 62
     7
 10
96.6128
 20
45.814077
 40
0.011113
  0
CIRCLE
  8
LAYER010
  6
CONTINUOUS
 62
     7
 10
96.6128
 20
45.814077
 40
0.011113
  0
CIRCLE
  8
LAYER010
  6
CONTINUOUS
 62
     7
 10
7.71291
 20
-72.576282
 40
0.011113
  0
CIRCLE
  8
LAYER010
  6
CONTINUOUS
 62
     7
 10
7.71291
 20
-72.576282
 40
0.011113
  0
CIRCLE
  8
LAYER010
  6
CONTINUOUS
 62
     7
 10
-64.953845
 20
-72.576282
 40
0.011113
  0
CIRCLE
  8
LAYER010
  6
CONTINUOUS
 62
     7
 10
-64.953845
 20
-72.576282
 40
0.011113
  0
ENDSEC
  0
EOF
