  0
SECTION
  2
HEADER
  9
$EXTMIN
 10
-210.0
 20
-148.5
  9
$EXTMAX
 10
210.0
 20
148.5
  9
$PDMODE
 70
    32
  9
$PDSIZE
 40
1.5
  9
$LTSCALE
 40
10.0
  0
ENDSEC
  0
SECTION
  2
TABLES
  0
TABLE
  2
LTYPE
 70
    15
  0
LTYPE
  2
CONTINUOUS
 70
    64
  3
実線
 72
    65
 73
     0
 40
0.0
  0
LTYPE
  2
DASHED
 70
    64
  3
破線A
 72
    65
 73
     2
 40
0.6
 49
0.4
 49
-0.2
  0
LTYPE
  2
DASHEDX2
 70
    64
  3
破線B
 72
    65
 73
     2
 40
1.3
 49
0.9
 49
-0.4
  0
LTYPE
  2
DASHDOT
 70
    64
  3
１点鎖線A
 72
    65
 73
     4
 40
0.5375
 49
0.375
 49
-0.05
 49
0.0625
 49
-0.05
  0
LTYPE
  2
DASHDOTX2
 70
    64
  3
１点鎖線B
 72
    65
 73
     4
 40
1.075
 49
0.75
 49
-0.1
 49
0.125
 49
-0.1
  0
LTYPE
  2
DIVIDE2
 70
    64
  3
２点鎖線A
 72
    65
 73
     6
 40
0.5125
 49
0.3
 49
-0.0375
 49
0.05
 49
-0.0375
 49
0.05
 49
-0.0375
  0
LTYPE
  2
DIVIDE
 70
    64
  3
２点鎖線B
 72
    65
 73
     6
 40
1.05
 49
0.55
 49
-0.1
 49
0.1
 49
-0.1
 49
0.1
 49
-0.1
  0
LTYPE
  2
DOT
 70
    64
  3
点線A
 72
    65
 73
     2
 40
0.1125
 49
0.0625
 49
-0.05
  0
LTYPE
  2
DOTX2
 70
    64
  3
点線B
 72
    65
 73
     2
 40
0.275
 49
0.15
 49
-0.125
  0
LTYPE
  2
CONTINUOUS
 70
    64
  3
実線
 72
    65
 73
     0
 40
0.0
  0
LTYPE
  2
CONTINUOUS
 70
    64
  3
実線
 72
    65
 73
     0
 40
0.0
  0
LTYPE
  2
CONTINUOUS
 70
    64
  3
実線
 72
    65
 73
     0
 40
0.0
  0
LTYPE
  2
CONTINUOUS
 70
    64
  3
実線
 72
    65
 73
     0
 40
0.0
  0
LTYPE
  2
CONTINUOUS
 70
    64
  3
実線
 72
    65
 73
     0
 40
0.0
  0
LTYPE
  2
CONTINUOUS
 70
    64
  3
実線
 72
    65
 73
     0
 40
0.0
  0
ENDTAB
  0
TABLE
  2
LAYER
 70
    35
  0
LAYER
  2
通り芯
 70
     0
 62
    15
  6
CONTINUOUS
  0
LAYER
  2
補助線
 70
     0
 62
    16
  6
DOT
  0
LAYER
  2
躯体
 70
     0
 62
    31
  6
CONTINUOUS
  0
LAYER
  2
型材
 70
     0
 62
    32
  6
CONTINUOUS
  0
LAYER
  2
型材断面
 70
     0
 62
    47
  6
CONTINUOUS
  0
LAYER
  2
ガラス
 70
     0
 62
    48
  6
CONTINUOUS
  0
LAYER
  2
ゴム等
 70
     0
 62
    63
  6
CONTINUOUS
  0
LAYER
  2
ボルト／ビス
 70
     0
 62
    64
  6
CONTINUOUS
  0
LAYER
  2
文字
 70
     0
 62
    79
  6
CONTINUOUS
  0
LAYER
  2
寸法
 70
     0
 62
    80
  6
CONTINUOUS
  0
LAYER
  2
ﾊｯﾁﾝｸﾞ
 70
     0
 62
    95
  6
CONTINUOUS
  0
LAYER
  2
別途部材
 70
     0
 62
    96
  6
CONTINUOUS
  0
LAYER
  2
曲げ物
 70
     0
 62
   111
  6
CONTINUOUS
  0
LAYER
  2
鉄骨等
 70
     0
 62
   112
  6
CONTINUOUS
  0
LAYER
  2
St
 70
     0
 62
   127
  6
CONTINUOUS
  0
LAYER
  2
その他部品等
 70
     0
 62
   128
  6
CONTINUOUS
  0
LAYER
  2
ｶﾞｽｹｯﾄ
 70
     0
 62
   143
  6
CONTINUOUS
  0
LAYER
  2
ｽｹｯﾁ
 70
     0
 62
    14
  6
CONTINUOUS
  0
LAYER
  2
0
 70
     0
 62
    17
  6
CONTINUOUS
  0
LAYER
  2
1
 70
     0
 62
    30
  6
CONTINUOUS
  0
LAYER
  2
4
 70
     0
 62
    33
  6
CONTINUOUS
  0
LAYER
  2
ﾚｲﾔ3
 70
     0
 62
    46
  6
CONTINUOUS
  0
LAYER
  2
外形線
 70
     0
 62
    49
  6
CONTINUOUS
  0
LAYER
  2
部品
 70
     0
 62
    14
  6
CONTINUOUS
  0
LAYER
  2
サッシ芯
 70
     0
 62
    17
  6
DASHDOTX2
  0
LAYER
  2
寸法線
 70
     0
 62
    62
  6
CONTINUOUS
  0
LAYER
  2
姿図外形線
 70
     0
 62
    65
  6
CONTINUOUS
  0
LAYER
  2
姿補助線
 70
     0
 62
    30
  6
CONTINUOUS
  0
LAYER
  2
透視線
 70
     0
 62
    78
  6
DOT
  0
LAYER
  2
用紙
 70
     0
 62
    81
  6
CONTINUOUS
  0
LAYER
  2
実線図枠
 70
     0
 62
    94
  6
CONTINUOUS
  0
LAYER
  2
補助図枠
 70
     0
 62
    97
  6
CONTINUOUS
  0
LAYER
  2
建具記号
 70
     0
 62
   110
  6
CONTINUOUS
  0
LAYER
  2
補助文字
 70
     0
 62
   113
  6
CONTINUOUS
  0
LAYER
  2
LAYER010
 70
     0
 62
    11
  6
CONTINUOUS
  0
ENDTAB
  0
TABLE
  2
STYLE
 70
    10
  0
STYLE
  2
STANDARD
 70
     0
 40
1.0
 41
1.0
 42
1.0
 50
0.0
 71
     0
  3
TXT
  4
BIGFONT
  0
STYLE
  2
TATE
 70
     4
 40
1.0
 41
1.0
 42
1.0
 50
0.0
 71
     0
  3
TXT
  4
BIGFONT
  0
STYLE
  2
TextStyle03
 70
     0
 40
1.0
 41
1.0
 42
1.0
 50
0.0
 71
     0
  3
MONOTXT
  4
BIGFONT
  0
STYLE
  2
TextStyle04
 70
     0
 40
1.0
 41
1.0
 42
1.0
 50
0.0
 71
     0
  3
MONOTXT
  4
BIGFONT
  0
STYLE
  2
TextStyle05
 70
     0
 40
1.0
 41
1.0
 42
1.0
 50
0.0
 71
     0
  3
MONOTXT
  4
BIGFONT
  0
STYLE
  2
TextStyle06
 70
     0
 40
1.0
 41
1.0
 42
1.0
 50
0.0
 71
     0
  3
MONOTXT
  4
BIGFONT
  0
STYLE
  2
TextStyle07
 70
     0
 40
1.0
 41
1.0
 42
1.0
 50
0.0
 71
     0
  3
MONOTXT
  4
BIGFONT
  0
STYLE
  2
TextStyle08
 70
     0
 40
1.0
 41
1.0
 42
1.0
 50
0.0
 71
     0
  3
MONOTXT
  4
BIGFONT
  0
STYLE
  2
TextStyle09
 70
     0
 40
1.0
 41
1.0
 42
1.0
 50
0.0
 71
     0
  3
MONOTXT
  4
BIGFONT
  0
STYLE
  2
TextStyle10
 70
     0
 40
1.0
 41
1.0
 42
1.0
 50
0.0
 71
     0
  3
MONOTXT
  4
BIGFONT
  0
ENDTAB
  0
ENDSEC
  0
SECTION
  2
BLOCKS
  0
BLOCK
  2
*GRP_0001
 70
    65
 10
0.0
 20
0.0
  0
LINE
  8
型材断面
  6
CONTINUOUS
 10
195.0
 20
133.5
 11
195.0
 21
-133.5
  0
LINE
  8
型材断面
  6
CONTINUOUS
 10
195.0
 20
-133.5
 11
-185.0
 21
-133.5
  0
LINE
  8
型材断面
  6
CONTINUOUS
 10
-185.0
 20
-133.5
 11
-185.0
 21
133.5
  0
LINE
  8
型材断面
  6
CONTINUOUS
 10
195.0
 20
133.5
 11
-185.0
 21
133.5
  0
LINE
  8
型材断面
  6
CONTINUOUS
 10
145.0
 20
-133.5
 11
145.0
 21
-118.5
  0
LINE
  8
型材断面
  6
CONTINUOUS
 10
195.0
 20
-118.5
 11
145.0
 21
-118.5
  0
ENDBLK
  0
BLOCK
  2
*DIM_0002
 70
    65
 10
0.0
 20
0.0
  0
LINE
  8
寸法
  6
BYBLOCK
 62
     0
 10
-128.742993
 20
-22.207025
 11
-128.742993
 21
-22.536362
  0
LINE
  8
寸法
  6
BYBLOCK
 62
     0
 10
71.257007
 20
-22.207025
 11
71.257007
 21
-22.536362
  0
LINE
  8
寸法
  6
BYBLOCK
 62
     0
 10
-128.742993
 20
-22.536362
 11
71.257007
 21
-22.536362
  0
POINT
  8
寸法
 62
     0
 10
-128.742993
 20
-22.536362
  0
POINT
  8
寸法
 62
     0
 10
71.257007
 20
-22.536362
  0
TEXT
  7
TextStyle03
  8
寸法
  6
CONTINUOUS
 62
     0
 10
-40.46875
 20
-22.175
  1
呼称寸法　6000
 40
3.0
 72
     5
 11
-17.03125
 21
-22.175
  0
ENDBLK
  0
BLOCK
  2
*DIM_0003
 70
    65
 10
0.0
 20
0.0
  0
LINE
  8
寸法
  6
BYBLOCK
 62
     0
 10
38.923675
 20
-62.95793
 11
87.226657
 21
-62.95793
  0
LINE
  8
寸法
  6
BYBLOCK
 62
     0
 10
87.226657
 20
-79.624597
 11
87.226657
 21
-62.95793
  0
POINT
  8
寸法
 62
     0
 10
87.226657
 20
-62.95793
  0
TEXT
  7
TextStyle03
  8
寸法
  6
CONTINUOUS
 62
     0
 10
86.85
 20
-73.7375
  1
500
 40
3.0
 50
90.0
 72
     5
 11
86.85
 21
-68.8625
  0
ENDBLK
  0
BLOCK
  2
*DIM_0004
 70
    65
 10
0.0
 20
0.0
  0
LINE
  8
寸法
  6
BYBLOCK
 62
     0
 10
124.014137
 20
-48.61437
 11
124.014137
 21
-42.949495
  0
LINE
  8
寸法
  6
BYBLOCK
 62
     0
 10
156.34747
 20
-48.61437
 11
156.34747
 21
-42.949495
  0
LINE
  8
寸法
  6
BYBLOCK
 62
     0
 10
124.014137
 20
-42.949495
 11
156.34747
 21
-42.949495
  0
POINT
  8
寸法
 62
     0
 10
124.014137
 20
-42.949495
  0
POINT
  8
寸法
 62
     0
 10
156.34747
 20
-42.949495
  0
TEXT
  7
TextStyle03
  8
寸法
  6
CONTINUOUS
 62
     0
 10
137.7375
 20
-42.575
  1
970
 40
3.0
 72
     5
 11
142.6125
 21
-42.575
  0
ENDBLK
  0
BLOCK
  2
*DIM_0005
 70
    65
 10
0.0
 20
0.0
  0
LINE
  8
寸法
  6
BYBLOCK
 62
     0
 10
157.34747
 20
-49.61437
 11
164.038545
 21
-49.61437
  0
LINE
  8
寸法
  6
BYBLOCK
 62
     0
 10
157.34747
 20
-82.081038
 11
164.038545
 21
-82.081038
  0
LINE
  8
寸法
  6
BYBLOCK
 62
     0
 10
164.038545
 20
-49.61437
 11
164.038545
 21
-82.081038
  0
POINT
  8
寸法
 62
     0
 10
164.038545
 20
-49.61437
  0
POINT
  8
寸法
 62
     0
 10
164.038545
 20
-82.081038
  0
TEXT
  7
TextStyle03
  8
寸法
  6
CONTINUOUS
 62
     0
 10
163.65
 20
-68.2875
  1
974
 40
3.0
 50
90.0
 72
     5
 11
163.65
 21
-63.4125
  0
ENDBLK
  0
BLOCK
  2
*DIM_0006
 70
    65
 10
0.0
 20
0.0
  0
LINE
  8
寸法
  6
BYBLOCK
 62
     0
 10
-112.076325
 20
-5.54017
 11
-112.076325
 21
-10.042652
  0
LINE
  8
寸法
  6
BYBLOCK
 62
     0
 10
-28.742993
 20
-5.54017
 11
-28.742993
 21
-10.042652
  0
LINE
  8
寸法
  6
BYBLOCK
 62
     0
 10
-112.076325
 20
-10.042652
 11
-28.742993
 21
-10.042652
  0
POINT
  8
寸法
 62
     0
 10
-112.076325
 20
-10.042652
  0
POINT
  8
寸法
 62
     0
 10
-28.742993
 20
-10.042652
  0
TEXT
  7
TextStyle03
  8
寸法
  6
CONTINUOUS
 62
     0
 10
-73.70625
 20
-9.675
  1
2500
 40
3.0
 72
     5
 11
-67.14375
 21
-9.675
  0
ENDBLK
  0
BLOCK
  2
*DIM_0007
 70
    65
 10
0.0
 20
0.0
  0
LINE
  8
寸法
  6
BYBLOCK
 62
     0
 10
54.59034
 20
-5.54017
 11
54.59034
 21
-10.042652
  0
LINE
  8
寸法
  6
BYBLOCK
 62
     0
 10
-28.742993
 20
-10.042652
 11
54.59034
 21
-10.042652
  0
POINT
  8
寸法
 62
     0
 10
54.59034
 20
-10.042652
  0
TEXT
  7
TextStyle03
  8
寸法
  6
CONTINUOUS
 62
     0
 10
9.61875
 20
-9.675
  1
2500
 40
3.0
 72
     5
 11
16.18125
 21
-9.675
  0
ENDBLK
  0
BLOCK
  2
*DIM_0008
 70
    65
 10
0.0
 20
0.0
  0
LINE
  8
寸法
  6
BYBLOCK
 62
     0
 10
108.626315
 20
64.756625
 11
107.889473
 21
64.756625
  0
LINE
  8
寸法
  6
BYBLOCK
 62
     0
 10
108.626315
 20
-1.910042
 11
107.889473
 21
-1.910042
  0
LINE
  8
寸法
  6
BYBLOCK
 62
     0
 10
107.889473
 20
64.756625
 11
107.889473
 21
-1.910042
  0
POINT
  8
寸法
 62
     0
 10
107.889473
 20
64.756625
  0
POINT
  8
寸法
 62
     0
 10
107.889473
 20
-1.910042
  0
TEXT
  7
TextStyle03
  8
寸法
  6
CONTINUOUS
 62
     0
 10
107.5
 20
19.68125
  1
呼称寸法　2000
 40
3.0
 50
90.0
 72
     5
 11
107.5
 21
43.11875
  0
ENDBLK
  0
BLOCK
  2
*DIM_0009
 70
    65
 10
0.0
 20
0.0
  0
LINE
  8
寸法
  6
BYBLOCK
 62
     0
 10
144.123605
 20
32.42329
 11
144.123605
 21
86.5884
  0
LINE
  8
寸法
  6
BYBLOCK
 62
     0
 10
160.790272
 20
86.5884
 11
144.123605
 21
86.5884
  0
POINT
  8
寸法
 62
     0
 10
160.790272
 20
86.5884
  0
POINT
  8
寸法
 62
     0
 10
144.123605
 20
86.5884
  0
TEXT
  7
TextStyle03
  8
寸法
  6
CONTINUOUS
 62
     0
 10
150.0125
 20
86.95
  1
500
 40
3.0
 72
     5
 11
154.8875
 21
86.95
  0
ENDBLK
  0
BLOCK
  2
*GRP_0010
 70
    65
 10
0.0
 20
0.0
  0
LINE
  8
別途部材
  6
CONTINUOUS
 62
    96
 10
-130.409657
 20
-79.624597
 11
-130.809657
 21
-80.624597
  0
LINE
  8
別途部材
  6
CONTINUOUS
 62
    96
 10
-130.409657
 20
-79.624597
 11
-28.742993
 21
-79.624597
  0
LINE
  8
別途部材
  6
CONTINUOUS
 10
-130.809657
 20
-80.624597
 11
-28.742993
 21
-80.624597
  0
LINE
  8
別途部材
  6
CONTINUOUS
 10
-29.242993
 20
-79.624597
 11
-29.242993
 21
-61.95793
  0
LINE
  8
別途部材
  6
CONTINUOUS
 10
-32.242993
 20
-79.624597
 11
-32.242993
 21
-61.95793
  0
LINE
  8
別途部材
  6
CONTINUOUS
 10
-29.242993
 20
-61.95793
 11
-30.242993
 21
-62.95793
  0
LINE
  8
別途部材
  6
CONTINUOUS
 10
-33.242993
 20
-79.624597
 11
-33.242993
 21
-61.95793
  0
LINE
  8
別途部材
  6
CONTINUOUS
 10
-31.242993
 20
-62.95793
 11
-32.242993
 21
-61.95793
  0
LINE
  8
別途部材
  6
CONTINUOUS
 10
-33.242993
 20
-61.95793
 11
-34.242993
 21
-62.95793
  0
LINE
  8
別途部材
  6
CONTINUOUS
 10
-32.242993
 20
-61.95793
 11
-33.242993
 21
-61.95793
  0
LINE
  8
別途部材
  6
CONTINUOUS
 10
-29.242993
 20
-61.95793
 11
-28.742993
 21
-61.95793
  0
LINE
  8
別途部材
  6
CONTINUOUS
 10
-35.242993
 20
-62.95793
 11
-36.242993
 21
-61.95793
  0
LINE
  8
別途部材
  6
CONTINUOUS
 10
-37.242993
 20
-61.95793
 11
-38.242993
 21
-62.95793
  0
LINE
  8
別途部材
  6
CONTINUOUS
 10
-36.242993
 20
-61.95793
 11
-37.242993
 21
-61.95793
  0
LINE
  8
別途部材
  6
CONTINUOUS
 10
-31.242993
 20
-79.624597
 11
-31.242993
 21
-62.95793
  0
LINE
  8
別途部材
  6
CONTINUOUS
 10
-34.242993
 20
-79.624597
 11
-34.242993
 21
-62.95793
  0
LINE
  8
別途部材
  6
CONTINUOUS
 10
-35.242993
 20
-79.624597
 11
-35.242993
 21
-62.95793
  0
LINE
  8
別途部材
  6
CONTINUOUS
 10
-36.242993
 20
-79.624597
 11
-36.242993
 21
-61.95793
  0
LINE
  8
別途部材
  6
CONTINUOUS
 10
-37.242993
 20
-79.624597
 11
-37.242993
 21
-61.95793
  0
LINE
  8
別途部材
  6
CONTINUOUS
 10
-38.242993
 20
-79.624597
 11
-38.242993
 21
-62.95793
  0
LINE
  8
別途部材
  6
CONTINUOUS
 10
-39.242993
 20
-62.95793
 11
-40.242993
 21
-61.95793
  0
LINE
  8
別途部材
  6
CONTINUOUS
 10
-41.242993
 20
-61.95793
 11
-42.242993
 21
-62.95793
  0
LINE
  8
別途部材
  6
CONTINUOUS
 10
-40.242993
 20
-61.95793
 11
-41.242993
 21
-61.95793
  0
LINE
  8
別途部材
  6
CONTINUOUS
 10
-39.242993
 20
-79.624597
 11
-39.242993
 21
-62.95793
  0
LINE
  8
別途部材
  6
CONTINUOUS
 10
-40.242993
 20
-79.624597
 11
-40.242993
 21
-61.95793
  0
LINE
  8
別途部材
  6
CONTINUOUS
 10
-41.242993
 20
-79.624597
 11
-41.242993
 21
-61.95793
  0
LINE
  8
別途部材
  6
CONTINUOUS
 10
-42.242993
 20
-79.624597
 11
-42.242993
 21
-62.95793
  0
LINE
  8
別途部材
  6
CONTINUOUS
 10
-44.242993
 20
-79.624597
 11
-44.242993
 21
-61.95793
  0
LINE
  8
別途部材
  6
CONTINUOUS
 10
-45.242993
 20
-79.624597
 11
-45.242993
 21
-61.95793
  0
LINE
  8
別途部材
  6
CONTINUOUS
 10
-43.242993
 20
-62.95793
 11
-44.242993
 21
-61.95793
  0
LINE
  8
別途部材
  6
CONTINUOUS
 10
-45.242993
 20
-61.95793
 11
-46.242993
 21
-62.95793
  0
LINE
  8
別途部材
  6
CONTINUOUS
 10
-44.242993
 20
-61.95793
 11
-45.242993
 21
-61.95793
  0
LINE
  8
別途部材
  6
CONTINUOUS
 10
-47.242993
 20
-62.95793
 11
-48.242993
 21
-61.95793
  0
LINE
  8
別途部材
  6
CONTINUOUS
 10
-49.242993
 20
-61.95793
 11
-50.242993
 21
-62.95793
  0
LINE
  8
別途部材
  6
CONTINUOUS
 10
-48.242993
 20
-61.95793
 11
-49.242993
 21
-61.95793
  0
LINE
  8
別途部材
  6
CONTINUOUS
 10
-43.242993
 20
-79.624597
 11
-43.242993
 21
-62.95793
  0
LINE
  8
別途部材
  6
CONTINUOUS
 10
-46.242993
 20
-79.624597
 11
-46.242993
 21
-62.95793
  0
LINE
  8
別途部材
  6
CONTINUOUS
 10
-47.242993
 20
-79.624597
 11
-47.242993
 21
-62.95793
  0
LINE
  8
別途部材
  6
CONTINUOUS
 10
-48.242993
 20
-79.624597
 11
-48.242993
 21
-61.95793
  0
LINE
  8
別途部材
  6
CONTINUOUS
 10
-49.242993
 20
-79.624597
 11
-49.242993
 21
-61.95793
  0
LINE
  8
別途部材
  6
CONTINUOUS
 10
-50.242993
 20
-79.624597
 11
-50.242993
 21
-62.95793
  0
LINE
  8
別途部材
  6
CONTINUOUS
 10
-51.242993
 20
-62.95793
 11
-52.242993
 21
-61.95793
  0
LINE
  8
別途部材
  6
CONTINUOUS
 10
-53.242993
 20
-61.95793
 11
-54.242993
 21
-62.95793
  0
LINE
  8
別途部材
  6
CONTINUOUS
 10
-52.242993
 20
-61.95793
 11
-53.242993
 21
-61.95793
  0
LINE
  8
別途部材
  6
CONTINUOUS
 10
-51.242993
 20
-79.624597
 11
-51.242993
 21
-62.95793
  0
LINE
  8
別途部材
  6
CONTINUOUS
 10
-52.242993
 20
-79.624597
 11
-52.242993
 21
-61.95793
  0
LINE
  8
別途部材
  6
CONTINUOUS
 10
-53.242993
 20
-79.624597
 11
-53.242993
 21
-61.95793
  0
LINE
  8
別途部材
  6
CONTINUOUS
 10
-54.242993
 20
-79.624597
 11
-54.242993
 21
-62.95793
  0
LINE
  8
別途部材
  6
CONTINUOUS
 10
-56.242993
 20
-79.624597
 11
-56.242993
 21
-61.95793
  0
LINE
  8
別途部材
  6
CONTINUOUS
 10
-57.242993
 20
-79.624597
 11
-57.242993
 21
-61.95793
  0
LINE
  8
別途部材
  6
CONTINUOUS
 10
-55.242993
 20
-62.95793
 11
-56.242993
 21
-61.95793
  0
LINE
  8
別途部材
  6
CONTINUOUS
 10
-57.242993
 20
-61.95793
 11
-58.242993
 21
-62.95793
  0
LINE
  8
別途部材
  6
CONTINUOUS
 10
-56.242993
 20
-61.95793
 11
-57.242993
 21
-61.95793
  0
LINE
  8
別途部材
  6
CONTINUOUS
 10
-59.242993
 20
-62.95793
 11
-60.242993
 21
-61.95793
  0
LINE
  8
別途部材
  6
CONTINUOUS
 10
-61.242993
 20
-61.95793
 11
-62.242993
 21
-62.95793
  0
LINE
  8
別途部材
  6
CONTINUOUS
 10
-60.242993
 20
-61.95793
 11
-61.242993
 21
-61.95793
  0
LINE
  8
別途部材
  6
CONTINUOUS
 10
-55.242993
 20
-79.624597
 11
-55.242993
 21
-62.95793
  0
LINE
  8
別途部材
  6
CONTINUOUS
 10
-58.242993
 20
-79.624597
 11
-58.242993
 21
-62.95793
  0
LINE
  8
別途部材
  6
CONTINUOUS
 10
-59.242993
 20
-79.624597
 11
-59.242993
 21
-62.95793
  0
LINE
  8
別途部材
  6
CONTINUOUS
 10
-60.242993
 20
-79.624597
 11
-60.242993
 21
-61.95793
  0
LINE
  8
別途部材
  6
CONTINUOUS
 10
-61.242993
 20
-79.624597
 11
-61.242993
 21
-61.95793
  0
LINE
  8
別途部材
  6
CONTINUOUS
 10
-62.242993
 20
-79.624597
 11
-62.242993
 21
-62.95793
  0
LINE
  8
別途部材
  6
CONTINUOUS
 10
-63.242993
 20
-62.95793
 11
-64.242993
 21
-61.95793
  0
LINE
  8
別途部材
  6
CONTINUOUS
 10
-65.242993
 20
-61.95793
 11
-66.242993
 21
-62.95793
  0
LINE
  8
別途部材
  6
CONTINUOUS
 10
-64.242993
 20
-61.95793
 11
-65.242993
 21
-61.95793
  0
LINE
  8
別途部材
  6
CONTINUOUS
 10
-63.242993
 20
-79.624597
 11
-63.242993
 21
-62.95793
  0
LINE
  8
別途部材
  6
CONTINUOUS
 10
-64.242993
 20
-79.624597
 11
-64.242993
 21
-61.95793
  0
LINE
  8
別途部材
  6
CONTINUOUS
 10
-65.242993
 20
-79.624597
 11
-65.242993
 21
-61.95793
  0
LINE
  8
別途部材
  6
CONTINUOUS
 10
-66.242993
 20
-79.624597
 11
-66.242993
 21
-62.95793
  0
LINE
  8
別途部材
  6
CONTINUOUS
 10
-68.242993
 20
-79.624597
 11
-68.242993
 21
-61.95793
  0
LINE
  8
別途部材
  6
CONTINUOUS
 10
-69.242993
 20
-79.624597
 11
-69.242993
 21
-61.95793
  0
LINE
  8
別途部材
  6
CONTINUOUS
 10
-67.242993
 20
-62.95793
 11
-68.242993
 21
-61.95793
  0
LINE
  8
別途部材
  6
CONTINUOUS
 10
-69.242993
 20
-61.95793
 11
-70.242993
 21
-62.95793
  0
LINE
  8
別途部材
  6
CONTINUOUS
 10
-68.242993
 20
-61.95793
 11
-69.242993
 21
-61.95793
  0
LINE
  8
別途部材
  6
CONTINUOUS
 10
-71.242993
 20
-62.95793
 11
-72.242993
 21
-61.95793
  0
LINE
  8
別途部材
  6
CONTINUOUS
 10
-73.242993
 20
-61.95793
 11
-74.242993
 21
-62.95793
  0
LINE
  8
別途部材
  6
CONTINUOUS
 10
-72.242993
 20
-61.95793
 11
-73.242993
 21
-61.95793
  0
LINE
  8
別途部材
  6
CONTINUOUS
 10
-67.242993
 20
-79.624597
 11
-67.242993
 21
-62.95793
  0
LINE
  8
別途部材
  6
CONTINUOUS
 10
-70.242993
 20
-79.624597
 11
-70.242993
 21
-62.95793
  0
LINE
  8
別途部材
  6
CONTINUOUS
 10
-71.242993
 20
-79.624597
 11
-71.242993
 21
-62.95793
  0
LINE
  8
別途部材
  6
CONTINUOUS
 10
-72.242993
 20
-79.624597
 11
-72.242993
 21
-61.95793
  0
LINE
  8
別途部材
  6
CONTINUOUS
 10
-73.242993
 20
-79.624597
 11
-73.242993
 21
-61.95793
  0
LINE
  8
別途部材
  6
CONTINUOUS
 10
-74.242993
 20
-79.624597
 11
-74.242993
 21
-62.95793
  0
LINE
  8
別途部材
  6
CONTINUOUS
 10
-75.242993
 20
-62.95793
 11
-76.242993
 21
-61.95793
  0
LINE
  8
別途部材
  6
CONTINUOUS
 10
-77.242993
 20
-61.95793
 11
-78.242993
 21
-62.95793
  0
LINE
  8
別途部材
  6
CONTINUOUS
 10
-76.242993
 20
-61.95793
 11
-77.242993
 21
-61.95793
  0
LINE
  8
別途部材
  6
CONTINUOUS
 10
-75.242993
 20
-79.624597
 11
-75.242993
 21
-62.95793
  0
LINE
  8
別途部材
  6
CONTINUOUS
 10
-76.242993
 20
-79.624597
 11
-76.242993
 21
-61.95793
  0
LINE
  8
別途部材
  6
CONTINUOUS
 10
-77.242993
 20
-79.624597
 11
-77.242993
 21
-61.95793
  0
LINE
  8
別途部材
  6
CONTINUOUS
 10
-78.242993
 20
-79.624597
 11
-78.242993
 21
-62.95793
  0
LINE
  8
別途部材
  6
CONTINUOUS
 10
-80.242993
 20
-79.624597
 11
-80.242993
 21
-61.95793
  0
LINE
  8
別途部材
  6
CONTINUOUS
 10
-81.242993
 20
-79.624597
 11
-81.242993
 21
-61.95793
  0
LINE
  8
別途部材
  6
CONTINUOUS
 10
-79.242993
 20
-62.95793
 11
-80.242993
 21
-61.95793
  0
LINE
  8
別途部材
  6
CONTINUOUS
 10
-81.242993
 20
-61.95793
 11
-82.242993
 21
-62.95793
  0
LINE
  8
別途部材
  6
CONTINUOUS
 10
-80.242993
 20
-61.95793
 11
-81.242993
 21
-61.95793
  0
LINE
  8
別途部材
  6
CONTINUOUS
 10
-83.242993
 20
-62.95793
 11
-84.242993
 21
-61.95793
  0
LINE
  8
別途部材
  6
CONTINUOUS
 10
-85.242993
 20
-61.95793
 11
-86.242993
 21
-62.95793
  0
LINE
  8
別途部材
  6
CONTINUOUS
 10
-84.242993
 20
-61.95793
 11
-85.242993
 21
-61.95793
  0
LINE
  8
別途部材
  6
CONTINUOUS
 10
-79.242993
 20
-79.624597
 11
-79.242993
 21
-62.95793
  0
LINE
  8
別途部材
  6
CONTINUOUS
 10
-82.242993
 20
-79.624597
 11
-82.242993
 21
-62.95793
  0
LINE
  8
別途部材
  6
CONTINUOUS
 10
-83.242993
 20
-79.624597
 11
-83.242993
 21
-62.95793
  0
LINE
  8
別途部材
  6
CONTINUOUS
 10
-84.242993
 20
-79.624597
 11
-84.242993
 21
-61.95793
  0
LINE
  8
別途部材
  6
CONTINUOUS
 10
-85.242993
 20
-79.624597
 11
-85.242993
 21
-61.95793
  0
LINE
  8
別途部材
  6
CONTINUOUS
 10
-86.242993
 20
-79.624597
 11
-86.242993
 21
-62.95793
  0
LINE
  8
別途部材
  6
CONTINUOUS
 10
-87.242993
 20
-62.95793
 11
-88.242993
 21
-61.95793
  0
LINE
  8
別途部材
  6
CONTINUOUS
 10
-89.242993
 20
-61.95793
 11
-90.242993
 21
-62.95793
  0
LINE
  8
別途部材
  6
CONTINUOUS
 10
-88.242993
 20
-61.95793
 11
-89.242993
 21
-61.95793
  0
LINE
  8
別途部材
  6
CONTINUOUS
 10
-87.242993
 20
-79.624597
 11
-87.242993
 21
-62.95793
  0
LINE
  8
別途部材
  6
CONTINUOUS
 10
-88.242993
 20
-79.624597
 11
-88.242993
 21
-61.95793
  0
LINE
  8
別途部材
  6
CONTINUOUS
 10
-89.242993
 20
-79.624597
 11
-89.242993
 21
-61.95793
  0
LINE
  8
別途部材
  6
CONTINUOUS
 10
-90.242993
 20
-79.624597
 11
-90.242993
 21
-62.95793
  0
LINE
  8
別途部材
  6
CONTINUOUS
 10
-91.242993
 20
-62.95793
 11
-92.242993
 21
-61.95793
  0
LINE
  8
別途部材
  6
CONTINUOUS
 10
-93.242993
 20
-61.95793
 11
-94.242993
 21
-62.95793
  0
LINE
  8
別途部材
  6
CONTINUOUS
 10
-92.242993
 20
-61.95793
 11
-93.242993
 21
-61.95793
  0
LINE
  8
別途部材
  6
CONTINUOUS
 10
-91.242993
 20
-79.624597
 11
-91.242993
 21
-62.95793
  0
LINE
  8
別途部材
  6
CONTINUOUS
 10
-92.242993
 20
-79.624597
 11
-92.242993
 21
-61.95793
  0
LINE
  8
別途部材
  6
CONTINUOUS
 10
-93.242993
 20
-79.624597
 11
-93.242993
 21
-61.95793
  0
LINE
  8
別途部材
  6
CONTINUOUS
 10
-94.242993
 20
-79.624597
 11
-94.242993
 21
-62.95793
  0
LINE
  8
別途部材
  6
CONTINUOUS
 10
-90.242993
 20
-62.95793
 11
-91.242993
 21
-62.95793
  0
LINE
  8
別途部材
  6
CONTINUOUS
 10
-86.242993
 20
-62.95793
 11
-87.242993
 21
-62.95793
  0
LINE
  8
別途部材
  6
CONTINUOUS
 10
-82.242993
 20
-62.95793
 11
-83.242993
 21
-62.95793
  0
LINE
  8
別途部材
  6
CONTINUOUS
 10
-78.242993
 20
-62.95793
 11
-79.242993
 21
-62.95793
  0
LINE
  8
別途部材
  6
CONTINUOUS
 10
-74.242993
 20
-62.95793
 11
-75.242993
 21
-62.95793
  0
LINE
  8
別途部材
  6
CONTINUOUS
 10
-70.242993
 20
-62.95793
 11
-71.242993
 21
-62.95793
  0
LINE
  8
別途部材
  6
CONTINUOUS
 10
-66.242993
 20
-62.95793
 11
-67.242993
 21
-62.95793
  0
LINE
  8
別途部材
  6
CONTINUOUS
 10
-62.242993
 20
-62.95793
 11
-63.242993
 21
-62.95793
  0
LINE
  8
別途部材
  6
CONTINUOUS
 10
-58.242993
 20
-62.95793
 11
-59.242993
 21
-62.95793
  0
LINE
  8
別途部材
  6
CONTINUOUS
 10
-54.242993
 20
-62.95793
 11
-55.242993
 21
-62.95793
  0
LINE
  8
別途部材
  6
CONTINUOUS
 10
-50.242993
 20
-62.95793
 11
-51.242993
 21
-62.95793
  0
LINE
  8
別途部材
  6
CONTINUOUS
 10
-46.242993
 20
-62.95793
 11
-47.242993
 21
-62.95793
  0
LINE
  8
別途部材
  6
CONTINUOUS
 10
-42.242993
 20
-62.95793
 11
-43.242993
 21
-62.95793
  0
LINE
  8
別途部材
  6
CONTINUOUS
 10
-38.242993
 20
-62.95793
 11
-39.242993
 21
-62.95793
  0
LINE
  8
別途部材
  6
CONTINUOUS
 10
-34.242993
 20
-62.95793
 11
-35.242993
 21
-62.95793
  0
LINE
  8
別途部材
  6
CONTINUOUS
 10
-30.242993
 20
-79.624597
 11
-30.242993
 21
-62.95793
  0
LINE
  8
別途部材
  6
CONTINUOUS
 10
-31.242993
 20
-62.95793
 11
-30.242993
 21
-62.95793
  0
ARC
  8
別途部材
  6
CONTINUOUS
 10
-112.076325
 20
-79.624597
 40
16.666667
 50
90.0
 51
180.0
  0
LINE
  8
別途部材
  6
CONTINUOUS
 10
-95.242993
 20
-62.95793
 11
-96.242993
 21
-61.95793
  0
LINE
  8
別途部材
  6
CONTINUOUS
 10
-97.242993
 20
-61.95793
 11
-98.242993
 21
-62.95793
  0
LINE
  8
別途部材
  6
CONTINUOUS
 10
-96.242993
 20
-61.95793
 11
-97.242993
 21
-61.95793
  0
LINE
  8
別途部材
  6
CONTINUOUS
 10
-95.242993
 20
-79.624597
 11
-95.242993
 21
-62.95793
  0
LINE
  8
別途部材
  6
CONTINUOUS
 10
-96.242993
 20
-79.624597
 11
-96.242993
 21
-61.95793
  0
LINE
  8
別途部材
  6
CONTINUOUS
 10
-97.242993
 20
-79.624597
 11
-97.242993
 21
-61.95793
  0
LINE
  8
別途部材
  6
CONTINUOUS
 10
-98.242993
 20
-79.624597
 11
-98.242993
 21
-62.95793
  0
LINE
  8
別途部材
  6
CONTINUOUS
 10
-99.242993
 20
-62.95793
 11
-100.242993
 21
-61.95793
  0
LINE
  8
別途部材
  6
CONTINUOUS
 10
-101.242993
 20
-61.95793
 11
-102.242993
 21
-62.95793
  0
LINE
  8
別途部材
  6
CONTINUOUS
 10
-100.242993
 20
-61.95793
 11
-101.242993
 21
-61.95793
  0
LINE
  8
別途部材
  6
CONTINUOUS
 10
-99.242993
 20
-79.624597
 11
-99.242993
 21
-62.95793
  0
LINE
  8
別途部材
  6
CONTINUOUS
 10
-100.242993
 20
-79.624597
 11
-100.242993
 21
-61.95793
  0
LINE
  8
別途部材
  6
CONTINUOUS
 10
-101.242993
 20
-79.624597
 11
-101.242993
 21
-61.95793
  0
LINE
  8
別途部材
  6
CONTINUOUS
 10
-102.242993
 20
-79.624597
 11
-102.242993
 21
-62.95793
  0
LINE
  8
別途部材
  6
CONTINUOUS
 10
-98.242993
 20
-62.95793
 11
-99.242993
 21
-62.95793
  0
LINE
  8
別途部材
  6
CONTINUOUS
 10
-103.242993
 20
-62.95793
 11
-104.242993
 21
-61.95793
  0
LINE
  8
別途部材
  6
CONTINUOUS
 10
-105.242993
 20
-61.95793
 11
-106.242993
 21
-62.95793
  0
LINE
  8
別途部材
  6
CONTINUOUS
 10
-104.242993
 20
-61.95793
 11
-105.242993
 21
-61.95793
  0
LINE
  8
別途部材
  6
CONTINUOUS
 10
-103.242993
 20
-79.624597
 11
-103.242993
 21
-62.95793
  0
LINE
  8
別途部材
  6
CONTINUOUS
 10
-104.242993
 20
-79.624597
 11
-104.242993
 21
-61.95793
  0
LINE
  8
別途部材
  6
CONTINUOUS
 10
-105.242993
 20
-79.624597
 11
-105.242993
 21
-61.95793
  0
LINE
  8
別途部材
  6
CONTINUOUS
 10
-106.242993
 20
-79.624597
 11
-106.242993
 21
-62.95793
  0
LINE
  8
別途部材
  6
CONTINUOUS
 10
-107.242993
 20
-62.95793
 11
-108.242993
 21
-61.95793
  0
LINE
  8
別途部材
  6
CONTINUOUS
 10
-109.242993
 20
-61.95793
 11
-110.242993
 21
-62.95793
  0
LINE
  8
別途部材
  6
CONTINUOUS
 10
-108.242993
 20
-61.95793
 11
-109.242993
 21
-61.95793
  0
LINE
  8
別途部材
  6
CONTINUOUS
 10
-107.242993
 20
-79.624597
 11
-107.242993
 21
-62.95793
  0
LINE
  8
別途部材
  6
CONTINUOUS
 10
-108.242993
 20
-79.624597
 11
-108.242993
 21
-61.95793
  0
LINE
  8
別途部材
  6
CONTINUOUS
 10
-109.242993
 20
-79.624597
 11
-109.242993
 21
-61.95793
  0
LINE
  8
別途部材
  6
CONTINUOUS
 10
-110.242993
 20
-79.624597
 11
-110.242993
 21
-62.95793
  0
LINE
  8
別途部材
  6
CONTINUOUS
 10
-106.242993
 20
-62.95793
 11
-107.242993
 21
-62.95793
  0
LINE
  8
別途部材
  6
CONTINUOUS
 10
-112.076325
 20
-62.95793
 11
-110.242993
 21
-62.95793
  0
LINE
  8
別途部材
  6
CONTINUOUS
 10
-103.242993
 20
-62.95793
 11
-102.242993
 21
-62.95793
  0
LINE
  8
別途部材
  6
CONTINUOUS
 10
-95.242993
 20
-62.95793
 11
-94.242993
 21
-62.95793
  0
LINE
  8
別途部材
  6
CONTINUOUS
 62
    96
 10
72.923675
 20
-79.624597
 11
73.323675
 21
-80.624597
  0
LINE
  8
別途部材
  6
CONTINUOUS
 62
    96
 10
72.923675
 20
-79.624597
 11
-28.742993
 21
-79.624597
  0
LINE
  8
別途部材
  6
CONTINUOUS
 10
73.323675
 20
-80.624597
 11
-28.742993
 21
-80.624597
  0
LINE
  8
別途部材
  6
CONTINUOUS
 10
-28.242993
 20
-79.624597
 11
-28.242993
 21
-61.95793
  0
LINE
  8
別途部材
  6
CONTINUOUS
 10
-25.242993
 20
-79.624597
 11
-25.242993
 21
-61.95793
  0
LINE
  8
別途部材
  6
CONTINUOUS
 10
-28.242993
 20
-61.95793
 11
-27.242993
 21
-62.95793
  0
LINE
  8
別途部材
  6
CONTINUOUS
 10
-24.242993
 20
-79.624597
 11
-24.242993
 21
-61.95793
  0
LINE
  8
別途部材
  6
CONTINUOUS
 10
-26.242993
 20
-62.95793
 11
-25.242993
 21
-61.95793
  0
LINE
  8
別途部材
  6
CONTINUOUS
 10
-24.242993
 20
-61.95793
 11
-23.242993
 21
-62.95793
  0
LINE
  8
別途部材
  6
CONTINUOUS
 10
-25.242993
 20
-61.95793
 11
-24.242993
 21
-61.95793
  0
LINE
  8
別途部材
  6
CONTINUOUS
 10
-28.242993
 20
-61.95793
 11
-28.742993
 21
-61.95793
  0
LINE
  8
別途部材
  6
CONTINUOUS
 10
-22.242993
 20
-62.95793
 11
-21.242993
 21
-61.95793
  0
LINE
  8
別途部材
  6
CONTINUOUS
 10
-20.242993
 20
-61.95793
 11
-19.242993
 21
-62.95793
  0
LINE
  8
別途部材
  6
CONTINUOUS
 10
-21.242993
 20
-61.95793
 11
-20.242993
 21
-61.95793
  0
LINE
  8
別途部材
  6
CONTINUOUS
 10
-26.242993
 20
-79.624597
 11
-26.242993
 21
-62.95793
  0
LINE
  8
別途部材
  6
CONTINUOUS
 10
-23.242993
 20
-79.624597
 11
-23.242993
 21
-62.95793
  0
LINE
  8
別途部材
  6
CONTINUOUS
 10
-22.242993
 20
-79.624597
 11
-22.242993
 21
-62.95793
  0
LINE
  8
別途部材
  6
CONTINUOUS
 10
-21.242993
 20
-79.624597
 11
-21.242993
 21
-61.95793
  0
LINE
  8
別途部材
  6
CONTINUOUS
 10
-20.242993
 20
-79.624597
 11
-20.242993
 21
-61.95793
  0
LINE
  8
別途部材
  6
CONTINUOUS
 10
-19.242993
 20
-79.624597
 11
-19.242993
 21
-62.95793
  0
LINE
  8
別途部材
  6
CONTINUOUS
 10
-18.242993
 20
-62.95793
 11
-17.242993
 21
-61.95793
  0
LINE
  8
別途部材
  6
CONTINUOUS
 10
-16.242993
 20
-61.95793
 11
-15.242993
 21
-62.95793
  0
LINE
  8
別途部材
  6
CONTINUOUS
 10
-17.242993
 20
-61.95793
 11
-16.242993
 21
-61.95793
  0
LINE
  8
別途部材
  6
CONTINUOUS
 10
-18.242993
 20
-79.624597
 11
-18.242993
 21
-62.95793
  0
LINE
  8
別途部材
  6
CONTINUOUS
 10
-17.242993
 20
-79.624597
 11
-17.242993
 21
-61.95793
  0
LINE
  8
別途部材
  6
CONTINUOUS
 10
-16.242993
 20
-79.624597
 11
-16.242993
 21
-61.95793
  0
LINE
  8
別途部材
  6
CONTINUOUS
 10
-15.242993
 20
-79.624597
 11
-15.242993
 21
-62.95793
  0
LINE
  8
別途部材
  6
CONTINUOUS
 10
-13.242993
 20
-79.624597
 11
-13.242993
 21
-61.95793
  0
LINE
  8
別途部材
  6
CONTINUOUS
 10
-12.242993
 20
-79.624597
 11
-12.242993
 21
-61.95793
  0
LINE
  8
別途部材
  6
CONTINUOUS
 10
-14.242993
 20
-62.95793
 11
-13.242993
 21
-61.95793
  0
LINE
  8
別途部材
  6
CONTINUOUS
 10
-12.242993
 20
-61.95793
 11
-11.242993
 21
-62.95793
  0
LINE
  8
別途部材
  6
CONTINUOUS
 10
-13.242993
 20
-61.95793
 11
-12.242993
 21
-61.95793
  0
LINE
  8
別途部材
  6
CONTINUOUS
 10
-10.242993
 20
-62.95793
 11
-9.242993
 21
-61.95793
  0
LINE
  8
別途部材
  6
CONTINUOUS
 10
-8.242993
 20
-61.95793
 11
-7.242993
 21
-62.95793
  0
LINE
  8
別途部材
  6
CONTINUOUS
 10
-9.242993
 20
-61.95793
 11
-8.242993
 21
-61.95793
  0
LINE
  8
別途部材
  6
CONTINUOUS
 10
-14.242993
 20
-79.624597
 11
-14.242993
 21
-62.95793
  0
LINE
  8
別途部材
  6
CONTINUOUS
 10
-11.242993
 20
-79.624597
 11
-11.242993
 21
-62.95793
  0
LINE
  8
別途部材
  6
CONTINUOUS
 10
-10.242993
 20
-79.624597
 11
-10.242993
 21
-62.95793
  0
LINE
  8
別途部材
  6
CONTINUOUS
 10
-9.242993
 20
-79.624597
 11
-9.242993
 21
-61.95793
  0
LINE
  8
別途部材
  6
CONTINUOUS
 10
-8.242993
 20
-79.624597
 11
-8.242993
 21
-61.95793
  0
LINE
  8
別途部材
  6
CONTINUOUS
 10
-7.242993
 20
-79.624597
 11
-7.242993
 21
-62.95793
  0
LINE
  8
別途部材
  6
CONTINUOUS
 10
-6.242993
 20
-62.95793
 11
-5.242993
 21
-61.95793
  0
LINE
  8
別途部材
  6
CONTINUOUS
 10
-4.242993
 20
-61.95793
 11
-3.242993
 21
-62.95793
  0
LINE
  8
別途部材
  6
CONTINUOUS
 10
-5.242993
 20
-61.95793
 11
-4.242993
 21
-61.95793
  0
LINE
  8
別途部材
  6
CONTINUOUS
 10
-6.242993
 20
-79.624597
 11
-6.242993
 21
-62.95793
  0
LINE
  8
別途部材
  6
CONTINUOUS
 10
-5.242993
 20
-79.624597
 11
-5.242993
 21
-61.95793
  0
LINE
  8
別途部材
  6
CONTINUOUS
 10
-4.242993
 20
-79.624597
 11
-4.242993
 21
-61.95793
  0
LINE
  8
別途部材
  6
CONTINUOUS
 10
-3.242993
 20
-79.624597
 11
-3.242993
 21
-62.95793
  0
LINE
  8
別途部材
  6
CONTINUOUS
 10
-1.242993
 20
-79.624597
 11
-1.242993
 21
-61.95793
  0
LINE
  8
別途部材
  6
CONTINUOUS
 10
-0.242993
 20
-79.624597
 11
-0.242993
 21
-61.95793
  0
LINE
  8
別途部材
  6
CONTINUOUS
 10
-2.242993
 20
-62.95793
 11
-1.242993
 21
-61.95793
  0
LINE
  8
別途部材
  6
CONTINUOUS
 10
-0.242993
 20
-61.95793
 11
0.757007
 21
-62.95793
  0
LINE
  8
別途部材
  6
CONTINUOUS
 10
-1.242993
 20
-61.95793
 11
-0.242993
 21
-61.95793
  0
LINE
  8
別途部材
  6
CONTINUOUS
 10
1.757007
 20
-62.95793
 11
2.757007
 21
-61.95793
  0
LINE
  8
別途部材
  6
CONTINUOUS
 10
3.757007
 20
-61.95793
 11
4.757007
 21
-62.95793
  0
LINE
  8
別途部材
  6
CONTINUOUS
 10
2.757007
 20
-61.95793
 11
3.757007
 21
-61.95793
  0
LINE
  8
別途部材
  6
CONTINUOUS
 10
-2.242993
 20
-79.624597
 11
-2.242993
 21
-62.95793
  0
LINE
  8
別途部材
  6
CONTINUOUS
 10
0.757007
 20
-79.624597
 11
0.757007
 21
-62.95793
  0
LINE
  8
別途部材
  6
CONTINUOUS
 10
1.757007
 20
-79.624597
 11
1.757007
 21
-62.95793
  0
LINE
  8
別途部材
  6
CONTINUOUS
 10
2.757007
 20
-79.624597
 11
2.757007
 21
-61.95793
  0
LINE
  8
別途部材
  6
CONTINUOUS
 10
3.757007
 20
-79.624597
 11
3.757007
 21
-61.95793
  0
LINE
  8
別途部材
  6
CONTINUOUS
 10
4.757007
 20
-79.624597
 11
4.757007
 21
-62.95793
  0
LINE
  8
別途部材
  6
CONTINUOUS
 10
5.757007
 20
-62.95793
 11
6.757007
 21
-61.95793
  0
LINE
  8
別途部材
  6
CONTINUOUS
 10
7.757007
 20
-61.95793
 11
8.757007
 21
-62.95793
  0
LINE
  8
別途部材
  6
CONTINUOUS
 10
6.757007
 20
-61.95793
 11
7.757007
 21
-61.95793
  0
LINE
  8
別途部材
  6
CONTINUOUS
 10
5.757007
 20
-79.624597
 11
5.757007
 21
-62.95793
  0
LINE
  8
別途部材
  6
CONTINUOUS
 10
6.757007
 20
-79.624597
 11
6.757007
 21
-61.95793
  0
LINE
  8
別途部材
  6
CONTINUOUS
 10
7.757007
 20
-79.624597
 11
7.757007
 21
-61.95793
  0
LINE
  8
別途部材
  6
CONTINUOUS
 10
8.757007
 20
-79.624597
 11
8.757007
 21
-62.95793
  0
LINE
  8
別途部材
  6
CONTINUOUS
 10
10.757007
 20
-79.624597
 11
10.757007
 21
-61.95793
  0
LINE
  8
別途部材
  6
CONTINUOUS
 10
11.757007
 20
-79.624597
 11
11.757007
 21
-61.95793
  0
LINE
  8
別途部材
  6
CONTINUOUS
 10
9.757007
 20
-62.95793
 11
10.757007
 21
-61.95793
  0
LINE
  8
別途部材
  6
CONTINUOUS
 10
11.757007
 20
-61.95793
 11
12.757007
 21
-62.95793
  0
LINE
  8
別途部材
  6
CONTINUOUS
 10
10.757007
 20
-61.95793
 11
11.757007
 21
-61.95793
  0
LINE
  8
別途部材
  6
CONTINUOUS
 10
13.757007
 20
-62.95793
 11
14.757007
 21
-61.95793
  0
LINE
  8
別途部材
  6
CONTINUOUS
 10
15.757007
 20
-61.95793
 11
16.757007
 21
-62.95793
  0
LINE
  8
別途部材
  6
CONTINUOUS
 10
14.757007
 20
-61.95793
 11
15.757007
 21
-61.95793
  0
LINE
  8
別途部材
  6
CONTINUOUS
 10
9.757007
 20
-79.624597
 11
9.757007
 21
-62.95793
  0
LINE
  8
別途部材
  6
CONTINUOUS
 10
12.757007
 20
-79.624597
 11
12.757007
 21
-62.95793
  0
LINE
  8
別途部材
  6
CONTINUOUS
 10
13.757007
 20
-79.624597
 11
13.757007
 21
-62.95793
  0
LINE
  8
別途部材
  6
CONTINUOUS
 10
14.757007
 20
-79.624597
 11
14.757007
 21
-61.95793
  0
LINE
  8
別途部材
  6
CONTINUOUS
 10
15.757007
 20
-79.624597
 11
15.757007
 21
-61.95793
  0
LINE
  8
別途部材
  6
CONTINUOUS
 10
16.757007
 20
-79.624597
 11
16.757007
 21
-62.95793
  0
LINE
  8
別途部材
  6
CONTINUOUS
 10
17.757007
 20
-62.95793
 11
18.757007
 21
-61.95793
  0
LINE
  8
別途部材
  6
CONTINUOUS
 10
19.757007
 20
-61.95793
 11
20.757007
 21
-62.95793
  0
LINE
  8
別途部材
  6
CONTINUOUS
 10
18.757007
 20
-61.95793
 11
19.757007
 21
-61.95793
  0
LINE
  8
別途部材
  6
CONTINUOUS
 10
17.757007
 20
-79.624597
 11
17.757007
 21
-62.95793
  0
LINE
  8
別途部材
  6
CONTINUOUS
 10
18.757007
 20
-79.624597
 11
18.757007
 21
-61.95793
  0
LINE
  8
別途部材
  6
CONTINUOUS
 10
19.757007
 20
-79.624597
 11
19.757007
 21
-61.95793
  0
LINE
  8
別途部材
  6
CONTINUOUS
 10
20.757007
 20
-79.624597
 11
20.757007
 21
-62.95793
  0
LINE
  8
別途部材
  6
CONTINUOUS
 10
22.757007
 20
-79.624597
 11
22.757007
 21
-61.95793
  0
LINE
  8
別途部材
  6
CONTINUOUS
 10
23.757007
 20
-79.624597
 11
23.757007
 21
-61.95793
  0
LINE
  8
別途部材
  6
CONTINUOUS
 10
21.757007
 20
-62.95793
 11
22.757007
 21
-61.95793
  0
LINE
  8
別途部材
  6
CONTINUOUS
 10
23.757007
 20
-61.95793
 11
24.757007
 21
-62.95793
  0
LINE
  8
別途部材
  6
CONTINUOUS
 10
22.757007
 20
-61.95793
 11
23.757007
 21
-61.95793
  0
LINE
  8
別途部材
  6
CONTINUOUS
 10
25.757007
 20
-62.95793
 11
26.757007
 21
-61.95793
  0
LINE
  8
別途部材
  6
CONTINUOUS
 10
27.757007
 20
-61.95793
 11
28.757007
 21
-62.95793
  0
LINE
  8
別途部材
  6
CONTINUOUS
 10
26.757007
 20
-61.95793
 11
27.757007
 21
-61.95793
  0
LINE
  8
別途部材
  6
CONTINUOUS
 10
21.757007
 20
-79.624597
 11
21.757007
 21
-62.95793
  0
LINE
  8
別途部材
  6
CONTINUOUS
 10
24.757007
 20
-79.624597
 11
24.757007
 21
-62.95793
  0
LINE
  8
別途部材
  6
CONTINUOUS
 10
25.757007
 20
-79.624597
 11
25.757007
 21
-62.95793
  0
LINE
  8
別途部材
  6
CONTINUOUS
 10
26.757007
 20
-79.624597
 11
26.757007
 21
-61.95793
  0
LINE
  8
別途部材
  6
CONTINUOUS
 10
27.757007
 20
-79.624597
 11
27.757007
 21
-61.95793
  0
LINE
  8
別途部材
  6
CONTINUOUS
 10
28.757007
 20
-79.624597
 11
28.757007
 21
-62.95793
  0
LINE
  8
別途部材
  6
CONTINUOUS
 10
29.757007
 20
-62.95793
 11
30.757007
 21
-61.95793
  0
LINE
  8
別途部材
  6
CONTINUOUS
 10
31.757007
 20
-61.95793
 11
32.757007
 21
-62.95793
  0
LINE
  8
別途部材
  6
CONTINUOUS
 10
30.757007
 20
-61.95793
 11
31.757007
 21
-61.95793
  0
LINE
  8
別途部材
  6
CONTINUOUS
 10
29.757007
 20
-79.624597
 11
29.757007
 21
-62.95793
  0
LINE
  8
別途部材
  6
CONTINUOUS
 10
30.757007
 20
-79.624597
 11
30.757007
 21
-61.95793
  0
LINE
  8
別途部材
  6
CONTINUOUS
 10
31.757007
 20
-79.624597
 11
31.757007
 21
-61.95793
  0
LINE
  8
別途部材
  6
CONTINUOUS
 10
32.757007
 20
-79.624597
 11
32.757007
 21
-62.95793
  0
LINE
  8
別途部材
  6
CONTINUOUS
 10
33.757007
 20
-62.95793
 11
34.757007
 21
-61.95793
  0
LINE
  8
別途部材
  6
CONTINUOUS
 10
35.757007
 20
-61.95793
 11
36.757007
 21
-62.95793
  0
LINE
  8
別途部材
  6
CONTINUOUS
 10
34.757007
 20
-61.95793
 11
35.757007
 21
-61.95793
  0
LINE
  8
別途部材
  6
CONTINUOUS
 10
33.757007
 20
-79.624597
 11
33.757007
 21
-62.95793
  0
LINE
  8
別途部材
  6
CONTINUOUS
 10
34.757007
 20
-79.624597
 11
34.757007
 21
-61.95793
  0
LINE
  8
別途部材
  6
CONTINUOUS
 10
35.757007
 20
-79.624597
 11
35.757007
 21
-61.95793
  0
LINE
  8
別途部材
  6
CONTINUOUS
 10
36.757007
 20
-79.624597
 11
36.757007
 21
-62.95793
  0
LINE
  8
別途部材
  6
CONTINUOUS
 10
32.757007
 20
-62.95793
 11
33.757007
 21
-62.95793
  0
LINE
  8
別途部材
  6
CONTINUOUS
 10
28.757007
 20
-62.95793
 11
29.757007
 21
-62.95793
  0
LINE
  8
別途部材
  6
CONTINUOUS
 10
24.757007
 20
-62.95793
 11
25.757007
 21
-62.95793
  0
LINE
  8
別途部材
  6
CONTINUOUS
 10
20.757007
 20
-62.95793
 11
21.757007
 21
-62.95793
  0
LINE
  8
別途部材
  6
CONTINUOUS
 10
16.757007
 20
-62.95793
 11
17.757007
 21
-62.95793
  0
LINE
  8
別途部材
  6
CONTINUOUS
 10
12.757007
 20
-62.95793
 11
13.757007
 21
-62.95793
  0
LINE
  8
別途部材
  6
CONTINUOUS
 10
8.757007
 20
-62.95793
 11
9.757007
 21
-62.95793
  0
LINE
  8
別途部材
  6
CONTINUOUS
 10
4.757007
 20
-62.95793
 11
5.757007
 21
-62.95793
  0
LINE
  8
別途部材
  6
CONTINUOUS
 10
0.757007
 20
-62.95793
 11
1.757007
 21
-62.95793
  0
LINE
  8
別途部材
  6
CONTINUOUS
 10
-3.242993
 20
-62.95793
 11
-2.242993
 21
-62.95793
  0
LINE
  8
別途部材
  6
CONTINUOUS
 10
-7.242993
 20
-62.95793
 11
-6.242993
 21
-62.95793
  0
LINE
  8
別途部材
  6
CONTINUOUS
 10
-11.242993
 20
-62.95793
 11
-10.242993
 21
-62.95793
  0
LINE
  8
別途部材
  6
CONTINUOUS
 10
-15.242993
 20
-62.95793
 11
-14.242993
 21
-62.95793
  0
LINE
  8
別途部材
  6
CONTINUOUS
 10
-19.242993
 20
-62.95793
 11
-18.242993
 21
-62.95793
  0
LINE
  8
別途部材
  6
CONTINUOUS
 10
-23.242993
 20
-62.95793
 11
-22.242993
 21
-62.95793
  0
LINE
  8
別途部材
  6
CONTINUOUS
 10
-27.242993
 20
-79.624597
 11
-27.242993
 21
-62.95793
  0
LINE
  8
別途部材
  6
CONTINUOUS
 10
-26.242993
 20
-62.95793
 11
-27.242993
 21
-62.95793
  0
ARC
  8
別途部材
  6
CONTINUOUS
 10
54.590342
 20
-79.624597
 40
16.666667
 50
0.0
 51
90.0
  0
LINE
  8
別途部材
  6
CONTINUOUS
 10
37.757007
 20
-62.95793
 11
38.757007
 21
-61.95793
  0
LINE
  8
別途部材
  6
CONTINUOUS
 10
39.757007
 20
-61.95793
 11
40.757007
 21
-62.95793
  0
LINE
  8
別途部材
  6
CONTINUOUS
 10
38.757007
 20
-61.95793
 11
39.757007
 21
-61.95793
  0
LINE
  8
別途部材
  6
CONTINUOUS
 10
37.757007
 20
-79.624597
 11
37.757007
 21
-62.95793
  0
LINE
  8
別途部材
  6
CONTINUOUS
 10
38.757007
 20
-79.624597
 11
38.757007
 21
-61.95793
  0
LINE
  8
別途部材
  6
CONTINUOUS
 10
39.757007
 20
-79.624597
 11
39.757007
 21
-61.95793
  0
LINE
  8
別途部材
  6
CONTINUOUS
 10
40.757007
 20
-79.624597
 11
40.757007
 21
-62.95793
  0
LINE
  8
別途部材
  6
CONTINUOUS
 10
41.757007
 20
-62.95793
 11
42.757007
 21
-61.95793
  0
LINE
  8
別途部材
  6
CONTINUOUS
 10
43.757007
 20
-61.95793
 11
44.757007
 21
-62.95793
  0
LINE
  8
別途部材
  6
CONTINUOUS
 10
42.757007
 20
-61.95793
 11
43.757007
 21
-61.95793
  0
LINE
  8
別途部材
  6
CONTINUOUS
 10
41.757007
 20
-79.624597
 11
41.757007
 21
-62.95793
  0
LINE
  8
別途部材
  6
CONTINUOUS
 10
42.757007
 20
-79.624597
 11
42.757007
 21
-61.95793
  0
LINE
  8
別途部材
  6
CONTINUOUS
 10
43.757007
 20
-79.624597
 11
43.757007
 21
-61.95793
  0
LINE
  8
別途部材
  6
CONTINUOUS
 10
44.757007
 20
-79.624597
 11
44.757007
 21
-62.95793
  0
LINE
  8
別途部材
  6
CONTINUOUS
 10
40.757007
 20
-62.95793
 11
41.757007
 21
-62.95793
  0
LINE
  8
別途部材
  6
CONTINUOUS
 10
45.757007
 20
-62.95793
 11
46.757007
 21
-61.95793
  0
LINE
  8
別途部材
  6
CONTINUOUS
 10
47.757007
 20
-61.95793
 11
48.757007
 21
-62.95793
  0
LINE
  8
別途部材
  6
CONTINUOUS
 10
46.757007
 20
-61.95793
 11
47.757007
 21
-61.95793
  0
LINE
  8
別途部材
  6
CONTINUOUS
 10
45.757007
 20
-79.624597
 11
45.757007
 21
-62.95793
  0
LINE
  8
別途部材
  6
CONTINUOUS
 10
46.757007
 20
-79.624597
 11
46.757007
 21
-61.95793
  0
LINE
  8
別途部材
  6
CONTINUOUS
 10
47.757007
 20
-79.624597
 11
47.757007
 21
-61.95793
  0
LINE
  8
別途部材
  6
CONTINUOUS
 10
48.757007
 20
-79.624597
 11
48.757007
 21
-62.95793
  0
LINE
  8
別途部材
  6
CONTINUOUS
 10
49.757007
 20
-62.95793
 11
50.757007
 21
-61.95793
  0
LINE
  8
別途部材
  6
CONTINUOUS
 10
51.757007
 20
-61.95793
 11
52.757007
 21
-62.95793
  0
LINE
  8
別途部材
  6
CONTINUOUS
 10
50.757007
 20
-61.95793
 11
51.757007
 21
-61.95793
  0
LINE
  8
別途部材
  6
CONTINUOUS
 10
49.757007
 20
-79.624597
 11
49.757007
 21
-62.95793
  0
LINE
  8
別途部材
  6
CONTINUOUS
 10
50.757007
 20
-79.624597
 11
50.757007
 21
-61.95793
  0
LINE
  8
別途部材
  6
CONTINUOUS
 10
51.757007
 20
-79.624597
 11
51.757007
 21
-61.95793
  0
LINE
  8
別途部材
  6
CONTINUOUS
 10
52.757007
 20
-79.624597
 11
52.757007
 21
-62.95793
  0
LINE
  8
別途部材
  6
CONTINUOUS
 10
48.757007
 20
-62.95793
 11
49.757007
 21
-62.95793
  0
LINE
  8
別途部材
  6
CONTINUOUS
 10
54.590343
 20
-62.95793
 11
52.757007
 21
-62.95793
  0
LINE
  8
別途部材
  6
CONTINUOUS
 10
45.757007
 20
-62.95793
 11
44.757007
 21
-62.95793
  0
LINE
  8
別途部材
  6
CONTINUOUS
 10
37.757007
 20
-62.95793
 11
36.757007
 21
-62.95793
  0
ENDBLK
  0
BLOCK
  2
*DIM_0011
 70
    65
 10
0.0
 20
0.0
  0
LINE
  8
寸法
  6
BYBLOCK
 62
     0
 10
160.790272
 20
67.42329
 11
160.790272
 21
86.5884
  0
LINE
  8
寸法
  6
BYBLOCK
 62
     0
 10
163.65694
 20
68.756668
 11
163.65694
 21
86.5884
  0
LINE
  8
寸法
  6
BYBLOCK
 62
     0
 10
160.790272
 20
86.5884
 11
163.65694
 21
86.5884
  0
POINT
  8
寸法
 62
     0
 10
160.790272
 20
86.5884
  0
POINT
  8
寸法
 62
     0
 10
163.65694
 20
86.5884
  0
TEXT
  7
TextStyle03
  8
寸法
  6
CONTINUOUS
 62
     0
 10
163.98125
 20
86.95
  1
86
 40
3.0
 72
     5
 11
167.16875
 21
86.95
  0
ENDBLK
  0
BLOCK
  2
*DIM_0012
 70
    65
 10
0.0
 20
0.0
  0
LINE
  8
寸法
  6
BYBLOCK
 62
     0
 10
162.156942
 20
67.756668
 11
107.889473
 21
67.756668
  0
LINE
  8
寸法
  6
BYBLOCK
 62
     0
 10
107.889473
 20
64.756625
 11
107.889473
 21
67.756668
  0
POINT
  8
寸法
 62
     0
 10
107.889473
 20
64.756625
  0
POINT
  8
寸法
 62
     0
 10
107.889473
 20
67.756668
  0
TEXT
  7
TextStyle03
  8
寸法
  6
CONTINUOUS
 62
     0
 10
107.5
 20
68.03125
  1
90
 40
3.0
 50
90.0
 72
     5
 11
107.5
 21
71.21875
  0
ENDBLK
  0
BLOCK
  2
*DIM_0013
 70
    65
 10
0.0
 20
0.0
  0
LINE
  8
寸法
  6
BYBLOCK
 62
     0
 10
162.156942
 20
-4.910083
 11
107.889473
 21
-4.910083
  0
LINE
  8
寸法
  6
BYBLOCK
 62
     0
 10
107.889473
 20
-1.910042
 11
107.889473
 21
-4.910083
  0
POINT
  8
寸法
 62
     0
 10
107.889473
 20
-1.910042
  0
POINT
  8
寸法
 62
     0
 10
107.889473
 20
-4.910083
  0
TEXT
  7
TextStyle03
  8
寸法
  6
CONTINUOUS
 62
     0
 10
107.5
 20
-8.39375
  1
90
 40
3.0
 50
90.0
 72
     5
 11
107.5
 21
-5.20625
  0
ENDBLK
  0
BLOCK
  2
*DIM_0014
 70
    65
 10
0.0
 20
0.0
  0
LINE
  8
寸法
  6
BYBLOCK
 62
     0
 10
73.923675
 20
-79.624597
 11
87.226657
 21
-79.624597
  0
LINE
  8
寸法
  6
BYBLOCK
 62
     0
 10
75.257052
 20
-82.491265
 11
87.226657
 21
-82.491265
  0
LINE
  8
寸法
  6
BYBLOCK
 62
     0
 10
87.226657
 20
-79.624597
 11
87.226657
 21
-82.491265
  0
POINT
  8
寸法
 62
     0
 10
87.226657
 20
-79.624597
  0
POINT
  8
寸法
 62
     0
 10
87.226657
 20
-82.491265
  0
TEXT
  7
TextStyle03
  8
寸法
  6
CONTINUOUS
 62
     0
 10
86.85
 20
-86.04375
  1
86
 40
3.0
 50
90.0
 72
     5
 11
86.85
 21
-82.85625
  0
ENDBLK
  0
BLOCK
  2
*DIM_0015
 70
    65
 10
0.0
 20
0.0
  0
LINE
  8
寸法
  6
BYBLOCK
 62
     0
 10
74.257052
 20
-80.991267
 11
74.257052
 21
-22.536362
  0
LINE
  8
寸法
  6
BYBLOCK
 62
     0
 10
71.257007
 20
-22.536362
 11
74.257052
 21
-22.536362
  0
POINT
  8
寸法
 62
     0
 10
71.257007
 20
-22.536362
  0
POINT
  8
寸法
 62
     0
 10
74.257052
 20
-22.536362
  0
TEXT
  7
TextStyle03
  8
寸法
  6
CONTINUOUS
 62
     0
 10
74.53125
 20
-22.175
  1
90
 40
3.0
 72
     5
 11
77.71875
 21
-22.175
  0
ENDBLK
  0
BLOCK
  2
*DIM_0016
 70
    65
 10
0.0
 20
0.0
  0
LINE
  8
寸法
  6
BYBLOCK
 62
     0
 10
-131.743037
 20
-80.991267
 11
-131.743037
 21
-22.536362
  0
LINE
  8
寸法
  6
BYBLOCK
 62
     0
 10
-128.742993
 20
-22.536362
 11
-131.743037
 21
-22.536362
  0
POINT
  8
寸法
 62
     0
 10
-128.742993
 20
-22.536362
  0
POINT
  8
寸法
 62
     0
 10
-131.743037
 20
-22.536362
  0
TEXT
  7
TextStyle03
  8
寸法
  6
CONTINUOUS
 62
     0
 10
-135.21875
 20
-22.175
  1
90
 40
3.0
 72
     5
 11
-132.03125
 21
-22.175
  0
ENDBLK
  0
BLOCK
  2
*DIM_0017
 70
    65
 10
0.0
 20
0.0
  0
LINE
  8
寸法
  6
BYBLOCK
 62
     0
 10
-131.742993
 20
8.08996
 11
-161.23207
 21
8.08996
  0
LINE
  8
寸法
  6
BYBLOCK
 62
     0
 10
-131.742993
 20
31.423293
 11
-161.23207
 21
31.423293
  0
LINE
  8
寸法
  6
BYBLOCK
 62
     0
 10
-161.23207
 20
8.08996
 11
-161.23207
 21
31.423293
  0
POINT
  8
寸法
 62
     0
 10
-161.23207
 20
8.08996
  0
POINT
  8
寸法
 62
     0
 10
-161.23207
 20
31.423293
  0
TEXT
  7
TextStyle03
  8
寸法
  6
CONTINUOUS
 62
     0
 10
-161.6
 20
17.3125
  1
700
 40
3.0
 50
90.0
 72
     5
 11
-161.6
 21
22.1875
  0
ENDBLK
  0
BLOCK
  2
*DIM_0018
 70
    65
 10
0.0
 20
0.0
  0
LINE
  8
寸法
  6
BYBLOCK
 62
     0
 10
-131.742993
 20
54.756625
 11
-161.23207
 21
54.756625
  0
LINE
  8
寸法
  6
BYBLOCK
 62
     0
 10
-161.23207
 20
31.423293
 11
-161.23207
 21
54.756625
  0
POINT
  8
寸法
 62
     0
 10
-161.23207
 20
54.756625
  0
TEXT
  7
TextStyle03
  8
寸法
  6
CONTINUOUS
 62
     0
 10
-161.6
 20
40.6375
  1
700
 40
3.0
 50
90.0
 72
     5
 11
-161.6
 21
45.5125
  0
ENDBLK
  0
BLOCK
  2
*DIM_0019
 70
    65
 10
0.0
 20
0.0
  0
LINE
  8
寸法
  6
BYBLOCK
 62
     0
 10
-122.076325
 20
67.756625
 11
-122.076325
 21
96.864697
  0
LINE
  8
寸法
  6
BYBLOCK
 62
     0
 10
-98.742993
 20
67.756625
 11
-98.742993
 21
96.864697
  0
LINE
  8
寸法
  6
BYBLOCK
 62
     0
 10
-122.076325
 20
96.864697
 11
-98.742993
 21
96.864697
  0
POINT
  8
寸法
 62
     0
 10
-122.076325
 20
96.864697
  0
POINT
  8
寸法
 62
     0
 10
-98.742993
 20
96.864697
  0
TEXT
  7
TextStyle03
  8
寸法
  6
CONTINUOUS
 62
     0
 10
-112.8625
 20
97.225
  1
700
 40
3.0
 72
     5
 11
-107.9875
 21
97.225
  0
ENDBLK
  0
BLOCK
  2
*DIM_0020
 70
    65
 10
0.0
 20
0.0
  0
LINE
  8
寸法
  6
BYBLOCK
 62
     0
 10
-75.40966
 20
67.756625
 11
-75.40966
 21
96.864697
  0
LINE
  8
寸法
  6
BYBLOCK
 62
     0
 10
-98.742993
 20
96.864697
 11
-75.40966
 21
96.864697
  0
POINT
  8
寸法
 62
     0
 10
-75.40966
 20
96.864697
  0
TEXT
  7
TextStyle03
  8
寸法
  6
CONTINUOUS
 62
     0
 10
-89.5375
 20
97.225
  1
700
 40
3.0
 72
     5
 11
-84.6625
 21
97.225
  0
ENDBLK
  0
BLOCK
  2
*DIM_0021
 70
    65
 10
0.0
 20
0.0
  0
LINE
  8
寸法
  6
BYBLOCK
 62
     0
 10
-52.076325
 20
67.756625
 11
-52.076325
 21
96.864697
  0
LINE
  8
寸法
  6
BYBLOCK
 62
     0
 10
-75.40966
 20
96.864697
 11
-52.076325
 21
96.864697
  0
POINT
  8
寸法
 62
     0
 10
-52.076325
 20
96.864697
  0
TEXT
  7
TextStyle03
  8
寸法
  6
CONTINUOUS
 62
     0
 10
-66.1875
 20
97.225
  1
700
 40
3.0
 72
     5
 11
-61.3125
 21
97.225
  0
ENDBLK
  0
BLOCK
  2
*DIM_0022
 70
    65
 10
0.0
 20
0.0
  0
LINE
  8
寸法
  6
BYBLOCK
 62
     0
 10
-28.742993
 20
67.756625
 11
-28.742993
 21
96.864697
  0
LINE
  8
寸法
  6
BYBLOCK
 62
     0
 10
-52.076325
 20
96.864697
 11
-28.742993
 21
96.864697
  0
POINT
  8
寸法
 62
     0
 10
-28.742993
 20
96.864697
  0
TEXT
  7
TextStyle03
  8
寸法
  6
CONTINUOUS
 62
     0
 10
-42.8625
 20
97.225
  1
700
 40
3.0
 72
     5
 11
-37.9875
 21
97.225
  0
ENDBLK
  0
BLOCK
  2
*DIM_0023
 70
    65
 10
0.0
 20
0.0
  0
LINE
  8
寸法
  6
BYBLOCK
 62
     0
 10
-5.40966
 20
67.756625
 11
-5.40966
 21
96.864697
  0
LINE
  8
寸法
  6
BYBLOCK
 62
     0
 10
-28.742993
 20
96.864697
 11
-5.40966
 21
96.864697
  0
POINT
  8
寸法
 62
     0
 10
-5.40966
 20
96.864697
  0
TEXT
  7
TextStyle03
  8
寸法
  6
CONTINUOUS
 62
     0
 10
-19.5375
 20
97.225
  1
700
 40
3.0
 72
     5
 11
-14.6625
 21
97.225
  0
ENDBLK
  0
BLOCK
  2
*DIM_0024
 70
    65
 10
0.0
 20
0.0
  0
LINE
  8
寸法
  6
BYBLOCK
 62
     0
 10
17.923675
 20
67.756625
 11
17.923675
 21
96.864697
  0
LINE
  8
寸法
  6
BYBLOCK
 62
     0
 10
-5.40966
 20
96.864697
 11
17.923675
 21
96.864697
  0
POINT
  8
寸法
 62
     0
 10
17.923675
 20
96.864697
  0
TEXT
  7
TextStyle03
  8
寸法
  6
CONTINUOUS
 62
     0
 10
3.8125
 20
97.225
  1
700
 40
3.0
 72
     5
 11
8.6875
 21
97.225
  0
ENDBLK
  0
BLOCK
  2
*DIM_0025
 70
    65
 10
0.0
 20
0.0
  0
LINE
  8
寸法
  6
BYBLOCK
 62
     0
 10
41.257007
 20
67.756625
 11
41.257007
 21
96.864697
  0
LINE
  8
寸法
  6
BYBLOCK
 62
     0
 10
17.923675
 20
96.864697
 11
41.257007
 21
96.864697
  0
POINT
  8
寸法
 62
     0
 10
41.257007
 20
96.864697
  0
TEXT
  7
TextStyle03
  8
寸法
  6
CONTINUOUS
 62
     0
 10
27.1375
 20
97.225
  1
700
 40
3.0
 72
     5
 11
32.0125
 21
97.225
  0
ENDBLK
  0
BLOCK
  2
*DIM_0026
 70
    65
 10
0.0
 20
0.0
  0
LINE
  8
寸法
  6
BYBLOCK
 62
     0
 10
64.59034
 20
67.756625
 11
64.59034
 21
96.864697
  0
LINE
  8
寸法
  6
BYBLOCK
 62
     0
 10
41.257007
 20
96.864697
 11
64.59034
 21
96.864697
  0
POINT
  8
寸法
 62
     0
 10
64.59034
 20
96.864697
  0
TEXT
  7
TextStyle03
  8
寸法
  6
CONTINUOUS
 62
     0
 10
50.4625
 20
97.225
  1
700
 40
3.0
 72
     5
 11
55.3375
 21
97.225
  0
ENDBLK
  0
BLOCK
  2
*GRP_0027
 70
    65
 10
0.0
 20
0.0
  0
LINE
  8
ボルト／ビス
  6
CONTINUOUS
 10
-129.40966
 20
-79.624597
 11
-129.40966
 21
-79.15793
  0
LINE
  8
ボルト／ビス
  6
CONTINUOUS
 10
-129.776328
 20
-79.624597
 11
-129.776328
 21
-79.55793
  0
LINE
  8
ボルト／ビス
  6
CONTINUOUS
 10
-129.776328
 20
-79.55793
 11
-129.042993
 21
-79.55793
  0
LINE
  8
ボルト／ビス
  6
CONTINUOUS
 10
-129.042993
 20
-79.55793
 11
-129.042993
 21
-79.624597
  0
LINE
  8
ボルト／ビス
  6
CONTINUOUS
 10
-129.776328
 20
-79.624597
 11
-129.042993
 21
-79.624597
  0
LINE
  8
ボルト／ビス
  6
CONTINUOUS
 10
-129.70966
 20
-79.524597
 11
-129.70966
 21
-79.55793
  0
LINE
  8
ボルト／ビス
  6
CONTINUOUS
 10
-129.70966
 20
-79.524597
 11
-129.10966
 21
-79.524597
  0
LINE
  8
ボルト／ビス
  6
CONTINUOUS
 10
-129.10966
 20
-79.524597
 11
-129.10966
 21
-79.55793
  0
LINE
  8
ボルト／ビス
  6
CONTINUOUS
 62
    64
 10
-129.570035
 20
-79.324597
 11
-129.60211
 21
-79.336272
  0
ARC
  8
ボルト／ビス
  6
CONTINUOUS
 62
    64
 10
-129.553996
 20
-79.429576
 40
0.104978
 50
62.721967
 51
90.0
  0
ARC
  8
ボルト／ビス
  6
CONTINUOUS
 62
    64
 10
-129.409659
 20
-79.727
 40
0.402402
 50
76.165002
 51
103.834985
  0
LINE
  8
ボルト／ビス
  6
CONTINUOUS
 62
    64
 10
-129.249285
 20
-79.324597
 11
-129.21721
 21
-79.336272
  0
ARC
  8
ボルト／ビス
  6
CONTINUOUS
 62
    64
 10
-129.265321
 20
-79.429576
 40
0.104978
 50
90.0
 51
117.278033
  0
LINE
  8
ボルト／ビス
  6
CONTINUOUS
 62
    64
 10
-129.570035
 20
-79.324597
 11
-129.249285
 21
-79.324597
  0
LINE
  8
ボルト／ビス
  6
CONTINUOUS
 62
    64
 10
-129.21721
 20
-79.336272
 11
-129.21721
 21
-79.45793
  0
LINE
  8
ボルト／ビス
  6
CONTINUOUS
 62
    64
 10
-129.313435
 20
-79.336272
 11
-129.313435
 21
-79.45793
  0
LINE
  8
ボルト／ビス
  6
CONTINUOUS
 62
    64
 10
-129.60211
 20
-79.336272
 11
-129.60211
 21
-79.45793
  0
LINE
  8
ボルト／ビス
  6
CONTINUOUS
 62
    64
 10
-129.505885
 20
-79.336272
 11
-129.505885
 21
-79.45793
  0
LINE
  8
ボルト／ビス
  6
CONTINUOUS
 10
-129.60211
 20
-79.45793
 11
-129.21721
 21
-79.45793
  0
LINE
  8
ボルト／ビス
  6
CONTINUOUS
 10
-129.60966
 20
-79.45793
 11
-129.60966
 21
-79.524597
  0
LINE
  8
ボルト／ビス
  6
CONTINUOUS
 10
-129.60966
 20
-79.45793
 11
-129.20966
 21
-79.45793
  0
LINE
  8
ボルト／ビス
  6
CONTINUOUS
 10
-129.20966
 20
-79.45793
 11
-129.20966
 21
-79.524597
  0
ENDBLK
  0
BLOCK
  2
*GRP_0028
 70
    65
 10
0.0
 20
0.0
  0
LINE
  8
ボルト／ビス
  6
CONTINUOUS
 10
71.923675
 20
-79.624597
 11
71.923675
 21
-79.15793
  0
LINE
  8
ボルト／ビス
  6
CONTINUOUS
 10
71.557007
 20
-79.624597
 11
71.557007
 21
-79.55793
  0
LINE
  8
ボルト／ビス
  6
CONTINUOUS
 10
71.557007
 20
-79.55793
 11
72.290343
 21
-79.55793
  0
LINE
  8
ボルト／ビス
  6
CONTINUOUS
 10
72.290343
 20
-79.55793
 11
72.290343
 21
-79.624597
  0
LINE
  8
ボルト／ビス
  6
CONTINUOUS
 10
71.557007
 20
-79.624597
 11
72.290343
 21
-79.624597
  0
LINE
  8
ボルト／ビス
  6
CONTINUOUS
 10
71.623675
 20
-79.524597
 11
71.623675
 21
-79.55793
  0
LINE
  8
ボルト／ビス
  6
CONTINUOUS
 10
71.623675
 20
-79.524597
 11
72.223675
 21
-79.524597
  0
LINE
  8
ボルト／ビス
  6
CONTINUOUS
 10
72.223675
 20
-79.524597
 11
72.223675
 21
-79.55793
  0
LINE
  8
ボルト／ビス
  6
CONTINUOUS
 62
    64
 10
71.7633
 20
-79.324597
 11
71.731225
 21
-79.336272
  0
ARC
  8
ボルト／ビス
  6
CONTINUOUS
 62
    64
 10
71.779339
 20
-79.429576
 40
0.104978
 50
62.721967
 51
90.0
  0
ARC
  8
ボルト／ビス
  6
CONTINUOUS
 62
    64
 10
71.923677
 20
-79.727
 40
0.402402
 50
76.165002
 51
103.834985
  0
LINE
  8
ボルト／ビス
  6
CONTINUOUS
 62
    64
 10
72.08405
 20
-79.324597
 11
72.116125
 21
-79.336272
  0
ARC
  8
ボルト／ビス
  6
CONTINUOUS
 62
    64
 10
72.068014
 20
-79.429576
 40
0.104978
 50
90.0
 51
117.278033
  0
LINE
  8
ボルト／ビス
  6
CONTINUOUS
 62
    64
 10
71.7633
 20
-79.324597
 11
72.08405
 21
-79.324597
  0
LINE
  8
ボルト／ビス
  6
CONTINUOUS
 62
    64
 10
72.116125
 20
-79.336272
 11
72.116125
 21
-79.45793
  0
LINE
  8
ボルト／ビス
  6
CONTINUOUS
 62
    64
 10
72.0199
 20
-79.336272
 11
72.0199
 21
-79.45793
  0
LINE
  8
ボルト／ビス
  6
CONTINUOUS
 62
    64
 10
71.731225
 20
-79.336272
 11
71.731225
 21
-79.45793
  0
LINE
  8
ボルト／ビス
  6
CONTINUOUS
 62
    64
 10
71.82745
 20
-79.336272
 11
71.82745
 21
-79.45793
  0
LINE
  8
ボルト／ビス
  6
CONTINUOUS
 10
71.731225
 20
-79.45793
 11
72.116125
 21
-79.45793
  0
LINE
  8
ボルト／ビス
  6
CONTINUOUS
 10
71.723675
 20
-79.45793
 11
71.723675
 21
-79.524597
  0
LINE
  8
ボルト／ビス
  6
CONTINUOUS
 10
71.723675
 20
-79.45793
 11
72.123675
 21
-79.45793
  0
LINE
  8
ボルト／ビス
  6
CONTINUOUS
 10
72.123675
 20
-79.45793
 11
72.123675
 21
-79.524597
  0
ENDBLK
  0
BLOCK
  2
*GRP_0029
 70
    65
 10
0.0
 20
0.0
  0
LINE
  8
ボルト／ビス
  6
CONTINUOUS
 10
160.790272
 20
-2.57671
 11
160.323605
 21
-2.57671
  0
LINE
  8
ボルト／ビス
  6
CONTINUOUS
 10
160.790272
 20
-2.943378
 11
160.723605
 21
-2.943378
  0
LINE
  8
ボルト／ビス
  6
CONTINUOUS
 10
160.723605
 20
-2.943378
 11
160.723605
 21
-2.210042
  0
LINE
  8
ボルト／ビス
  6
CONTINUOUS
 10
160.723605
 20
-2.210042
 11
160.790272
 21
-2.210042
  0
LINE
  8
ボルト／ビス
  6
CONTINUOUS
 10
160.790272
 20
-2.943378
 11
160.790272
 21
-2.210042
  0
LINE
  8
ボルト／ビス
  6
CONTINUOUS
 10
160.690272
 20
-2.87671
 11
160.723605
 21
-2.87671
  0
LINE
  8
ボルト／ビス
  6
CONTINUOUS
 10
160.690272
 20
-2.87671
 11
160.690272
 21
-2.27671
  0
LINE
  8
ボルト／ビス
  6
CONTINUOUS
 10
160.690272
 20
-2.27671
 11
160.723605
 21
-2.27671
  0
LINE
  8
ボルト／ビス
  6
CONTINUOUS
 62
    64
 10
160.490273
 20
-2.737085
 11
160.501947
 21
-2.76916
  0
ARC
  8
ボルト／ビス
  6
CONTINUOUS
 62
    64
 10
160.595249
 20
-2.721046
 40
0.104978
 50
152.721967
 51
180.0
  0
ARC
  8
ボルト／ビス
  6
CONTINUOUS
 62
    64
 10
160.892673
 20
-2.576708
 40
0.402402
 50
166.165002
 51
193.834985
  0
LINE
  8
ボルト／ビス
  6
CONTINUOUS
 62
    64
 10
160.490273
 20
-2.416335
 11
160.501947
 21
-2.38426
  0
ARC
  8
ボルト／ビス
  6
CONTINUOUS
 62
    64
 10
160.595249
 20
-2.432371
 40
0.104978
 50
180.0
 51
207.278033
  0
LINE
  8
ボルト／ビス
  6
CONTINUOUS
 62
    64
 10
160.490273
 20
-2.737085
 11
160.490273
 21
-2.416335
  0
LINE
  8
ボルト／ビス
  6
CONTINUOUS
 62
    64
 10
160.501947
 20
-2.38426
 11
160.623605
 21
-2.38426
  0
LINE
  8
ボルト／ビス
  6
CONTINUOUS
 62
    64
 10
160.501947
 20
-2.480485
 11
160.623605
 21
-2.480485
  0
LINE
  8
ボルト／ビス
  6
CONTINUOUS
 62
    64
 10
160.501947
 20
-2.76916
 11
160.623605
 21
-2.76916
  0
LINE
  8
ボルト／ビス
  6
CONTINUOUS
 62
    64
 10
160.501947
 20
-2.672935
 11
160.623605
 21
-2.672935
  0
LINE
  8
ボルト／ビス
  6
CONTINUOUS
 10
160.623605
 20
-2.76916
 11
160.623605
 21
-2.38426
  0
LINE
  8
ボルト／ビス
  6
CONTINUOUS
 10
160.623605
 20
-2.77671
 11
160.690272
 21
-2.77671
  0
LINE
  8
ボルト／ビス
  6
CONTINUOUS
 10
160.623605
 20
-2.77671
 11
160.623605
 21
-2.37671
  0
LINE
  8
ボルト／ビス
  6
CONTINUOUS
 10
160.623605
 20
-2.37671
 11
160.690272
 21
-2.37671
  0
ENDBLK
  0
BLOCK
  2
*GRP_0030
 70
    65
 10
0.0
 20
0.0
  0
LINE
  8
ボルト／ビス
  6
CONTINUOUS
 10
160.790272
 20
65.42329
 11
160.323605
 21
65.42329
  0
LINE
  8
ボルト／ビス
  6
CONTINUOUS
 10
160.790272
 20
65.056623
 11
160.723605
 21
65.056623
  0
LINE
  8
ボルト／ビス
  6
CONTINUOUS
 10
160.723605
 20
65.056623
 11
160.723605
 21
65.789957
  0
LINE
  8
ボルト／ビス
  6
CONTINUOUS
 10
160.723605
 20
65.789957
 11
160.790272
 21
65.789957
  0
LINE
  8
ボルト／ビス
  6
CONTINUOUS
 10
160.790272
 20
65.056623
 11
160.790272
 21
65.789957
  0
LINE
  8
ボルト／ビス
  6
CONTINUOUS
 10
160.690272
 20
65.12329
 11
160.723605
 21
65.12329
  0
LINE
  8
ボルト／ビス
  6
CONTINUOUS
 10
160.690272
 20
65.12329
 11
160.690272
 21
65.72329
  0
LINE
  8
ボルト／ビス
  6
CONTINUOUS
 10
160.690272
 20
65.72329
 11
160.723605
 21
65.72329
  0
LINE
  8
ボルト／ビス
  6
CONTINUOUS
 62
    64
 10
160.490273
 20
65.262915
 11
160.501947
 21
65.23084
  0
ARC
  8
ボルト／ビス
  6
CONTINUOUS
 62
    64
 10
160.595249
 20
65.278954
 40
0.104978
 50
152.721967
 51
180.0
  0
ARC
  8
ボルト／ビス
  6
CONTINUOUS
 62
    64
 10
160.892673
 20
65.423292
 40
0.402402
 50
166.165002
 51
193.834985
  0
LINE
  8
ボルト／ビス
  6
CONTINUOUS
 62
    64
 10
160.490273
 20
65.583665
 11
160.501947
 21
65.61574
  0
ARC
  8
ボルト／ビス
  6
CONTINUOUS
 62
    64
 10
160.595249
 20
65.567629
 40
0.104978
 50
180.0
 51
207.278033
  0
LINE
  8
ボルト／ビス
  6
CONTINUOUS
 62
    64
 10
160.490273
 20
65.262915
 11
160.490273
 21
65.583665
  0
LINE
  8
ボルト／ビス
  6
CONTINUOUS
 62
    64
 10
160.501947
 20
65.61574
 11
160.623605
 21
65.61574
  0
LINE
  8
ボルト／ビス
  6
CONTINUOUS
 62
    64
 10
160.501947
 20
65.519515
 11
160.623605
 21
65.519515
  0
LINE
  8
ボルト／ビス
  6
CONTINUOUS
 62
    64
 10
160.501947
 20
65.23084
 11
160.623605
 21
65.23084
  0
LINE
  8
ボルト／ビス
  6
CONTINUOUS
 62
    64
 10
160.501947
 20
65.327065
 11
160.623605
 21
65.327065
  0
LINE
  8
ボルト／ビス
  6
CONTINUOUS
 10
160.623605
 20
65.23084
 11
160.623605
 21
65.61574
  0
LINE
  8
ボルト／ビス
  6
CONTINUOUS
 10
160.623605
 20
65.22329
 11
160.690272
 21
65.22329
  0
LINE
  8
ボルト／ビス
  6
CONTINUOUS
 10
160.623605
 20
65.22329
 11
160.623605
 21
65.62329
  0
LINE
  8
ボルト／ビス
  6
CONTINUOUS
 10
160.623605
 20
65.62329
 11
160.690272
 21
65.62329
  0
ENDBLK
  0
ENDSEC
  0
SECTION
  2
ENTITIES
  0
POLYLINE
  8
通り芯
  6
CONTINUOUS
 66
     1
 70
     1
  0
VERTEX
  8
通り芯
 10
-210.0
 20
-148.5
  0
VERTEX
  8
通り芯
 10
210.0
 20
-148.5
  0
VERTEX
  8
通り芯
 10
210.0
 20
148.5
  0
VERTEX
  8
通り芯
 10
-210.0
 20
148.5
  0
SEQEND
  0
INSERT
  2
*GRP_0001
  8
型材断面
  6
CONTINUOUS
 10
0.0
 20
0.0
  0
LINE
  8
型材断面
  6
DASHDOT
 10
-128.742993
 20
64.756625
 11
-128.742993
 21
-87.251428
  0
LINE
  8
型材断面
  6
DASHDOT
 10
71.257007
 20
64.756625
 11
71.257007
 21
-87.251428
  0
LINE
  8
型材断面
  6
DASHDOT
 10
-28.742993
 20
64.756625
 11
-28.742993
 21
-87.251428
  0
LINE
  8
型材断面
  6
DASHDOT
 10
-128.742993
 20
-1.910042
 11
168.93377
 21
-1.910042
  0
LINE
  8
型材断面
  6
DASHDOT
 10
-128.742993
 20
64.756625
 11
168.93377
 21
64.756625
  0
LINE
  8
型材断面
  6
DASHDOT
 10
-128.742993
 20
31.423293
 11
168.93377
 21
31.423293
  0
LINE
  8
型材断面
  6
DASHDOT
 10
-95.542993
 20
64.58996
 11
-95.542993
 21
-1.910042
  0
LINE
  8
型材断面
  6
DASHDOT
 10
-62.142993
 20
64.756625
 11
-62.142993
 21
-1.910042
  0
LINE
  8
型材断面
  6
DASHDOT
 10
38.057007
 20
64.58996
 11
38.057007
 21
-1.910042
  0
LINE
  8
型材断面
  6
DASHDOT
 10
4.657007
 20
64.756625
 11
4.657007
 21
-1.910042
  0
LINE
  8
型材断面
  6
DOT
 10
39.307007
 20
64.58996
 11
39.307007
 21
-1.910042
  0
LINE
  8
型材断面
  6
DOT
 10
36.807007
 20
64.58996
 11
36.807007
 21
-1.910042
  0
LINE
  8
型材断面
  6
DOT
 10
5.907007
 20
64.58996
 11
5.907007
 21
-1.910042
  0
LINE
  8
型材断面
  6
DOT
 10
3.407007
 20
64.58996
 11
3.407007
 21
-1.910042
  0
LINE
  8
型材断面
  6
DOT
 10
-27.492993
 20
64.58996
 11
-27.492993
 21
-1.910042
  0
LINE
  8
型材断面
  6
DOT
 10
-29.992993
 20
64.58996
 11
-29.992993
 21
-1.910042
  0
LINE
  8
型材断面
  6
DOT
 10
-60.892993
 20
64.58996
 11
-60.892993
 21
-1.910042
  0
LINE
  8
型材断面
  6
DOT
 10
-63.392993
 20
64.58996
 11
-63.392993
 21
-1.910042
  0
LINE
  8
型材断面
  6
DOT
 10
-94.292993
 20
64.58996
 11
-94.292993
 21
-1.910042
  0
LINE
  8
型材断面
  6
DOT
 10
-96.792993
 20
64.58996
 11
-96.792993
 21
-1.910042
  0
LINE
  8
型材断面
  6
DOT
 10
-128.742993
 20
32.673293
 11
-96.792993
 21
32.673293
  0
LINE
  8
型材断面
  6
DOT
 10
-128.742993
 20
30.173293
 11
-96.792993
 21
30.173293
  0
LINE
  8
型材断面
  6
DOT
 10
-94.292993
 20
32.673293
 11
-63.392993
 21
32.673293
  0
LINE
  8
型材断面
  6
DOT
 10
-94.292993
 20
30.173293
 11
-63.392993
 21
30.173293
  0
LINE
  8
型材断面
  6
DOT
 10
-29.992993
 20
32.673293
 11
-60.892993
 21
32.673293
  0
LINE
  8
型材断面
  6
DOT
 10
-29.992993
 20
30.173293
 11
-60.892993
 21
30.173293
  0
LINE
  8
型材断面
  6
DOT
 10
-27.492993
 20
32.673293
 11
3.407007
 21
32.673293
  0
LINE
  8
型材断面
  6
DOT
 10
-27.492993
 20
30.173293
 11
3.407007
 21
30.173293
  0
LINE
  8
型材断面
  6
DOT
 10
36.807007
 20
32.673293
 11
5.907007
 21
32.673293
  0
LINE
  8
型材断面
  6
DOT
 10
36.807007
 20
30.173293
 11
5.907007
 21
30.173293
  0
LINE
  8
型材断面
  6
DOT
 10
39.307007
 20
32.673293
 11
70.207007
 21
32.673293
  0
LINE
  8
型材断面
  6
DOT
 10
39.307007
 20
30.173293
 11
70.207007
 21
30.173293
  0
POLYLINE
  8
型材断面
  6
CONTINUOUS
 66
     1
 70
     1
  0
VERTEX
  8
型材断面
 10
-19.342983
 20
-11.685965
  0
VERTEX
  8
型材断面
 10
-38.114912
 20
-11.685965
  0
VERTEX
  8
型材断面
 10
-38.114912
 20
-16.422807
  0
VERTEX
  8
型材断面
 10
-19.342983
 20
-16.422807
  0
SEQEND
  0
LINE
  8
型材断面
  6
CONTINUOUS
 10
-112.076325
 20
-4.54017
 11
-113.571955
 21
-7.130678
  0
LINE
  8
型材断面
  6
CONTINUOUS
 10
-112.076325
 20
-4.54017
 11
-110.580695
 21
-7.130678
  0
LINE
  8
型材断面
  6
CONTINUOUS
 10
-110.580695
 20
-7.130678
 11
-113.571955
 21
-7.130678
  0
LINE
  8
型材断面
  6
CONTINUOUS
 10
-28.742993
 20
-4.54017
 11
-30.238623
 21
-7.130678
  0
LINE
  8
型材断面
  6
CONTINUOUS
 10
-28.742993
 20
-4.54017
 11
-27.247362
 21
-7.130678
  0
LINE
  8
型材断面
  6
CONTINUOUS
 10
-27.247362
 20
-7.130678
 11
-30.238623
 21
-7.130678
  0
LINE
  8
型材断面
  6
CONTINUOUS
 10
54.59034
 20
-4.54017
 11
53.09471
 21
-7.130678
  0
LINE
  8
型材断面
  6
CONTINUOUS
 10
54.59034
 20
-4.54017
 11
56.08597
 21
-7.130678
  0
LINE
  8
型材断面
  6
CONTINUOUS
 10
56.08597
 20
-7.130678
 11
53.09471
 21
-7.130678
  0
LINE
  8
型材断面
  6
CONTINUOUS
 10
-112.076325
 20
67.386755
 11
-113.571955
 21
69.977262
  0
LINE
  8
型材断面
  6
CONTINUOUS
 10
-112.076325
 20
67.386755
 11
-110.580695
 21
69.977262
  0
LINE
  8
型材断面
  6
CONTINUOUS
 10
-110.580695
 20
69.977262
 11
-113.571955
 21
69.977262
  0
LINE
  8
型材断面
  6
CONTINUOUS
 10
-28.742993
 20
67.386755
 11
-30.238623
 21
69.977262
  0
LINE
  8
型材断面
  6
CONTINUOUS
 10
-28.742993
 20
67.386755
 11
-27.247362
 21
69.977262
  0
LINE
  8
型材断面
  6
CONTINUOUS
 10
-27.247362
 20
69.977262
 11
-30.238623
 21
69.977262
  0
LINE
  8
型材断面
  6
CONTINUOUS
 10
54.59034
 20
67.386755
 11
53.09471
 21
69.977262
  0
LINE
  8
型材断面
  6
CONTINUOUS
 10
54.59034
 20
67.386755
 11
56.08597
 21
69.977262
  0
LINE
  8
型材断面
  6
CONTINUOUS
 10
56.08597
 20
69.977262
 11
53.09471
 21
69.977262
  0
LINE
  8
型材断面
  6
CONTINUOUS
 10
-131.373123
 20
31.423293
 11
-133.96363
 21
32.918923
  0
LINE
  8
型材断面
  6
CONTINUOUS
 10
-131.373123
 20
31.423293
 11
-133.96363
 21
29.927663
  0
LINE
  8
型材断面
  6
CONTINUOUS
 10
-133.96363
 20
29.927663
 11
-133.96363
 21
32.918923
  0
LINE
  8
型材断面
  6
CONTINUOUS
 10
73.887138
 20
31.423293
 11
76.477645
 21
32.918923
  0
LINE
  8
型材断面
  6
CONTINUOUS
 10
73.887138
 20
31.423293
 11
76.477645
 21
29.927663
  0
LINE
  8
型材断面
  6
CONTINUOUS
 10
76.477645
 20
29.927663
 11
76.477645
 21
32.918923
  0
LINE
  8
型材断面
  6
CONTINUOUS
 10
-169.5952
 20
109.263973
 11
-171.09083
 21
106.673465
  0
LINE
  8
型材断面
  6
CONTINUOUS
 10
-169.5952
 20
109.263973
 11
-168.09957
 21
106.673465
  0
LINE
  8
型材断面
  6
CONTINUOUS
 10
-168.09957
 20
106.673465
 11
-171.09083
 21
106.673465
  0
LINE
  8
型材断面
  6
CONTINUOUS
 10
-175.617788
 20
105.73487
 11
-129.37601
 21
105.73487
  0
LINE
  8
型材断面
  6
CONTINUOUS
 10
-175.617788
 20
99.35044
 11
-129.37601
 21
99.35044
  0
LINE
  8
型材断面
  6
CONTINUOUS
 62
    47
 10
163.65694
 20
67.756668
 11
163.156942
 21
67.756668
  0
LINE
  8
型材断面
  6
CONTINUOUS
 62
    47
 10
163.156942
 20
67.756668
 11
162.659763
 21
64.823337
  0
LINE
  8
型材断面
  6
CONTINUOUS
 62
    47
 10
163.65694
 20
67.256677
 11
164.15694
 21
67.256677
  0
LINE
  8
型材断面
  6
CONTINUOUS
 62
    47
 10
162.659763
 20
64.823337
 11
161.790272
 21
64.823337
  0
LINE
  8
型材断面
  6
CONTINUOUS
 10
162.659763
 20
64.823337
 11
162.659763
 21
31.423293
  0
LINE
  8
型材断面
  6
CONTINUOUS
 10
163.156942
 20
67.756668
 11
163.156942
 21
31.423293
  0
LINE
  8
型材断面
  6
CONTINUOUS
 62
    47
 10
163.65694
 20
67.756668
 11
163.65694
 21
31.423293
  0
LINE
  8
型材断面
  6
CONTINUOUS
 10
164.15694
 20
67.256677
 11
164.15694
 21
31.423293
  0
LINE
  8
型材断面
  6
CONTINUOUS
 62
    47
 10
163.65694
 20
-4.910083
 11
163.156942
 21
-4.910083
  0
LINE
  8
型材断面
  6
CONTINUOUS
 62
    47
 10
163.156942
 20
-4.910083
 11
162.659763
 21
-1.976753
  0
LINE
  8
型材断面
  6
CONTINUOUS
 62
    47
 10
163.65694
 20
-4.410092
 11
164.15694
 21
-4.410092
  0
LINE
  8
型材断面
  6
CONTINUOUS
 62
    47
 10
162.659763
 20
-1.976753
 11
161.790272
 21
-1.976753
  0
LINE
  8
型材断面
  6
CONTINUOUS
 10
162.659763
 20
-1.976753
 11
162.659763
 21
31.423293
  0
LINE
  8
型材断面
  6
CONTINUOUS
 10
163.156942
 20
-4.910083
 11
163.156942
 21
31.423293
  0
LINE
  8
型材断面
  6
CONTINUOUS
 62
    47
 10
163.65694
 20
-4.910083
 11
163.65694
 21
31.423293
  0
LINE
  8
型材断面
  6
CONTINUOUS
 10
164.15694
 20
-4.410092
 11
164.15694
 21
31.423293
  0
LINE
  8
型材断面
  6
CONTINUOUS
 62
    47
 10
74.257052
 20
-82.491265
 11
74.257052
 21
-81.991267
  0
LINE
  8
型材断面
  6
CONTINUOUS
 62
    47
 10
74.257052
 20
-81.991267
 11
71.323723
 21
-81.494088
  0
LINE
  8
型材断面
  6
CONTINUOUS
 62
    47
 10
73.757063
 20
-82.491265
 11
73.757063
 21
-82.991265
  0
LINE
  8
型材断面
  6
CONTINUOUS
 62
    47
 10
71.323723
 20
-81.494088
 11
71.323723
 21
-80.624597
  0
LINE
  8
型材断面
  6
CONTINUOUS
 10
73.757063
 20
-82.991265
 11
-28.742993
 21
-82.991265
  0
LINE
  8
型材断面
  6
CONTINUOUS
 62
    47
 10
74.257052
 20
-82.491265
 11
-28.742993
 21
-82.491265
  0
LINE
  8
型材断面
  6
CONTINUOUS
 10
74.257052
 20
-81.991267
 11
-28.742993
 21
-81.991267
  0
LINE
  8
型材断面
  6
CONTINUOUS
 10
71.323723
 20
-81.494088
 11
-28.742993
 21
-81.494088
  0
LINE
  8
型材断面
  6
CONTINUOUS
 62
    47
 10
-131.743037
 20
-82.491265
 11
-131.743037
 21
-81.991267
  0
LINE
  8
型材断面
  6
CONTINUOUS
 62
    47
 10
-131.743037
 20
-81.991267
 11
-128.809707
 21
-81.494088
  0
LINE
  8
型材断面
  6
CONTINUOUS
 62
    47
 10
-131.243048
 20
-82.491265
 11
-131.243048
 21
-82.991265
  0
LINE
  8
型材断面
  6
CONTINUOUS
 62
    47
 10
-128.809707
 20
-81.494088
 11
-128.809707
 21
-80.624597
  0
LINE
  8
型材断面
  6
CONTINUOUS
 10
-131.243048
 20
-82.991265
 11
-28.742993
 21
-82.991265
  0
LINE
  8
型材断面
  6
CONTINUOUS
 62
    47
 10
-131.743037
 20
-82.491265
 11
-28.742993
 21
-82.491265
  0
LINE
  8
型材断面
  6
CONTINUOUS
 10
-131.743037
 20
-81.991267
 11
-28.742993
 21
-81.991267
  0
LINE
  8
型材断面
  6
CONTINUOUS
 10
-128.809707
 20
-81.494088
 11
-28.742993
 21
-81.494088
  0
LINE
  8
型材断面
  6
CONTINUOUS
 10
73.323675
 20
-3.97671
 11
74.257007
 21
-4.910045
  0
LINE
  8
型材断面
  6
CONTINUOUS
 10
74.257007
 20
31.423293
 11
74.257007
 21
-4.910045
  0
LINE
  8
型材断面
  6
CONTINUOUS
 10
-28.742993
 20
-4.910012
 11
74.257007
 21
-4.910045
  0
LINE
  8
型材断面
  6
CONTINUOUS
 10
73.323675
 20
66.823295
 11
74.257007
 21
67.75663
  0
LINE
  8
型材断面
  6
CONTINUOUS
 10
74.257007
 20
31.423293
 11
74.257007
 21
67.75663
  0
LINE
  8
型材断面
  6
CONTINUOUS
 10
-28.742993
 20
67.756597
 11
74.257007
 21
67.75663
  0
LINE
  8
型材断面
  6
CONTINUOUS
 10
-130.80966
 20
66.823295
 11
-131.742993
 21
67.75663
  0
LINE
  8
型材断面
  6
CONTINUOUS
 10
-131.742993
 20
31.423293
 11
-131.742993
 21
67.75663
  0
LINE
  8
型材断面
  6
CONTINUOUS
 10
-28.742993
 20
67.756597
 11
-131.742993
 21
67.75663
  0
LINE
  8
型材断面
  6
CONTINUOUS
 10
-130.80966
 20
-3.97671
 11
-131.742993
 21
-4.910045
  0
LINE
  8
型材断面
  6
CONTINUOUS
 10
-131.742993
 20
31.423293
 11
-131.742993
 21
-4.910045
  0
LINE
  8
型材断面
  6
CONTINUOUS
 10
-28.742993
 20
-4.910012
 11
-131.742993
 21
-4.910045
  0
TEXT
  7
TextStyle03
  8
文字
  6
CONTINUOUS
 10
138.025
 20
-74.5
  1
網入り6.8t
 40
3.0
 72
     5
 11
154.7125
 21
-74.5
  0
TEXT
  7
TextStyle03
  8
文字
  6
CONTINUOUS
 10
141.625
 20
-79.125
  1
×１２枚
 40
3.0
 72
     5
 11
154.75
 21
-79.125
  0
TEXT
  7
TextStyle03
  8
文字
  6
CONTINUOUS
 10
-37.025
 20
-15.375
  1
可動装置側
 40
3.0
 72
     5
 11
-20.525
 21
-15.375
  0
TEXT
  7
TextStyle03
  8
文字
  6
CONTINUOUS
 10
-166.775
 20
106.85
  1
は排水穴位置を示す
 40
3.0
 72
     5
 11
-136.775
 21
106.85
  0
TEXT
  7
TextStyle03
  8
文字
  6
CONTINUOUS
 10
-167.45
 20
2.025
  1
アンカーピッチ
 40
3.0
 50
90.0
 72
     5
 11
-167.45
 21
25.275
  0
TEXT
  7
TextStyle03
  8
文字
  6
CONTINUOUS
 10
-115.3
 20
101.9
  1
アンカーピッチ
 40
3.0
 72
     5
 11
-92.05
 21
101.9
  0
TEXT
  7
TextStyle03
  8
文字
  6
CONTINUOUS
 10
-170.5
 20
100.225
  1
アンカー数量　２４ヶ所
 40
3.0
 72
     5
 11
-133.75
 21
100.225
  0
TEXT
  7
TextStyle03
  8
文字
  6
CONTINUOUS
 10
78.1
 20
125.25
  1
シリーズ：ＴＤ２ＫＬ
 40
5.0
 72
     5
 11
133.725
 21
125.25
  0
TEXT
  7
TextStyle03
  8
文字
  6
CONTINUOUS
 10
78.1
 20
119.625
  1
　　　　　（固定）2000×6000タイプ
 40
5.0
 72
     5
 11
173.1
 21
119.625
  0
TEXT
  7
TextStyle03
  8
文字
  6
CONTINUOUS
 10
78.1
 20
114.0
  1
図面名　：外観姿図
 40
5.0
 72
     5
 11
128.1
 21
114.0
  0
TEXT
  7
TextStyle03
  8
文字
  6
CONTINUOUS
 10
78.1
 20
108.375
  1
　　　　　　
 40
5.0
 72
     5
 11
111.225
 21
108.375
  0
TEXT
  7
TextStyle03
  8
文字
  6
CONTINUOUS
 10
77.65
 20
104.325
  1
ＮＳコード：ＮＳＫＺＬ
 40
5.0
 72
     5
 11
138.9
 21
104.325
  0
INSERT
  2
*DIM_0002
  8
寸法
  6
CONTINUOUS
 10
0.0
 20
0.0
  0
INSERT
  2
*DIM_0003
  8
寸法
  6
CONTINUOUS
 10
0.0
 20
0.0
  0
INSERT
  2
*DIM_0004
  8
寸法
  6
CONTINUOUS
 10
0.0
 20
0.0
  0
INSERT
  2
*DIM_0005
  8
寸法
  6
CONTINUOUS
 10
0.0
 20
0.0
  0
INSERT
  2
*DIM_0006
  8
寸法
  6
CONTINUOUS
 10
0.0
 20
0.0
  0
INSERT
  2
*DIM_0007
  8
寸法
  6
CONTINUOUS
 10
0.0
 20
0.0
  0
INSERT
  2
*DIM_0008
  8
寸法
  6
CONTINUOUS
 10
0.0
 20
0.0
  0
INSERT
  2
*DIM_0009
  8
寸法
  6
CONTINUOUS
 10
0.0
 20
0.0
  0
INSERT
  2
*DIM_0011
  8
寸法
  6
CONTINUOUS
 10
0.0
 20
0.0
  0
INSERT
  2
*DIM_0012
  8
寸法
  6
CONTINUOUS
 10
0.0
 20
0.0
  0
INSERT
  2
*DIM_0013
  8
寸法
  6
CONTINUOUS
 10
0.0
 20
0.0
  0
INSERT
  2
*DIM_0014
  8
寸法
  6
CONTINUOUS
 10
0.0
 20
0.0
  0
INSERT
  2
*DIM_0015
  8
寸法
  6
CONTINUOUS
 10
0.0
 20
0.0
  0
INSERT
  2
*DIM_0016
  8
寸法
  6
CONTINUOUS
 10
0.0
 20
0.0
  0
INSERT
  2
*DIM_0017
  8
寸法
  6
CONTINUOUS
 10
0.0
 20
0.0
  0
INSERT
  2
*DIM_0018
  8
寸法
  6
CONTINUOUS
 10
0.0
 20
0.0
  0
INSERT
  2
*DIM_0019
  8
寸法
  6
CONTINUOUS
 10
0.0
 20
0.0
  0
INSERT
  2
*DIM_0020
  8
寸法
  6
CONTINUOUS
 10
0.0
 20
0.0
  0
INSERT
  2
*DIM_0021
  8
寸法
  6
CONTINUOUS
 10
0.0
 20
0.0
  0
INSERT
  2
*DIM_0022
  8
寸法
  6
CONTINUOUS
 10
0.0
 20
0.0
  0
INSERT
  2
*DIM_0023
  8
寸法
  6
CONTINUOUS
 10
0.0
 20
0.0
  0
INSERT
  2
*DIM_0024
  8
寸法
  6
CONTINUOUS
 10
0.0
 20
0.0
  0
INSERT
  2
*DIM_0025
  8
寸法
  6
CONTINUOUS
 10
0.0
 20
0.0
  0
INSERT
  2
*DIM_0026
  8
寸法
  6
CONTINUOUS
 10
0.0
 20
0.0
  0
LINE
  8
別途部材
  6
CONTINUOUS
 10
-130.80966
 20
66.823295
 11
-130.40966
 21
66.423295
  0
LINE
  8
別途部材
  6
CONTINUOUS
 10
-128.742993
 20
64.756627
 11
-120.683738
 21
56.69737
  0
LINE
  8
別途部材
  6
CONTINUOUS
 10
-130.80966
 20
66.823295
 11
-130.80966
 21
31.423293
  0
LINE
  8
別途部材
  6
CONTINUOUS
 10
-130.40966
 20
66.423295
 11
-130.40966
 21
31.423293
  0
LINE
  8
別途部材
  6
CONTINUOUS
 10
-130.40966
 20
66.423295
 11
-28.742993
 21
66.423295
  0
LINE
  8
別途部材
  6
CONTINUOUS
 10
-130.80966
 20
66.823295
 11
-28.742993
 21
66.823295
  0
LINE
  8
別途部材
  6
CONTINUOUS
 10
-130.80966
 20
-3.97671
 11
-130.40966
 21
-3.57671
  0
LINE
  8
別途部材
  6
CONTINUOUS
 10
-128.742993
 20
-1.910042
 11
-120.683738
 21
6.149215
  0
LINE
  8
別途部材
  6
CONTINUOUS
 10
-130.80966
 20
-3.97671
 11
-130.80966
 21
31.423293
  0
LINE
  8
別途部材
  6
CONTINUOUS
 10
-130.40966
 20
-3.57671
 11
-130.40966
 21
31.423293
  0
LINE
  8
別途部材
  6
CONTINUOUS
 10
-130.40966
 20
-3.57671
 11
-28.742993
 21
-3.57671
  0
LINE
  8
別途部材
  6
CONTINUOUS
 10
-130.80966
 20
-3.97671
 11
-28.742993
 21
-3.97671
  0
LINE
  8
別途部材
  6
CONTINUOUS
 10
73.323675
 20
-3.97671
 11
72.923675
 21
-3.57671
  0
LINE
  8
別途部材
  6
CONTINUOUS
 10
71.257007
 20
-1.910042
 11
63.197753
 21
6.149215
  0
LINE
  8
別途部材
  6
CONTINUOUS
 10
73.323675
 20
-3.97671
 11
73.323675
 21
31.423293
  0
LINE
  8
別途部材
  6
CONTINUOUS
 10
72.923675
 20
-3.57671
 11
72.923675
 21
31.423293
  0
LINE
  8
別途部材
  6
CONTINUOUS
 10
72.923675
 20
-3.57671
 11
-28.742993
 21
-3.57671
  0
LINE
  8
別途部材
  6
CONTINUOUS
 10
73.323675
 20
-3.97671
 11
-28.742993
 21
-3.97671
  0
LINE
  8
別途部材
  6
CONTINUOUS
 10
73.323675
 20
66.823295
 11
72.923675
 21
66.423295
  0
LINE
  8
別途部材
  6
CONTINUOUS
 10
71.257007
 20
64.756627
 11
63.197753
 21
56.69737
  0
LINE
  8
別途部材
  6
CONTINUOUS
 10
73.323675
 20
66.823295
 11
73.323675
 21
31.423293
  0
LINE
  8
別途部材
  6
CONTINUOUS
 10
72.923675
 20
66.423295
 11
72.923675
 21
31.423293
  0
LINE
  8
別途部材
  6
CONTINUOUS
 10
72.923675
 20
66.423295
 11
-28.742993
 21
66.423295
  0
LINE
  8
別途部材
  6
CONTINUOUS
 10
73.323675
 20
66.823295
 11
-28.742993
 21
66.823295
  0
LINE
  8
別途部材
  6
CONTINUOUS
 62
    96
 10
160.790272
 20
-3.57671
 11
161.790272
 21
-3.97671
  0
ARC
  8
別途部材
  6
CONTINUOUS
 10
185.790269
 20
31.42329
 40
41.666665
 50
180.0
 51
233.130105
  0
ARC
  8
別途部材
  6
CONTINUOUS
 10
185.790269
 20
31.423291
 40
41.666665
 50
126.869895
 51
180.0
  0
LINE
  8
別途部材
  6
CONTINUOUS
 10
161.790272
 20
-3.97671
 11
161.790272
 21
31.42329
  0
LINE
  8
別途部材
  6
CONTINUOUS
 62
    96
 10
160.790272
 20
-3.57671
 11
160.790272
 21
31.42329
  0
LINE
  8
別途部材
  6
CONTINUOUS
 62
    96
 10
160.790272
 20
66.42329
 11
161.790272
 21
66.82329
  0
LINE
  8
別途部材
  6
CONTINUOUS
 10
161.790272
 20
66.82329
 11
161.790272
 21
31.42329
  0
LINE
  8
別途部材
  6
CONTINUOUS
 62
    96
 10
160.790272
 20
66.42329
 11
160.790272
 21
31.42329
  0
INSERT
  2
*GRP_0010
  8
別途部材
  6
CONTINUOUS
 10
0.0
 20
0.0
  0
INSERT
  2
*GRP_0027
  8
別途部材
  6
DOT
 10
0.0
 20
0.0
  0
INSERT
  2
*GRP_0028
  8
別途部材
  6
DOT
 10
0.0
 20
0.0
  0
INSERT
  2
*GRP_0029
  8
別途部材
  6
DOT
 10
0.0
 20
0.0
  0
INSERT
  2
*GRP_0030
  8
別途部材
  6
DOT
 10
0.0
 20
0.0
  0
LINE
  8
曲げ物
  6
CONTINUOUS
 10
124.014137
 20
-82.081038
 11
156.34747
 21
-82.081038
  0
LINE
  8
曲げ物
  6
CONTINUOUS
 10
156.34747
 20
-82.081038
 11
156.34747
 21
-49.61437
  0
LINE
  8
曲げ物
  6
CONTINUOUS
 10
156.34747
 20
-49.61437
 11
124.014137
 21
-49.61437
  0
LINE
  8
曲げ物
  6
CONTINUOUS
 10
124.014137
 20
-82.081038
 11
124.014137
 21
-49.61437
  0
CIRCLE
  8
LAYER010
  6
CONTINUOUS
 62
     7
 10
163.156942
 20
67.756668
 40
0.011113
  0
CIRCLE
  8
LAYER010
  6
CONTINUOUS
 62
     7
 10
163.156942
 20
67.756668
 40
0.011113
  0
CIRCLE
  8
LAYER010
  6
CONTINUOUS
 62
     7
 10
163.156942
 20
-4.910083
 40
0.011113
  0
CIRCLE
  8
LAYER010
  6
CONTINUOUS
 62
     7
 10
163.156942
 20
-4.910083
 40
0.011113
  0
CIRCLE
  8
LAYER010
  6
CONTINUOUS
 62
     7
 10
74.257052
 20
-81.991267
 40
0.011113
  0
CIRCLE
  8
LAYER010
  6
CONTINUOUS
 62
     7
 10
74.257052
 20
-81.991267
 40
0.011113
  0
CIRCLE
  8
LAYER010
  6
CONTINUOUS
 62
     7
 10
-131.743037
 20
-81.991267
 40
0.011113
  0
CIRCLE
  8
LAYER010
  6
CONTINUOUS
 62
     7
 10
-131.743037
 20
-81.991267
 40
0.011113
  0
ENDSEC
  0
EOF
