  0
SECTION
  2
HEADER
  9
$EXTMIN
 10
-210.0
 20
-148.5
  9
$EXTMAX
 10
210.0
 20
148.5
  9
$PDMODE
 70
    32
  9
$PDSIZE
 40
1.5
  9
$LTSCALE
 40
10.0
  0
ENDSEC
  0
SECTION
  2
TABLES
  0
TABLE
  2
LTYPE
 70
    15
  0
LTYPE
  2
CONTINUOUS
 70
    64
  3
実線
 72
    65
 73
     0
 40
0.0
  0
LTYPE
  2
DASHED
 70
    64
  3
破線A
 72
    65
 73
     2
 40
0.6
 49
0.4
 49
-0.2
  0
LTYPE
  2
DASHEDX2
 70
    64
  3
破線B
 72
    65
 73
     2
 40
1.3
 49
0.9
 49
-0.4
  0
LTYPE
  2
DASHDOT
 70
    64
  3
１点鎖線A
 72
    65
 73
     4
 40
0.5375
 49
0.375
 49
-0.05
 49
0.0625
 49
-0.05
  0
LTYPE
  2
DASHDOTX2
 70
    64
  3
１点鎖線B
 72
    65
 73
     4
 40
1.075
 49
0.75
 49
-0.1
 49
0.125
 49
-0.1
  0
LTYPE
  2
DIVIDE2
 70
    64
  3
２点鎖線A
 72
    65
 73
     6
 40
0.5125
 49
0.3
 49
-0.0375
 49
0.05
 49
-0.0375
 49
0.05
 49
-0.0375
  0
LTYPE
  2
DIVIDE
 70
    64
  3
２点鎖線B
 72
    65
 73
     6
 40
1.05
 49
0.55
 49
-0.1
 49
0.1
 49
-0.1
 49
0.1
 49
-0.1
  0
LTYPE
  2
DOT
 70
    64
  3
点線A
 72
    65
 73
     2
 40
0.1125
 49
0.0625
 49
-0.05
  0
LTYPE
  2
DOTX2
 70
    64
  3
点線B
 72
    65
 73
     2
 40
0.275
 49
0.15
 49
-0.125
  0
LTYPE
  2
CONTINUOUS
 70
    64
  3
実線
 72
    65
 73
     0
 40
0.0
  0
LTYPE
  2
CONTINUOUS
 70
    64
  3
実線
 72
    65
 73
     0
 40
0.0
  0
LTYPE
  2
CONTINUOUS
 70
    64
  3
実線
 72
    65
 73
     0
 40
0.0
  0
LTYPE
  2
CONTINUOUS
 70
    64
  3
実線
 72
    65
 73
     0
 40
0.0
  0
LTYPE
  2
CONTINUOUS
 70
    64
  3
実線
 72
    65
 73
     0
 40
0.0
  0
LTYPE
  2
CONTINUOUS
 70
    64
  3
実線
 72
    65
 73
     0
 40
0.0
  0
ENDTAB
  0
TABLE
  2
LAYER
 70
    35
  0
LAYER
  2
通り芯
 70
     0
 62
    15
  6
CONTINUOUS
  0
LAYER
  2
補助線
 70
     0
 62
    16
  6
DOT
  0
LAYER
  2
躯体
 70
     0
 62
    31
  6
CONTINUOUS
  0
LAYER
  2
型材
 70
     0
 62
    32
  6
CONTINUOUS
  0
LAYER
  2
型材断面
 70
     0
 62
    47
  6
CONTINUOUS
  0
LAYER
  2
ガラス
 70
     0
 62
    48
  6
CONTINUOUS
  0
LAYER
  2
ゴム等
 70
     0
 62
    63
  6
CONTINUOUS
  0
LAYER
  2
ボルト／ビス
 70
     0
 62
    64
  6
CONTINUOUS
  0
LAYER
  2
文字
 70
     0
 62
    79
  6
CONTINUOUS
  0
LAYER
  2
寸法
 70
     0
 62
    80
  6
CONTINUOUS
  0
LAYER
  2
ﾊｯﾁﾝｸﾞ
 70
     0
 62
    95
  6
CONTINUOUS
  0
LAYER
  2
別途部材
 70
     0
 62
    96
  6
CONTINUOUS
  0
LAYER
  2
曲げ物
 70
     0
 62
   111
  6
CONTINUOUS
  0
LAYER
  2
鉄骨等
 70
     0
 62
   112
  6
CONTINUOUS
  0
LAYER
  2
St
 70
     0
 62
   127
  6
CONTINUOUS
  0
LAYER
  2
その他部品等
 70
     0
 62
   128
  6
CONTINUOUS
  0
LAYER
  2
ｶﾞｽｹｯﾄ
 70
     0
 62
   143
  6
CONTINUOUS
  0
LAYER
  2
ｽｹｯﾁ
 70
     0
 62
    14
  6
CONTINUOUS
  0
LAYER
  2
0
 70
     0
 62
    17
  6
CONTINUOUS
  0
LAYER
  2
1
 70
     0
 62
    30
  6
CONTINUOUS
  0
LAYER
  2
4
 70
     0
 62
    33
  6
CONTINUOUS
  0
LAYER
  2
ﾚｲﾔ3
 70
     0
 62
    46
  6
CONTINUOUS
  0
LAYER
  2
外形線
 70
     0
 62
    49
  6
CONTINUOUS
  0
LAYER
  2
部品
 70
     0
 62
    14
  6
CONTINUOUS
  0
LAYER
  2
サッシ芯
 70
     0
 62
    17
  6
DASHDOTX2
  0
LAYER
  2
寸法線
 70
     0
 62
    62
  6
CONTINUOUS
  0
LAYER
  2
姿図外形線
 70
     0
 62
    65
  6
CONTINUOUS
  0
LAYER
  2
姿補助線
 70
     0
 62
    30
  6
CONTINUOUS
  0
LAYER
  2
透視線
 70
     0
 62
    78
  6
DOT
  0
LAYER
  2
用紙
 70
     0
 62
    81
  6
CONTINUOUS
  0
LAYER
  2
実線図枠
 70
     0
 62
    94
  6
CONTINUOUS
  0
LAYER
  2
補助図枠
 70
     0
 62
    97
  6
CONTINUOUS
  0
LAYER
  2
建具記号
 70
     0
 62
   110
  6
CONTINUOUS
  0
LAYER
  2
補助文字
 70
     0
 62
   113
  6
CONTINUOUS
  0
LAYER
  2
LAYER010
 70
     0
 62
    11
  6
CONTINUOUS
  0
ENDTAB
  0
TABLE
  2
STYLE
 70
    10
  0
STYLE
  2
STANDARD
 70
     0
 40
1.0
 41
1.0
 42
1.0
 50
0.0
 71
     0
  3
TXT
  4
BIGFONT
  0
STYLE
  2
TATE
 70
     4
 40
1.0
 41
1.0
 42
1.0
 50
0.0
 71
     0
  3
TXT
  4
BIGFONT
  0
STYLE
  2
TextStyle03
 70
     0
 40
1.0
 41
1.0
 42
1.0
 50
0.0
 71
     0
  3
MONOTXT
  4
BIGFONT
  0
STYLE
  2
TextStyle04
 70
     0
 40
1.0
 41
1.0
 42
1.0
 50
0.0
 71
     0
  3
MONOTXT
  4
BIGFONT
  0
STYLE
  2
TextStyle05
 70
     0
 40
1.0
 41
1.0
 42
1.0
 50
0.0
 71
     0
  3
MONOTXT
  4
BIGFONT
  0
STYLE
  2
TextStyle06
 70
     0
 40
1.0
 41
1.0
 42
1.0
 50
0.0
 71
     0
  3
MONOTXT
  4
BIGFONT
  0
STYLE
  2
TextStyle07
 70
     0
 40
1.0
 41
1.0
 42
1.0
 50
0.0
 71
     0
  3
MONOTXT
  4
BIGFONT
  0
STYLE
  2
TextStyle08
 70
     0
 40
1.0
 41
1.0
 42
1.0
 50
0.0
 71
     0
  3
MONOTXT
  4
BIGFONT
  0
STYLE
  2
TextStyle09
 70
     0
 40
1.0
 41
1.0
 42
1.0
 50
0.0
 71
     0
  3
MONOTXT
  4
BIGFONT
  0
STYLE
  2
TextStyle10
 70
     0
 40
1.0
 41
1.0
 42
1.0
 50
0.0
 71
     0
  3
MONOTXT
  4
BIGFONT
  0
ENDTAB
  0
ENDSEC
  0
SECTION
  2
BLOCKS
  0
BLOCK
  2
*GRP_0001
 70
    65
 10
0.0
 20
0.0
  0
LINE
  8
型材断面
  6
CONTINUOUS
 10
195.0
 20
133.5
 11
195.0
 21
-133.5
  0
LINE
  8
型材断面
  6
CONTINUOUS
 10
195.0
 20
-133.5
 11
-185.0
 21
-133.5
  0
LINE
  8
型材断面
  6
CONTINUOUS
 10
-185.0
 20
-133.5
 11
-185.0
 21
133.5
  0
LINE
  8
型材断面
  6
CONTINUOUS
 10
195.0
 20
133.5
 11
-185.0
 21
133.5
  0
LINE
  8
型材断面
  6
CONTINUOUS
 10
145.0
 20
-133.5
 11
145.0
 21
-118.5
  0
LINE
  8
型材断面
  6
CONTINUOUS
 10
195.0
 20
-118.5
 11
145.0
 21
-118.5
  0
ENDBLK
  0
BLOCK
  2
*DIM_0002
 70
    65
 10
0.0
 20
0.0
  0
LINE
  8
寸法
  6
BYBLOCK
 62
     0
 10
13.246443
 20
-62.95793
 11
61.549425
 21
-62.95793
  0
LINE
  8
寸法
  6
BYBLOCK
 62
     0
 10
61.549425
 20
-79.624597
 11
61.549425
 21
-62.95793
  0
POINT
  8
寸法
 62
     0
 10
61.549425
 20
-62.95793
  0
TEXT
  7
TextStyle03
  8
寸法
  6
CONTINUOUS
 62
     0
 10
61.175
 20
-73.7375
  1
500
 40
3.0
 50
90.0
 72
     5
 11
61.175
 21
-68.8625
  0
ENDBLK
  0
BLOCK
  2
*DIM_0003
 70
    65
 10
0.0
 20
0.0
  0
LINE
  8
寸法
  6
BYBLOCK
 62
     0
 10
100.883267
 20
-57.292845
 11
100.883267
 21
-49.060088
  0
LINE
  8
寸法
  6
BYBLOCK
 62
     0
 10
133.249935
 20
-57.292845
 11
133.249935
 21
-49.060088
  0
LINE
  8
寸法
  6
BYBLOCK
 62
     0
 10
100.883267
 20
-49.060088
 11
133.249935
 21
-49.060088
  0
POINT
  8
寸法
 62
     0
 10
100.883267
 20
-49.060088
  0
POINT
  8
寸法
 62
     0
 10
133.249935
 20
-49.060088
  0
TEXT
  7
TextStyle03
  8
寸法
  6
CONTINUOUS
 62
     0
 10
114.6125
 20
-48.7
  1
971
 40
3.0
 72
     5
 11
119.4875
 21
-48.7
  0
ENDBLK
  0
BLOCK
  2
*DIM_0004
 70
    65
 10
0.0
 20
0.0
  0
LINE
  8
寸法
  6
BYBLOCK
 62
     0
 10
135.58933
 20
-58.292845
 11
144.54524
 21
-58.292845
  0
LINE
  8
寸法
  6
BYBLOCK
 62
     0
 10
135.58933
 20
-90.759512
 11
144.54524
 21
-90.759512
  0
LINE
  8
寸法
  6
BYBLOCK
 62
     0
 10
144.54524
 20
-58.292845
 11
144.54524
 21
-90.759512
  0
POINT
  8
寸法
 62
     0
 10
144.54524
 20
-58.292845
  0
POINT
  8
寸法
 62
     0
 10
144.54524
 20
-90.759512
  0
TEXT
  7
TextStyle03
  8
寸法
  6
CONTINUOUS
 62
     0
 10
144.15
 20
-76.9625
  1
974
 40
3.0
 50
90.0
 72
     5
 11
144.15
 21
-72.0875
  0
ENDBLK
  0
BLOCK
  2
*DIM_0005
 70
    65
 10
0.0
 20
0.0
  0
LINE
  8
寸法
  6
BYBLOCK
 62
     0
 10
-87.753557
 20
-30.105263
 11
-87.753557
 21
-29.63158
  0
LINE
  8
寸法
  6
BYBLOCK
 62
     0
 10
45.579775
 20
-30.105263
 11
45.579775
 21
-29.63158
  0
LINE
  8
寸法
  6
BYBLOCK
 62
     0
 10
-87.753557
 20
-29.63158
 11
45.579775
 21
-29.63158
  0
POINT
  8
寸法
 62
     0
 10
-87.753557
 20
-29.63158
  0
POINT
  8
寸法
 62
     0
 10
45.579775
 20
-29.63158
  0
TEXT
  7
TextStyle03
  8
寸法
  6
CONTINUOUS
 62
     0
 10
-32.81875
 20
-29.275
  1
呼称寸法　4000
 40
3.0
 72
     5
 11
-9.38125
 21
-29.275
  0
ENDBLK
  0
BLOCK
  2
*DIM_0006
 70
    65
 10
0.0
 20
0.0
  0
LINE
  8
寸法
  6
BYBLOCK
 62
     0
 10
-71.08689
 20
-5.54017
 11
-71.08689
 21
-10.3375
  0
LINE
  8
寸法
  6
BYBLOCK
 62
     0
 10
28.913105
 20
-5.54017
 11
28.913105
 21
-10.3375
  0
LINE
  8
寸法
  6
BYBLOCK
 62
     0
 10
-71.08689
 20
-10.3375
 11
28.913105
 21
-10.3375
  0
POINT
  8
寸法
 62
     0
 10
-71.08689
 20
-10.3375
  0
POINT
  8
寸法
 62
     0
 10
28.913105
 20
-10.3375
  0
TEXT
  7
TextStyle03
  8
寸法
  6
CONTINUOUS
 62
     0
 10
-24.38125
 20
-9.975
  1
3000
 40
3.0
 72
     5
 11
-17.81875
 21
-9.975
  0
ENDBLK
  0
BLOCK
  2
*GRP_0007
 70
    65
 10
0.0
 20
0.0
  0
LINE
  8
別途部材
  6
CONTINUOUS
 62
    96
 10
-89.420225
 20
-79.624597
 11
-89.820225
 21
-80.624597
  0
LINE
  8
別途部材
  6
CONTINUOUS
 62
    96
 10
-89.420225
 20
-79.624597
 11
-21.08689
 21
-79.624597
  0
LINE
  8
別途部材
  6
CONTINUOUS
 10
-89.820225
 20
-80.624597
 11
-21.08689
 21
-80.624597
  0
LINE
  8
別途部材
  6
CONTINUOUS
 10
-21.58689
 20
-79.624597
 11
-21.58689
 21
-61.95793
  0
LINE
  8
別途部材
  6
CONTINUOUS
 10
-24.58689
 20
-79.624597
 11
-24.58689
 21
-61.95793
  0
LINE
  8
別途部材
  6
CONTINUOUS
 10
-21.58689
 20
-61.95793
 11
-22.58689
 21
-62.95793
  0
LINE
  8
別途部材
  6
CONTINUOUS
 10
-25.58689
 20
-79.624597
 11
-25.58689
 21
-61.95793
  0
LINE
  8
別途部材
  6
CONTINUOUS
 10
-23.58689
 20
-62.95793
 11
-24.58689
 21
-61.95793
  0
LINE
  8
別途部材
  6
CONTINUOUS
 10
-25.58689
 20
-61.95793
 11
-26.58689
 21
-62.95793
  0
LINE
  8
別途部材
  6
CONTINUOUS
 10
-24.58689
 20
-61.95793
 11
-25.58689
 21
-61.95793
  0
LINE
  8
別途部材
  6
CONTINUOUS
 10
-21.58689
 20
-61.95793
 11
-21.08689
 21
-61.95793
  0
LINE
  8
別途部材
  6
CONTINUOUS
 10
-27.58689
 20
-62.95793
 11
-28.58689
 21
-61.95793
  0
LINE
  8
別途部材
  6
CONTINUOUS
 10
-29.58689
 20
-61.95793
 11
-30.58689
 21
-62.95793
  0
LINE
  8
別途部材
  6
CONTINUOUS
 10
-28.58689
 20
-61.95793
 11
-29.58689
 21
-61.95793
  0
LINE
  8
別途部材
  6
CONTINUOUS
 10
-23.58689
 20
-79.624597
 11
-23.58689
 21
-62.95793
  0
LINE
  8
別途部材
  6
CONTINUOUS
 10
-26.58689
 20
-79.624597
 11
-26.58689
 21
-62.95793
  0
LINE
  8
別途部材
  6
CONTINUOUS
 10
-27.58689
 20
-79.624597
 11
-27.58689
 21
-62.95793
  0
LINE
  8
別途部材
  6
CONTINUOUS
 10
-28.58689
 20
-79.624597
 11
-28.58689
 21
-61.95793
  0
LINE
  8
別途部材
  6
CONTINUOUS
 10
-29.58689
 20
-79.624597
 11
-29.58689
 21
-61.95793
  0
LINE
  8
別途部材
  6
CONTINUOUS
 10
-30.58689
 20
-79.624597
 11
-30.58689
 21
-62.95793
  0
LINE
  8
別途部材
  6
CONTINUOUS
 10
-31.58689
 20
-62.95793
 11
-32.58689
 21
-61.95793
  0
LINE
  8
別途部材
  6
CONTINUOUS
 10
-33.58689
 20
-61.95793
 11
-34.58689
 21
-62.95793
  0
LINE
  8
別途部材
  6
CONTINUOUS
 10
-32.58689
 20
-61.95793
 11
-33.58689
 21
-61.95793
  0
LINE
  8
別途部材
  6
CONTINUOUS
 10
-31.58689
 20
-79.624597
 11
-31.58689
 21
-62.95793
  0
LINE
  8
別途部材
  6
CONTINUOUS
 10
-32.58689
 20
-79.624597
 11
-32.58689
 21
-61.95793
  0
LINE
  8
別途部材
  6
CONTINUOUS
 10
-33.58689
 20
-79.624597
 11
-33.58689
 21
-61.95793
  0
LINE
  8
別途部材
  6
CONTINUOUS
 10
-34.58689
 20
-79.624597
 11
-34.58689
 21
-62.95793
  0
LINE
  8
別途部材
  6
CONTINUOUS
 10
-36.58689
 20
-79.624597
 11
-36.58689
 21
-61.95793
  0
LINE
  8
別途部材
  6
CONTINUOUS
 10
-37.58689
 20
-79.624597
 11
-37.58689
 21
-61.95793
  0
LINE
  8
別途部材
  6
CONTINUOUS
 10
-35.58689
 20
-62.95793
 11
-36.58689
 21
-61.95793
  0
LINE
  8
別途部材
  6
CONTINUOUS
 10
-37.58689
 20
-61.95793
 11
-38.58689
 21
-62.95793
  0
LINE
  8
別途部材
  6
CONTINUOUS
 10
-36.58689
 20
-61.95793
 11
-37.58689
 21
-61.95793
  0
LINE
  8
別途部材
  6
CONTINUOUS
 10
-39.58689
 20
-62.95793
 11
-40.58689
 21
-61.95793
  0
LINE
  8
別途部材
  6
CONTINUOUS
 10
-41.58689
 20
-61.95793
 11
-42.58689
 21
-62.95793
  0
LINE
  8
別途部材
  6
CONTINUOUS
 10
-40.58689
 20
-61.95793
 11
-41.58689
 21
-61.95793
  0
LINE
  8
別途部材
  6
CONTINUOUS
 10
-35.58689
 20
-79.624597
 11
-35.58689
 21
-62.95793
  0
LINE
  8
別途部材
  6
CONTINUOUS
 10
-38.58689
 20
-79.624597
 11
-38.58689
 21
-62.95793
  0
LINE
  8
別途部材
  6
CONTINUOUS
 10
-39.58689
 20
-79.624597
 11
-39.58689
 21
-62.95793
  0
LINE
  8
別途部材
  6
CONTINUOUS
 10
-40.58689
 20
-79.624597
 11
-40.58689
 21
-61.95793
  0
LINE
  8
別途部材
  6
CONTINUOUS
 10
-41.58689
 20
-79.624597
 11
-41.58689
 21
-61.95793
  0
LINE
  8
別途部材
  6
CONTINUOUS
 10
-42.58689
 20
-79.624597
 11
-42.58689
 21
-62.95793
  0
LINE
  8
別途部材
  6
CONTINUOUS
 10
-43.58689
 20
-62.95793
 11
-44.58689
 21
-61.95793
  0
LINE
  8
別途部材
  6
CONTINUOUS
 10
-45.58689
 20
-61.95793
 11
-46.58689
 21
-62.95793
  0
LINE
  8
別途部材
  6
CONTINUOUS
 10
-44.58689
 20
-61.95793
 11
-45.58689
 21
-61.95793
  0
LINE
  8
別途部材
  6
CONTINUOUS
 10
-43.58689
 20
-79.624597
 11
-43.58689
 21
-62.95793
  0
LINE
  8
別途部材
  6
CONTINUOUS
 10
-44.58689
 20
-79.624597
 11
-44.58689
 21
-61.95793
  0
LINE
  8
別途部材
  6
CONTINUOUS
 10
-45.58689
 20
-79.624597
 11
-45.58689
 21
-61.95793
  0
LINE
  8
別途部材
  6
CONTINUOUS
 10
-46.58689
 20
-79.624597
 11
-46.58689
 21
-62.95793
  0
LINE
  8
別途部材
  6
CONTINUOUS
 10
-48.58689
 20
-79.624597
 11
-48.58689
 21
-61.95793
  0
LINE
  8
別途部材
  6
CONTINUOUS
 10
-49.58689
 20
-79.624597
 11
-49.58689
 21
-61.95793
  0
LINE
  8
別途部材
  6
CONTINUOUS
 10
-47.58689
 20
-62.95793
 11
-48.58689
 21
-61.95793
  0
LINE
  8
別途部材
  6
CONTINUOUS
 10
-49.58689
 20
-61.95793
 11
-50.58689
 21
-62.95793
  0
LINE
  8
別途部材
  6
CONTINUOUS
 10
-48.58689
 20
-61.95793
 11
-49.58689
 21
-61.95793
  0
LINE
  8
別途部材
  6
CONTINUOUS
 10
-51.58689
 20
-62.95793
 11
-52.58689
 21
-61.95793
  0
LINE
  8
別途部材
  6
CONTINUOUS
 10
-53.58689
 20
-61.95793
 11
-54.58689
 21
-62.95793
  0
LINE
  8
別途部材
  6
CONTINUOUS
 10
-52.58689
 20
-61.95793
 11
-53.58689
 21
-61.95793
  0
LINE
  8
別途部材
  6
CONTINUOUS
 10
-47.58689
 20
-79.624597
 11
-47.58689
 21
-62.95793
  0
LINE
  8
別途部材
  6
CONTINUOUS
 10
-50.58689
 20
-79.624597
 11
-50.58689
 21
-62.95793
  0
LINE
  8
別途部材
  6
CONTINUOUS
 10
-51.58689
 20
-79.624597
 11
-51.58689
 21
-62.95793
  0
LINE
  8
別途部材
  6
CONTINUOUS
 10
-52.58689
 20
-79.624597
 11
-52.58689
 21
-61.95793
  0
LINE
  8
別途部材
  6
CONTINUOUS
 10
-53.58689
 20
-79.624597
 11
-53.58689
 21
-61.95793
  0
LINE
  8
別途部材
  6
CONTINUOUS
 10
-54.58689
 20
-79.624597
 11
-54.58689
 21
-62.95793
  0
LINE
  8
別途部材
  6
CONTINUOUS
 10
-50.58689
 20
-62.95793
 11
-51.58689
 21
-62.95793
  0
LINE
  8
別途部材
  6
CONTINUOUS
 10
-46.58689
 20
-62.95793
 11
-47.58689
 21
-62.95793
  0
LINE
  8
別途部材
  6
CONTINUOUS
 10
-42.58689
 20
-62.95793
 11
-43.58689
 21
-62.95793
  0
LINE
  8
別途部材
  6
CONTINUOUS
 10
-38.58689
 20
-62.95793
 11
-39.58689
 21
-62.95793
  0
LINE
  8
別途部材
  6
CONTINUOUS
 10
-34.58689
 20
-62.95793
 11
-35.58689
 21
-62.95793
  0
LINE
  8
別途部材
  6
CONTINUOUS
 10
-30.58689
 20
-62.95793
 11
-31.58689
 21
-62.95793
  0
LINE
  8
別途部材
  6
CONTINUOUS
 10
-26.58689
 20
-62.95793
 11
-27.58689
 21
-62.95793
  0
LINE
  8
別途部材
  6
CONTINUOUS
 10
-22.58689
 20
-79.624597
 11
-22.58689
 21
-62.95793
  0
LINE
  8
別途部材
  6
CONTINUOUS
 10
-23.58689
 20
-62.95793
 11
-22.58689
 21
-62.95793
  0
ARC
  8
別途部材
  6
CONTINUOUS
 10
-71.086891
 20
-79.624597
 40
16.666667
 50
90.0
 51
180.0
  0
LINE
  8
別途部材
  6
CONTINUOUS
 10
-55.58689
 20
-62.95793
 11
-56.58689
 21
-61.95793
  0
LINE
  8
別途部材
  6
CONTINUOUS
 10
-57.58689
 20
-61.95793
 11
-58.58689
 21
-62.95793
  0
LINE
  8
別途部材
  6
CONTINUOUS
 10
-56.58689
 20
-61.95793
 11
-57.58689
 21
-61.95793
  0
LINE
  8
別途部材
  6
CONTINUOUS
 10
-55.58689
 20
-79.624597
 11
-55.58689
 21
-62.95793
  0
LINE
  8
別途部材
  6
CONTINUOUS
 10
-56.58689
 20
-79.624597
 11
-56.58689
 21
-61.95793
  0
LINE
  8
別途部材
  6
CONTINUOUS
 10
-57.58689
 20
-79.624597
 11
-57.58689
 21
-61.95793
  0
LINE
  8
別途部材
  6
CONTINUOUS
 10
-58.58689
 20
-79.624597
 11
-58.58689
 21
-62.95793
  0
LINE
  8
別途部材
  6
CONTINUOUS
 10
-59.58689
 20
-62.95793
 11
-60.58689
 21
-61.95793
  0
LINE
  8
別途部材
  6
CONTINUOUS
 10
-61.58689
 20
-61.95793
 11
-62.58689
 21
-62.95793
  0
LINE
  8
別途部材
  6
CONTINUOUS
 10
-60.58689
 20
-61.95793
 11
-61.58689
 21
-61.95793
  0
LINE
  8
別途部材
  6
CONTINUOUS
 10
-59.58689
 20
-79.624597
 11
-59.58689
 21
-62.95793
  0
LINE
  8
別途部材
  6
CONTINUOUS
 10
-60.58689
 20
-79.624597
 11
-60.58689
 21
-61.95793
  0
LINE
  8
別途部材
  6
CONTINUOUS
 10
-61.58689
 20
-79.624597
 11
-61.58689
 21
-61.95793
  0
LINE
  8
別途部材
  6
CONTINUOUS
 10
-62.58689
 20
-79.624597
 11
-62.58689
 21
-62.95793
  0
LINE
  8
別途部材
  6
CONTINUOUS
 10
-64.58689
 20
-79.624597
 11
-64.58689
 21
-61.95793
  0
LINE
  8
別途部材
  6
CONTINUOUS
 10
-65.58689
 20
-79.624597
 11
-65.58689
 21
-61.95793
  0
LINE
  8
別途部材
  6
CONTINUOUS
 10
-63.58689
 20
-62.95793
 11
-64.58689
 21
-61.95793
  0
LINE
  8
別途部材
  6
CONTINUOUS
 10
-65.58689
 20
-61.95793
 11
-66.58689
 21
-62.95793
  0
LINE
  8
別途部材
  6
CONTINUOUS
 10
-64.58689
 20
-61.95793
 11
-65.58689
 21
-61.95793
  0
LINE
  8
別途部材
  6
CONTINUOUS
 10
-67.58689
 20
-62.95793
 11
-68.58689
 21
-61.95793
  0
LINE
  8
別途部材
  6
CONTINUOUS
 10
-69.58689
 20
-61.95793
 11
-70.58689
 21
-62.95793
  0
LINE
  8
別途部材
  6
CONTINUOUS
 10
-68.58689
 20
-61.95793
 11
-69.58689
 21
-61.95793
  0
LINE
  8
別途部材
  6
CONTINUOUS
 10
-63.58689
 20
-79.624597
 11
-63.58689
 21
-62.95793
  0
LINE
  8
別途部材
  6
CONTINUOUS
 10
-66.58689
 20
-79.624597
 11
-66.58689
 21
-62.95793
  0
LINE
  8
別途部材
  6
CONTINUOUS
 10
-67.58689
 20
-79.624597
 11
-67.58689
 21
-62.95793
  0
LINE
  8
別途部材
  6
CONTINUOUS
 10
-68.58689
 20
-79.624597
 11
-68.58689
 21
-61.95793
  0
LINE
  8
別途部材
  6
CONTINUOUS
 10
-69.58689
 20
-79.624597
 11
-69.58689
 21
-61.95793
  0
LINE
  8
別途部材
  6
CONTINUOUS
 10
-70.58689
 20
-79.624597
 11
-70.58689
 21
-62.95793
  0
LINE
  8
別途部材
  6
CONTINUOUS
 10
-66.58689
 20
-62.95793
 11
-67.58689
 21
-62.95793
  0
LINE
  8
別途部材
  6
CONTINUOUS
 10
-62.58689
 20
-62.95793
 11
-63.58689
 21
-62.95793
  0
LINE
  8
別途部材
  6
CONTINUOUS
 10
-58.58689
 20
-62.95793
 11
-59.58689
 21
-62.95793
  0
LINE
  8
別途部材
  6
CONTINUOUS
 10
-54.58689
 20
-62.95793
 11
-55.58689
 21
-62.95793
  0
LINE
  8
別途部材
  6
CONTINUOUS
 10
-71.08689
 20
-62.95793
 11
-70.58689
 21
-62.95793
  0
LINE
  8
別途部材
  6
CONTINUOUS
 62
    96
 10
47.246443
 20
-79.624597
 11
47.646443
 21
-80.624597
  0
LINE
  8
別途部材
  6
CONTINUOUS
 62
    96
 10
47.246443
 20
-79.624597
 11
-21.08689
 21
-79.624597
  0
LINE
  8
別途部材
  6
CONTINUOUS
 10
47.646443
 20
-80.624597
 11
-21.08689
 21
-80.624597
  0
LINE
  8
別途部材
  6
CONTINUOUS
 10
-20.58689
 20
-79.624597
 11
-20.58689
 21
-61.95793
  0
LINE
  8
別途部材
  6
CONTINUOUS
 10
-17.58689
 20
-79.624597
 11
-17.58689
 21
-61.95793
  0
LINE
  8
別途部材
  6
CONTINUOUS
 10
-20.58689
 20
-61.95793
 11
-19.58689
 21
-62.95793
  0
LINE
  8
別途部材
  6
CONTINUOUS
 10
-16.58689
 20
-79.624597
 11
-16.58689
 21
-61.95793
  0
LINE
  8
別途部材
  6
CONTINUOUS
 10
-18.58689
 20
-62.95793
 11
-17.58689
 21
-61.95793
  0
LINE
  8
別途部材
  6
CONTINUOUS
 10
-16.58689
 20
-61.95793
 11
-15.58689
 21
-62.95793
  0
LINE
  8
別途部材
  6
CONTINUOUS
 10
-17.58689
 20
-61.95793
 11
-16.58689
 21
-61.95793
  0
LINE
  8
別途部材
  6
CONTINUOUS
 10
-20.58689
 20
-61.95793
 11
-21.08689
 21
-61.95793
  0
LINE
  8
別途部材
  6
CONTINUOUS
 10
-14.58689
 20
-62.95793
 11
-13.58689
 21
-61.95793
  0
LINE
  8
別途部材
  6
CONTINUOUS
 10
-12.58689
 20
-61.95793
 11
-11.58689
 21
-62.95793
  0
LINE
  8
別途部材
  6
CONTINUOUS
 10
-13.58689
 20
-61.95793
 11
-12.58689
 21
-61.95793
  0
LINE
  8
別途部材
  6
CONTINUOUS
 10
-18.58689
 20
-79.624597
 11
-18.58689
 21
-62.95793
  0
LINE
  8
別途部材
  6
CONTINUOUS
 10
-15.58689
 20
-79.624597
 11
-15.58689
 21
-62.95793
  0
LINE
  8
別途部材
  6
CONTINUOUS
 10
-14.58689
 20
-79.624597
 11
-14.58689
 21
-62.95793
  0
LINE
  8
別途部材
  6
CONTINUOUS
 10
-13.58689
 20
-79.624597
 11
-13.58689
 21
-61.95793
  0
LINE
  8
別途部材
  6
CONTINUOUS
 10
-12.58689
 20
-79.624597
 11
-12.58689
 21
-61.95793
  0
LINE
  8
別途部材
  6
CONTINUOUS
 10
-11.58689
 20
-79.624597
 11
-11.58689
 21
-62.95793
  0
LINE
  8
別途部材
  6
CONTINUOUS
 10
-10.58689
 20
-62.95793
 11
-9.58689
 21
-61.95793
  0
LINE
  8
別途部材
  6
CONTINUOUS
 10
-8.58689
 20
-61.95793
 11
-7.58689
 21
-62.95793
  0
LINE
  8
別途部材
  6
CONTINUOUS
 10
-9.58689
 20
-61.95793
 11
-8.58689
 21
-61.95793
  0
LINE
  8
別途部材
  6
CONTINUOUS
 10
-10.58689
 20
-79.624597
 11
-10.58689
 21
-62.95793
  0
LINE
  8
別途部材
  6
CONTINUOUS
 10
-9.58689
 20
-79.624597
 11
-9.58689
 21
-61.95793
  0
LINE
  8
別途部材
  6
CONTINUOUS
 10
-8.58689
 20
-79.624597
 11
-8.58689
 21
-61.95793
  0
LINE
  8
別途部材
  6
CONTINUOUS
 10
-7.58689
 20
-79.624597
 11
-7.58689
 21
-62.95793
  0
LINE
  8
別途部材
  6
CONTINUOUS
 10
-5.58689
 20
-79.624597
 11
-5.58689
 21
-61.95793
  0
LINE
  8
別途部材
  6
CONTINUOUS
 10
-4.58689
 20
-79.624597
 11
-4.58689
 21
-61.95793
  0
LINE
  8
別途部材
  6
CONTINUOUS
 10
-6.58689
 20
-62.95793
 11
-5.58689
 21
-61.95793
  0
LINE
  8
別途部材
  6
CONTINUOUS
 10
-4.58689
 20
-61.95793
 11
-3.58689
 21
-62.95793
  0
LINE
  8
別途部材
  6
CONTINUOUS
 10
-5.58689
 20
-61.95793
 11
-4.58689
 21
-61.95793
  0
LINE
  8
別途部材
  6
CONTINUOUS
 10
-2.58689
 20
-62.95793
 11
-1.58689
 21
-61.95793
  0
LINE
  8
別途部材
  6
CONTINUOUS
 10
-0.58689
 20
-61.95793
 11
0.41311
 21
-62.95793
  0
LINE
  8
別途部材
  6
CONTINUOUS
 10
-1.58689
 20
-61.95793
 11
-0.58689
 21
-61.95793
  0
LINE
  8
別途部材
  6
CONTINUOUS
 10
-6.58689
 20
-79.624597
 11
-6.58689
 21
-62.95793
  0
LINE
  8
別途部材
  6
CONTINUOUS
 10
-3.58689
 20
-79.624597
 11
-3.58689
 21
-62.95793
  0
LINE
  8
別途部材
  6
CONTINUOUS
 10
-2.58689
 20
-79.624597
 11
-2.58689
 21
-62.95793
  0
LINE
  8
別途部材
  6
CONTINUOUS
 10
-1.58689
 20
-79.624597
 11
-1.58689
 21
-61.95793
  0
LINE
  8
別途部材
  6
CONTINUOUS
 10
-0.58689
 20
-79.624597
 11
-0.58689
 21
-61.95793
  0
LINE
  8
別途部材
  6
CONTINUOUS
 10
0.41311
 20
-79.624597
 11
0.41311
 21
-62.95793
  0
LINE
  8
別途部材
  6
CONTINUOUS
 10
1.41311
 20
-62.95793
 11
2.41311
 21
-61.95793
  0
LINE
  8
別途部材
  6
CONTINUOUS
 10
3.41311
 20
-61.95793
 11
4.41311
 21
-62.95793
  0
LINE
  8
別途部材
  6
CONTINUOUS
 10
2.41311
 20
-61.95793
 11
3.41311
 21
-61.95793
  0
LINE
  8
別途部材
  6
CONTINUOUS
 10
1.41311
 20
-79.624597
 11
1.41311
 21
-62.95793
  0
LINE
  8
別途部材
  6
CONTINUOUS
 10
2.41311
 20
-79.624597
 11
2.41311
 21
-61.95793
  0
LINE
  8
別途部材
  6
CONTINUOUS
 10
3.41311
 20
-79.624597
 11
3.41311
 21
-61.95793
  0
LINE
  8
別途部材
  6
CONTINUOUS
 10
4.41311
 20
-79.624597
 11
4.41311
 21
-62.95793
  0
LINE
  8
別途部材
  6
CONTINUOUS
 10
6.41311
 20
-79.624597
 11
6.41311
 21
-61.95793
  0
LINE
  8
別途部材
  6
CONTINUOUS
 10
7.41311
 20
-79.624597
 11
7.41311
 21
-61.95793
  0
LINE
  8
別途部材
  6
CONTINUOUS
 10
5.41311
 20
-62.95793
 11
6.41311
 21
-61.95793
  0
LINE
  8
別途部材
  6
CONTINUOUS
 10
7.41311
 20
-61.95793
 11
8.41311
 21
-62.95793
  0
LINE
  8
別途部材
  6
CONTINUOUS
 10
6.41311
 20
-61.95793
 11
7.41311
 21
-61.95793
  0
LINE
  8
別途部材
  6
CONTINUOUS
 10
9.41311
 20
-62.95793
 11
10.41311
 21
-61.95793
  0
LINE
  8
別途部材
  6
CONTINUOUS
 10
11.41311
 20
-61.95793
 11
12.41311
 21
-62.95793
  0
LINE
  8
別途部材
  6
CONTINUOUS
 10
10.41311
 20
-61.95793
 11
11.41311
 21
-61.95793
  0
LINE
  8
別途部材
  6
CONTINUOUS
 10
5.41311
 20
-79.624597
 11
5.41311
 21
-62.95793
  0
LINE
  8
別途部材
  6
CONTINUOUS
 10
8.41311
 20
-79.624597
 11
8.41311
 21
-62.95793
  0
LINE
  8
別途部材
  6
CONTINUOUS
 10
9.41311
 20
-79.624597
 11
9.41311
 21
-62.95793
  0
LINE
  8
別途部材
  6
CONTINUOUS
 10
10.41311
 20
-79.624597
 11
10.41311
 21
-61.95793
  0
LINE
  8
別途部材
  6
CONTINUOUS
 10
11.41311
 20
-79.624597
 11
11.41311
 21
-61.95793
  0
LINE
  8
別途部材
  6
CONTINUOUS
 10
12.41311
 20
-79.624597
 11
12.41311
 21
-62.95793
  0
LINE
  8
別途部材
  6
CONTINUOUS
 10
8.41311
 20
-62.95793
 11
9.41311
 21
-62.95793
  0
LINE
  8
別途部材
  6
CONTINUOUS
 10
4.41311
 20
-62.95793
 11
5.41311
 21
-62.95793
  0
LINE
  8
別途部材
  6
CONTINUOUS
 10
0.41311
 20
-62.95793
 11
1.41311
 21
-62.95793
  0
LINE
  8
別途部材
  6
CONTINUOUS
 10
-3.58689
 20
-62.95793
 11
-2.58689
 21
-62.95793
  0
LINE
  8
別途部材
  6
CONTINUOUS
 10
-7.58689
 20
-62.95793
 11
-6.58689
 21
-62.95793
  0
LINE
  8
別途部材
  6
CONTINUOUS
 10
-11.58689
 20
-62.95793
 11
-10.58689
 21
-62.95793
  0
LINE
  8
別途部材
  6
CONTINUOUS
 10
-15.58689
 20
-62.95793
 11
-14.58689
 21
-62.95793
  0
LINE
  8
別途部材
  6
CONTINUOUS
 10
-19.58689
 20
-79.624597
 11
-19.58689
 21
-62.95793
  0
LINE
  8
別途部材
  6
CONTINUOUS
 10
-18.58689
 20
-62.95793
 11
-19.58689
 21
-62.95793
  0
ARC
  8
別途部材
  6
CONTINUOUS
 10
28.913109
 20
-79.624597
 40
16.666667
 50
0.0
 51
90.0
  0
LINE
  8
別途部材
  6
CONTINUOUS
 10
13.41311
 20
-62.95793
 11
14.41311
 21
-61.95793
  0
LINE
  8
別途部材
  6
CONTINUOUS
 10
15.41311
 20
-61.95793
 11
16.41311
 21
-62.95793
  0
LINE
  8
別途部材
  6
CONTINUOUS
 10
14.41311
 20
-61.95793
 11
15.41311
 21
-61.95793
  0
LINE
  8
別途部材
  6
CONTINUOUS
 10
13.41311
 20
-79.624597
 11
13.41311
 21
-62.95793
  0
LINE
  8
別途部材
  6
CONTINUOUS
 10
14.41311
 20
-79.624597
 11
14.41311
 21
-61.95793
  0
LINE
  8
別途部材
  6
CONTINUOUS
 10
15.41311
 20
-79.624597
 11
15.41311
 21
-61.95793
  0
LINE
  8
別途部材
  6
CONTINUOUS
 10
16.41311
 20
-79.624597
 11
16.41311
 21
-62.95793
  0
LINE
  8
別途部材
  6
CONTINUOUS
 10
17.41311
 20
-62.95793
 11
18.41311
 21
-61.95793
  0
LINE
  8
別途部材
  6
CONTINUOUS
 10
19.41311
 20
-61.95793
 11
20.41311
 21
-62.95793
  0
LINE
  8
別途部材
  6
CONTINUOUS
 10
18.41311
 20
-61.95793
 11
19.41311
 21
-61.95793
  0
LINE
  8
別途部材
  6
CONTINUOUS
 10
17.41311
 20
-79.624597
 11
17.41311
 21
-62.95793
  0
LINE
  8
別途部材
  6
CONTINUOUS
 10
18.41311
 20
-79.624597
 11
18.41311
 21
-61.95793
  0
LINE
  8
別途部材
  6
CONTINUOUS
 10
19.41311
 20
-79.624597
 11
19.41311
 21
-61.95793
  0
LINE
  8
別途部材
  6
CONTINUOUS
 10
20.41311
 20
-79.624597
 11
20.41311
 21
-62.95793
  0
LINE
  8
別途部材
  6
CONTINUOUS
 10
22.41311
 20
-79.624597
 11
22.41311
 21
-61.95793
  0
LINE
  8
別途部材
  6
CONTINUOUS
 10
23.41311
 20
-79.624597
 11
23.41311
 21
-61.95793
  0
LINE
  8
別途部材
  6
CONTINUOUS
 10
21.41311
 20
-62.95793
 11
22.41311
 21
-61.95793
  0
LINE
  8
別途部材
  6
CONTINUOUS
 10
23.41311
 20
-61.95793
 11
24.41311
 21
-62.95793
  0
LINE
  8
別途部材
  6
CONTINUOUS
 10
22.41311
 20
-61.95793
 11
23.41311
 21
-61.95793
  0
LINE
  8
別途部材
  6
CONTINUOUS
 10
25.41311
 20
-62.95793
 11
26.41311
 21
-61.95793
  0
LINE
  8
別途部材
  6
CONTINUOUS
 10
27.41311
 20
-61.95793
 11
28.41311
 21
-62.95793
  0
LINE
  8
別途部材
  6
CONTINUOUS
 10
26.41311
 20
-61.95793
 11
27.41311
 21
-61.95793
  0
LINE
  8
別途部材
  6
CONTINUOUS
 10
21.41311
 20
-79.624597
 11
21.41311
 21
-62.95793
  0
LINE
  8
別途部材
  6
CONTINUOUS
 10
24.41311
 20
-79.624597
 11
24.41311
 21
-62.95793
  0
LINE
  8
別途部材
  6
CONTINUOUS
 10
25.41311
 20
-79.624597
 11
25.41311
 21
-62.95793
  0
LINE
  8
別途部材
  6
CONTINUOUS
 10
26.41311
 20
-79.624597
 11
26.41311
 21
-61.95793
  0
LINE
  8
別途部材
  6
CONTINUOUS
 10
27.41311
 20
-79.624597
 11
27.41311
 21
-61.95793
  0
LINE
  8
別途部材
  6
CONTINUOUS
 10
28.41311
 20
-79.624597
 11
28.41311
 21
-62.95793
  0
LINE
  8
別途部材
  6
CONTINUOUS
 10
24.41311
 20
-62.95793
 11
25.41311
 21
-62.95793
  0
LINE
  8
別途部材
  6
CONTINUOUS
 10
20.41311
 20
-62.95793
 11
21.41311
 21
-62.95793
  0
LINE
  8
別途部材
  6
CONTINUOUS
 10
16.41311
 20
-62.95793
 11
17.41311
 21
-62.95793
  0
LINE
  8
別途部材
  6
CONTINUOUS
 10
12.41311
 20
-62.95793
 11
13.41311
 21
-62.95793
  0
LINE
  8
別途部材
  6
CONTINUOUS
 10
28.91311
 20
-62.95793
 11
28.41311
 21
-62.95793
  0
ENDBLK
  0
BLOCK
  2
*DIM_0008
 70
    65
 10
0.0
 20
0.0
  0
LINE
  8
寸法
  6
BYBLOCK
 62
     0
 10
82.949083
 20
64.756625
 11
82.21224
 21
64.756625
  0
LINE
  8
寸法
  6
BYBLOCK
 62
     0
 10
82.949083
 20
-1.910042
 11
82.21224
 21
-1.910042
  0
LINE
  8
寸法
  6
BYBLOCK
 62
     0
 10
82.21224
 20
64.756625
 11
82.21224
 21
-1.910042
  0
POINT
  8
寸法
 62
     0
 10
82.21224
 20
64.756625
  0
POINT
  8
寸法
 62
     0
 10
82.21224
 20
-1.910042
  0
TEXT
  7
TextStyle03
  8
寸法
  6
CONTINUOUS
 62
     0
 10
81.825
 20
19.68125
  1
呼称寸法　2000
 40
3.0
 50
90.0
 72
     5
 11
81.825
 21
43.11875
  0
ENDBLK
  0
BLOCK
  2
*DIM_0009
 70
    65
 10
0.0
 20
0.0
  0
LINE
  8
寸法
  6
BYBLOCK
 62
     0
 10
118.446372
 20
32.42329
 11
118.446372
 21
86.5884
  0
LINE
  8
寸法
  6
BYBLOCK
 62
     0
 10
135.11304
 20
86.5884
 11
118.446372
 21
86.5884
  0
POINT
  8
寸法
 62
     0
 10
135.11304
 20
86.5884
  0
POINT
  8
寸法
 62
     0
 10
118.446372
 20
86.5884
  0
TEXT
  7
TextStyle03
  8
寸法
  6
CONTINUOUS
 62
     0
 10
124.3375
 20
86.95
  1
500
 40
3.0
 72
     5
 11
129.2125
 21
86.95
  0
ENDBLK
  0
BLOCK
  2
*DIM_0010
 70
    65
 10
0.0
 20
0.0
  0
LINE
  8
寸法
  6
BYBLOCK
 62
     0
 10
135.11304
 20
67.42329
 11
135.11304
 21
86.5884
  0
LINE
  8
寸法
  6
BYBLOCK
 62
     0
 10
137.979708
 20
68.756668
 11
137.979708
 21
86.5884
  0
LINE
  8
寸法
  6
BYBLOCK
 62
     0
 10
135.11304
 20
86.5884
 11
137.979708
 21
86.5884
  0
POINT
  8
寸法
 62
     0
 10
135.11304
 20
86.5884
  0
POINT
  8
寸法
 62
     0
 10
137.979708
 20
86.5884
  0
TEXT
  7
TextStyle03
  8
寸法
  6
CONTINUOUS
 62
     0
 10
138.30625
 20
86.95
  1
86
 40
3.0
 72
     5
 11
141.49375
 21
86.95
  0
ENDBLK
  0
BLOCK
  2
*DIM_0011
 70
    65
 10
0.0
 20
0.0
  0
LINE
  8
寸法
  6
BYBLOCK
 62
     0
 10
136.47971
 20
67.756668
 11
82.21224
 21
67.756668
  0
LINE
  8
寸法
  6
BYBLOCK
 62
     0
 10
82.21224
 20
64.756625
 11
82.21224
 21
67.756668
  0
POINT
  8
寸法
 62
     0
 10
82.21224
 20
64.756625
  0
POINT
  8
寸法
 62
     0
 10
82.21224
 20
67.756668
  0
TEXT
  7
TextStyle03
  8
寸法
  6
CONTINUOUS
 62
     0
 10
81.825
 20
68.03125
  1
90
 40
3.0
 50
90.0
 72
     5
 11
81.825
 21
71.21875
  0
ENDBLK
  0
BLOCK
  2
*DIM_0012
 70
    65
 10
0.0
 20
0.0
  0
LINE
  8
寸法
  6
BYBLOCK
 62
     0
 10
136.47971
 20
-4.910083
 11
82.21224
 21
-4.910083
  0
LINE
  8
寸法
  6
BYBLOCK
 62
     0
 10
82.21224
 20
-1.910042
 11
82.21224
 21
-4.910083
  0
POINT
  8
寸法
 62
     0
 10
82.21224
 20
-1.910042
  0
POINT
  8
寸法
 62
     0
 10
82.21224
 20
-4.910083
  0
TEXT
  7
TextStyle03
  8
寸法
  6
CONTINUOUS
 62
     0
 10
81.825
 20
-8.39375
  1
90
 40
3.0
 50
90.0
 72
     5
 11
81.825
 21
-5.20625
  0
ENDBLK
  0
BLOCK
  2
*DIM_0013
 70
    65
 10
0.0
 20
0.0
  0
LINE
  8
寸法
  6
BYBLOCK
 62
     0
 10
48.246443
 20
-79.624597
 11
61.549425
 21
-79.624597
  0
LINE
  8
寸法
  6
BYBLOCK
 62
     0
 10
49.57982
 20
-82.491265
 11
61.549425
 21
-82.491265
  0
LINE
  8
寸法
  6
BYBLOCK
 62
     0
 10
61.549425
 20
-79.624597
 11
61.549425
 21
-82.491265
  0
POINT
  8
寸法
 62
     0
 10
61.549425
 20
-79.624597
  0
POINT
  8
寸法
 62
     0
 10
61.549425
 20
-82.491265
  0
TEXT
  7
TextStyle03
  8
寸法
  6
CONTINUOUS
 62
     0
 10
61.175
 20
-86.04375
  1
86
 40
3.0
 50
90.0
 72
     5
 11
61.175
 21
-82.85625
  0
ENDBLK
  0
BLOCK
  2
*DIM_0014
 70
    65
 10
0.0
 20
0.0
  0
LINE
  8
寸法
  6
BYBLOCK
 62
     0
 10
48.57982
 20
-80.991267
 11
48.57982
 21
-29.63158
  0
LINE
  8
寸法
  6
BYBLOCK
 62
     0
 10
45.579775
 20
-29.63158
 11
48.57982
 21
-29.63158
  0
POINT
  8
寸法
 62
     0
 10
45.579775
 20
-29.63158
  0
POINT
  8
寸法
 62
     0
 10
48.57982
 20
-29.63158
  0
TEXT
  7
TextStyle03
  8
寸法
  6
CONTINUOUS
 62
     0
 10
48.85625
 20
-29.275
  1
90
 40
3.0
 72
     5
 11
52.04375
 21
-29.275
  0
ENDBLK
  0
BLOCK
  2
*DIM_0015
 70
    65
 10
0.0
 20
0.0
  0
LINE
  8
寸法
  6
BYBLOCK
 62
     0
 10
-90.753605
 20
-80.991267
 11
-90.753605
 21
-29.63158
  0
LINE
  8
寸法
  6
BYBLOCK
 62
     0
 10
-87.753557
 20
-29.63158
 11
-90.753605
 21
-29.63158
  0
POINT
  8
寸法
 62
     0
 10
-87.753557
 20
-29.63158
  0
POINT
  8
寸法
 62
     0
 10
-90.753605
 20
-29.63158
  0
TEXT
  7
TextStyle03
  8
寸法
  6
CONTINUOUS
 62
     0
 10
-94.24375
 20
-29.275
  1
90
 40
3.0
 72
     5
 11
-91.05625
 21
-29.275
  0
ENDBLK
  0
BLOCK
  2
*DIM_0016
 70
    65
 10
0.0
 20
0.0
  0
LINE
  8
寸法
  6
BYBLOCK
 62
     0
 10
-90.753557
 20
8.08996
 11
-120.242635
 21
8.08996
  0
LINE
  8
寸法
  6
BYBLOCK
 62
     0
 10
-90.753557
 20
31.423293
 11
-120.242635
 21
31.423293
  0
LINE
  8
寸法
  6
BYBLOCK
 62
     0
 10
-120.242635
 20
8.08996
 11
-120.242635
 21
31.423293
  0
POINT
  8
寸法
 62
     0
 10
-120.242635
 20
8.08996
  0
POINT
  8
寸法
 62
     0
 10
-120.242635
 20
31.423293
  0
TEXT
  7
TextStyle03
  8
寸法
  6
CONTINUOUS
 62
     0
 10
-120.65
 20
17.3125
  1
700
 40
3.0
 50
90.0
 72
     5
 11
-120.65
 21
22.1875
  0
ENDBLK
  0
BLOCK
  2
*DIM_0017
 70
    65
 10
0.0
 20
0.0
  0
LINE
  8
寸法
  6
BYBLOCK
 62
     0
 10
-90.753557
 20
54.756625
 11
-120.242635
 21
54.756625
  0
LINE
  8
寸法
  6
BYBLOCK
 62
     0
 10
-120.242635
 20
31.423293
 11
-120.242635
 21
54.756625
  0
POINT
  8
寸法
 62
     0
 10
-120.242635
 20
54.756625
  0
TEXT
  7
TextStyle03
  8
寸法
  6
CONTINUOUS
 62
     0
 10
-120.65
 20
40.6375
  1
700
 40
3.0
 50
90.0
 72
     5
 11
-120.65
 21
45.5125
  0
ENDBLK
  0
BLOCK
  2
*DIM_0018
 70
    65
 10
0.0
 20
0.0
  0
LINE
  8
寸法
  6
BYBLOCK
 62
     0
 10
-79.420225
 20
67.756625
 11
-79.420225
 21
96.864697
  0
LINE
  8
寸法
  6
BYBLOCK
 62
     0
 10
-56.086892
 20
67.756625
 11
-56.086892
 21
96.864697
  0
LINE
  8
寸法
  6
BYBLOCK
 62
     0
 10
-79.420225
 20
96.864697
 11
-56.086892
 21
96.864697
  0
POINT
  8
寸法
 62
     0
 10
-79.420225
 20
96.864697
  0
POINT
  8
寸法
 62
     0
 10
-56.086892
 20
96.864697
  0
TEXT
  7
TextStyle03
  8
寸法
  6
CONTINUOUS
 62
     0
 10
-70.1875
 20
97.225
  1
700
 40
3.0
 72
     5
 11
-65.3125
 21
97.225
  0
ENDBLK
  0
BLOCK
  2
*DIM_0019
 70
    65
 10
0.0
 20
0.0
  0
LINE
  8
寸法
  6
BYBLOCK
 62
     0
 10
-32.75356
 20
67.756625
 11
-32.75356
 21
96.864697
  0
LINE
  8
寸法
  6
BYBLOCK
 62
     0
 10
-56.086892
 20
96.864697
 11
-32.75356
 21
96.864697
  0
POINT
  8
寸法
 62
     0
 10
-32.75356
 20
96.864697
  0
TEXT
  7
TextStyle03
  8
寸法
  6
CONTINUOUS
 62
     0
 10
-46.8625
 20
97.225
  1
700
 40
3.0
 72
     5
 11
-41.9875
 21
97.225
  0
ENDBLK
  0
BLOCK
  2
*DIM_0020
 70
    65
 10
0.0
 20
0.0
  0
LINE
  8
寸法
  6
BYBLOCK
 62
     0
 10
-9.420225
 20
67.756625
 11
-9.420225
 21
96.864697
  0
LINE
  8
寸法
  6
BYBLOCK
 62
     0
 10
-32.75356
 20
96.864697
 11
-9.420225
 21
96.864697
  0
POINT
  8
寸法
 62
     0
 10
-9.420225
 20
96.864697
  0
TEXT
  7
TextStyle03
  8
寸法
  6
CONTINUOUS
 62
     0
 10
-23.5375
 20
97.225
  1
700
 40
3.0
 72
     5
 11
-18.6625
 21
97.225
  0
ENDBLK
  0
BLOCK
  2
*DIM_0021
 70
    65
 10
0.0
 20
0.0
  0
LINE
  8
寸法
  6
BYBLOCK
 62
     0
 10
13.913107
 20
67.756625
 11
13.913107
 21
96.864697
  0
LINE
  8
寸法
  6
BYBLOCK
 62
     0
 10
-9.420225
 20
96.864697
 11
13.913107
 21
96.864697
  0
POINT
  8
寸法
 62
     0
 10
13.913107
 20
96.864697
  0
TEXT
  7
TextStyle03
  8
寸法
  6
CONTINUOUS
 62
     0
 10
-0.1875
 20
97.225
  1
700
 40
3.0
 72
     5
 11
4.6875
 21
97.225
  0
ENDBLK
  0
BLOCK
  2
*DIM_0022
 70
    65
 10
0.0
 20
0.0
  0
LINE
  8
寸法
  6
BYBLOCK
 62
     0
 10
37.24644
 20
67.756625
 11
37.24644
 21
96.864697
  0
LINE
  8
寸法
  6
BYBLOCK
 62
     0
 10
13.913107
 20
96.864697
 11
37.24644
 21
96.864697
  0
POINT
  8
寸法
 62
     0
 10
37.24644
 20
96.864697
  0
TEXT
  7
TextStyle03
  8
寸法
  6
CONTINUOUS
 62
     0
 10
23.1375
 20
97.225
  1
700
 40
3.0
 72
     5
 11
28.0125
 21
97.225
  0
ENDBLK
  0
BLOCK
  2
*GRP_0023
 70
    65
 10
0.0
 20
0.0
  0
LINE
  8
ボルト／ビス
  6
CONTINUOUS
 10
-88.420227
 20
-79.624597
 11
-88.420227
 21
-79.15793
  0
LINE
  8
ボルト／ビス
  6
CONTINUOUS
 10
-88.786892
 20
-79.624597
 11
-88.786892
 21
-79.55793
  0
LINE
  8
ボルト／ビス
  6
CONTINUOUS
 10
-88.786892
 20
-79.55793
 11
-88.05356
 21
-79.55793
  0
LINE
  8
ボルト／ビス
  6
CONTINUOUS
 10
-88.05356
 20
-79.55793
 11
-88.05356
 21
-79.624597
  0
LINE
  8
ボルト／ビス
  6
CONTINUOUS
 10
-88.786892
 20
-79.624597
 11
-88.05356
 21
-79.624597
  0
LINE
  8
ボルト／ビス
  6
CONTINUOUS
 10
-88.720227
 20
-79.524597
 11
-88.720227
 21
-79.55793
  0
LINE
  8
ボルト／ビス
  6
CONTINUOUS
 10
-88.720227
 20
-79.524597
 11
-88.120227
 21
-79.524597
  0
LINE
  8
ボルト／ビス
  6
CONTINUOUS
 10
-88.120227
 20
-79.524597
 11
-88.120227
 21
-79.55793
  0
LINE
  8
ボルト／ビス
  6
CONTINUOUS
 62
    64
 10
-88.580602
 20
-79.324597
 11
-88.612677
 21
-79.336272
  0
ARC
  8
ボルト／ビス
  6
CONTINUOUS
 62
    64
 10
-88.564563
 20
-79.429575
 40
0.104978
 50
62.721967
 51
90.0
  0
ARC
  8
ボルト／ビス
  6
CONTINUOUS
 62
    64
 10
-88.420225
 20
-79.726999
 40
0.402402
 50
76.165002
 51
103.834985
  0
LINE
  8
ボルト／ビス
  6
CONTINUOUS
 62
    64
 10
-88.259853
 20
-79.324597
 11
-88.227777
 21
-79.336272
  0
ARC
  8
ボルト／ビス
  6
CONTINUOUS
 62
    64
 10
-88.275888
 20
-79.429575
 40
0.104978
 50
90.0
 51
117.278033
  0
LINE
  8
ボルト／ビス
  6
CONTINUOUS
 62
    64
 10
-88.580602
 20
-79.324597
 11
-88.259853
 21
-79.324597
  0
LINE
  8
ボルト／ビス
  6
CONTINUOUS
 62
    64
 10
-88.227777
 20
-79.336272
 11
-88.227777
 21
-79.45793
  0
LINE
  8
ボルト／ビス
  6
CONTINUOUS
 62
    64
 10
-88.324003
 20
-79.336272
 11
-88.324003
 21
-79.45793
  0
LINE
  8
ボルト／ビス
  6
CONTINUOUS
 62
    64
 10
-88.612677
 20
-79.336272
 11
-88.612677
 21
-79.45793
  0
LINE
  8
ボルト／ビス
  6
CONTINUOUS
 62
    64
 10
-88.516453
 20
-79.336272
 11
-88.516453
 21
-79.45793
  0
LINE
  8
ボルト／ビス
  6
CONTINUOUS
 10
-88.612677
 20
-79.45793
 11
-88.227777
 21
-79.45793
  0
LINE
  8
ボルト／ビス
  6
CONTINUOUS
 10
-88.620227
 20
-79.45793
 11
-88.620227
 21
-79.524597
  0
LINE
  8
ボルト／ビス
  6
CONTINUOUS
 10
-88.620227
 20
-79.45793
 11
-88.220227
 21
-79.45793
  0
LINE
  8
ボルト／ビス
  6
CONTINUOUS
 10
-88.220227
 20
-79.45793
 11
-88.220227
 21
-79.524597
  0
ENDBLK
  0
BLOCK
  2
*GRP_0024
 70
    65
 10
0.0
 20
0.0
  0
LINE
  8
ボルト／ビス
  6
CONTINUOUS
 10
46.246443
 20
-79.624597
 11
46.246443
 21
-79.15793
  0
LINE
  8
ボルト／ビス
  6
CONTINUOUS
 10
45.879777
 20
-79.624597
 11
45.879777
 21
-79.55793
  0
LINE
  8
ボルト／ビス
  6
CONTINUOUS
 10
45.879777
 20
-79.55793
 11
46.61311
 21
-79.55793
  0
LINE
  8
ボルト／ビス
  6
CONTINUOUS
 10
46.61311
 20
-79.55793
 11
46.61311
 21
-79.624597
  0
LINE
  8
ボルト／ビス
  6
CONTINUOUS
 10
45.879777
 20
-79.624597
 11
46.61311
 21
-79.624597
  0
LINE
  8
ボルト／ビス
  6
CONTINUOUS
 10
45.946443
 20
-79.524597
 11
45.946443
 21
-79.55793
  0
LINE
  8
ボルト／ビス
  6
CONTINUOUS
 10
45.946443
 20
-79.524597
 11
46.546443
 21
-79.524597
  0
LINE
  8
ボルト／ビス
  6
CONTINUOUS
 10
46.546443
 20
-79.524597
 11
46.546443
 21
-79.55793
  0
LINE
  8
ボルト／ビス
  6
CONTINUOUS
 62
    64
 10
46.086067
 20
-79.324597
 11
46.053992
 21
-79.336272
  0
ARC
  8
ボルト／ビス
  6
CONTINUOUS
 62
    64
 10
46.102107
 20
-79.429575
 40
0.104978
 50
62.721967
 51
90.0
  0
ARC
  8
ボルト／ビス
  6
CONTINUOUS
 62
    64
 10
46.246445
 20
-79.726999
 40
0.402402
 50
76.165002
 51
103.834985
  0
LINE
  8
ボルト／ビス
  6
CONTINUOUS
 62
    64
 10
46.406818
 20
-79.324597
 11
46.438892
 21
-79.336272
  0
ARC
  8
ボルト／ビス
  6
CONTINUOUS
 62
    64
 10
46.390782
 20
-79.429575
 40
0.104978
 50
90.0
 51
117.278033
  0
LINE
  8
ボルト／ビス
  6
CONTINUOUS
 62
    64
 10
46.086067
 20
-79.324597
 11
46.406818
 21
-79.324597
  0
LINE
  8
ボルト／ビス
  6
CONTINUOUS
 62
    64
 10
46.438892
 20
-79.336272
 11
46.438892
 21
-79.45793
  0
LINE
  8
ボルト／ビス
  6
CONTINUOUS
 62
    64
 10
46.342668
 20
-79.336272
 11
46.342668
 21
-79.45793
  0
LINE
  8
ボルト／ビス
  6
CONTINUOUS
 62
    64
 10
46.053992
 20
-79.336272
 11
46.053992
 21
-79.45793
  0
LINE
  8
ボルト／ビス
  6
CONTINUOUS
 62
    64
 10
46.150217
 20
-79.336272
 11
46.150217
 21
-79.45793
  0
LINE
  8
ボルト／ビス
  6
CONTINUOUS
 10
46.053992
 20
-79.45793
 11
46.438892
 21
-79.45793
  0
LINE
  8
ボルト／ビス
  6
CONTINUOUS
 10
46.046443
 20
-79.45793
 11
46.046443
 21
-79.524597
  0
LINE
  8
ボルト／ビス
  6
CONTINUOUS
 10
46.046443
 20
-79.45793
 11
46.446443
 21
-79.45793
  0
LINE
  8
ボルト／ビス
  6
CONTINUOUS
 10
46.446443
 20
-79.45793
 11
46.446443
 21
-79.524597
  0
ENDBLK
  0
BLOCK
  2
*GRP_0025
 70
    65
 10
0.0
 20
0.0
  0
LINE
  8
ボルト／ビス
  6
CONTINUOUS
 10
135.11304
 20
-2.57671
 11
134.646372
 21
-2.57671
  0
LINE
  8
ボルト／ビス
  6
CONTINUOUS
 10
135.11304
 20
-2.943375
 11
135.046372
 21
-2.943375
  0
LINE
  8
ボルト／ビス
  6
CONTINUOUS
 10
135.046372
 20
-2.943375
 11
135.046372
 21
-2.210042
  0
LINE
  8
ボルト／ビス
  6
CONTINUOUS
 10
135.046372
 20
-2.210042
 11
135.11304
 21
-2.210042
  0
LINE
  8
ボルト／ビス
  6
CONTINUOUS
 10
135.11304
 20
-2.943375
 11
135.11304
 21
-2.210042
  0
LINE
  8
ボルト／ビス
  6
CONTINUOUS
 10
135.01304
 20
-2.87671
 11
135.046372
 21
-2.87671
  0
LINE
  8
ボルト／ビス
  6
CONTINUOUS
 10
135.01304
 20
-2.87671
 11
135.01304
 21
-2.27671
  0
LINE
  8
ボルト／ビス
  6
CONTINUOUS
 10
135.01304
 20
-2.27671
 11
135.046372
 21
-2.27671
  0
LINE
  8
ボルト／ビス
  6
CONTINUOUS
 62
    64
 10
134.81304
 20
-2.737085
 11
134.824715
 21
-2.76916
  0
ARC
  8
ボルト／ビス
  6
CONTINUOUS
 62
    64
 10
134.918018
 20
-2.721045
 40
0.104978
 50
152.721967
 51
180.0
  0
ARC
  8
ボルト／ビス
  6
CONTINUOUS
 62
    64
 10
135.215441
 20
-2.576708
 40
0.402402
 50
166.165002
 51
193.834985
  0
LINE
  8
ボルト／ビス
  6
CONTINUOUS
 62
    64
 10
134.81304
 20
-2.416335
 11
134.824715
 21
-2.38426
  0
ARC
  8
ボルト／ビス
  6
CONTINUOUS
 62
    64
 10
134.918018
 20
-2.43237
 40
0.104978
 50
180.0
 51
207.278033
  0
LINE
  8
ボルト／ビス
  6
CONTINUOUS
 62
    64
 10
134.81304
 20
-2.737085
 11
134.81304
 21
-2.416335
  0
LINE
  8
ボルト／ビス
  6
CONTINUOUS
 62
    64
 10
134.824715
 20
-2.38426
 11
134.946372
 21
-2.38426
  0
LINE
  8
ボルト／ビス
  6
CONTINUOUS
 62
    64
 10
134.824715
 20
-2.480485
 11
134.946372
 21
-2.480485
  0
LINE
  8
ボルト／ビス
  6
CONTINUOUS
 62
    64
 10
134.824715
 20
-2.76916
 11
134.946372
 21
-2.76916
  0
LINE
  8
ボルト／ビス
  6
CONTINUOUS
 62
    64
 10
134.824715
 20
-2.672935
 11
134.946372
 21
-2.672935
  0
LINE
  8
ボルト／ビス
  6
CONTINUOUS
 10
134.946372
 20
-2.76916
 11
134.946372
 21
-2.38426
  0
LINE
  8
ボルト／ビス
  6
CONTINUOUS
 10
134.946372
 20
-2.77671
 11
135.01304
 21
-2.77671
  0
LINE
  8
ボルト／ビス
  6
CONTINUOUS
 10
134.946372
 20
-2.77671
 11
134.946372
 21
-2.37671
  0
LINE
  8
ボルト／ビス
  6
CONTINUOUS
 10
134.946372
 20
-2.37671
 11
135.01304
 21
-2.37671
  0
ENDBLK
  0
BLOCK
  2
*GRP_0026
 70
    65
 10
0.0
 20
0.0
  0
LINE
  8
ボルト／ビス
  6
CONTINUOUS
 10
135.11304
 20
65.42329
 11
134.646372
 21
65.42329
  0
LINE
  8
ボルト／ビス
  6
CONTINUOUS
 10
135.11304
 20
65.056625
 11
135.046372
 21
65.056625
  0
LINE
  8
ボルト／ビス
  6
CONTINUOUS
 10
135.046372
 20
65.056625
 11
135.046372
 21
65.789957
  0
LINE
  8
ボルト／ビス
  6
CONTINUOUS
 10
135.046372
 20
65.789957
 11
135.11304
 21
65.789957
  0
LINE
  8
ボルト／ビス
  6
CONTINUOUS
 10
135.11304
 20
65.056625
 11
135.11304
 21
65.789957
  0
LINE
  8
ボルト／ビス
  6
CONTINUOUS
 10
135.01304
 20
65.12329
 11
135.046372
 21
65.12329
  0
LINE
  8
ボルト／ビス
  6
CONTINUOUS
 10
135.01304
 20
65.12329
 11
135.01304
 21
65.72329
  0
LINE
  8
ボルト／ビス
  6
CONTINUOUS
 10
135.01304
 20
65.72329
 11
135.046372
 21
65.72329
  0
LINE
  8
ボルト／ビス
  6
CONTINUOUS
 62
    64
 10
134.81304
 20
65.262915
 11
134.824715
 21
65.23084
  0
ARC
  8
ボルト／ビス
  6
CONTINUOUS
 62
    64
 10
134.918018
 20
65.278955
 40
0.104978
 50
152.721967
 51
180.0
  0
ARC
  8
ボルト／ビス
  6
CONTINUOUS
 62
    64
 10
135.215441
 20
65.423292
 40
0.402402
 50
166.165002
 51
193.834985
  0
LINE
  8
ボルト／ビス
  6
CONTINUOUS
 62
    64
 10
134.81304
 20
65.583665
 11
134.824715
 21
65.61574
  0
ARC
  8
ボルト／ビス
  6
CONTINUOUS
 62
    64
 10
134.918018
 20
65.56763
 40
0.104978
 50
180.0
 51
207.278033
  0
LINE
  8
ボルト／ビス
  6
CONTINUOUS
 62
    64
 10
134.81304
 20
65.262915
 11
134.81304
 21
65.583665
  0
LINE
  8
ボルト／ビス
  6
CONTINUOUS
 62
    64
 10
134.824715
 20
65.61574
 11
134.946372
 21
65.61574
  0
LINE
  8
ボルト／ビス
  6
CONTINUOUS
 62
    64
 10
134.824715
 20
65.519515
 11
134.946372
 21
65.519515
  0
LINE
  8
ボルト／ビス
  6
CONTINUOUS
 62
    64
 10
134.824715
 20
65.23084
 11
134.946372
 21
65.23084
  0
LINE
  8
ボルト／ビス
  6
CONTINUOUS
 62
    64
 10
134.824715
 20
65.327065
 11
134.946372
 21
65.327065
  0
LINE
  8
ボルト／ビス
  6
CONTINUOUS
 10
134.946372
 20
65.23084
 11
134.946372
 21
65.61574
  0
LINE
  8
ボルト／ビス
  6
CONTINUOUS
 10
134.946372
 20
65.22329
 11
135.01304
 21
65.22329
  0
LINE
  8
ボルト／ビス
  6
CONTINUOUS
 10
134.946372
 20
65.22329
 11
134.946372
 21
65.62329
  0
LINE
  8
ボルト／ビス
  6
CONTINUOUS
 10
134.946372
 20
65.62329
 11
135.01304
 21
65.62329
  0
ENDBLK
  0
ENDSEC
  0
SECTION
  2
ENTITIES
  0
POLYLINE
  8
通り芯
  6
CONTINUOUS
 66
     1
 70
     1
  0
VERTEX
  8
通り芯
 10
-210.0
 20
-148.5
  0
VERTEX
  8
通り芯
 10
210.0
 20
-148.5
  0
VERTEX
  8
通り芯
 10
210.0
 20
148.5
  0
VERTEX
  8
通り芯
 10
-210.0
 20
148.5
  0
SEQEND
  0
INSERT
  2
*GRP_0001
  8
型材断面
  6
CONTINUOUS
 10
0.0
 20
0.0
  0
LINE
  8
型材断面
  6
DASHDOT
 10
45.579775
 20
64.756625
 11
45.579775
 21
-87.251428
  0
LINE
  8
型材断面
  6
DASHDOT
 10
-21.086892
 20
64.756625
 11
-21.086892
 21
-87.251428
  0
LINE
  8
型材断面
  6
DASHDOT
 10
-87.753557
 20
64.756625
 11
-87.753557
 21
-87.251428
  0
LINE
  8
型材断面
  6
DASHDOT
 10
143.256538
 20
64.756625
 11
-87.753557
 21
64.756625
  0
LINE
  8
型材断面
  6
DASHDOT
 10
143.256538
 20
31.423293
 11
-87.753557
 21
31.423293
  0
LINE
  8
型材断面
  6
DASHDOT
 10
143.256538
 20
-1.910042
 11
-87.753557
 21
-1.910042
  0
LINE
  8
型材断面
  6
DASHDOT
 10
-54.520223
 20
-1.910042
 11
-54.520223
 21
64.756625
  0
LINE
  8
型材断面
  6
DOT
 10
-53.270223
 20
-1.910042
 11
-53.270223
 21
64.756625
  0
LINE
  8
型材断面
  6
DOT
 10
-55.770223
 20
-1.910042
 11
-55.770223
 21
64.756625
  0
LINE
  8
型材断面
  6
DOT
 10
-87.75356
 20
32.673293
 11
-55.770223
 21
32.673293
  0
LINE
  8
型材断面
  6
DOT
 10
-87.75356
 20
30.173293
 11
-55.770223
 21
30.173293
  0
LINE
  8
型材断面
  6
DASHDOT
 10
12.346437
 20
-1.910042
 11
12.346437
 21
64.756625
  0
LINE
  8
型材断面
  6
DOT
 10
11.096437
 20
-1.910042
 11
11.096437
 21
64.756625
  0
LINE
  8
型材断面
  6
DOT
 10
13.596437
 20
-1.910042
 11
13.596437
 21
64.756625
  0
LINE
  8
型材断面
  6
DASHDOT
 10
-21.086892
 20
-1.910042
 11
-21.086892
 21
64.756625
  0
LINE
  8
型材断面
  6
DOT
 10
-22.336892
 20
-1.910042
 11
-22.336892
 21
64.756625
  0
LINE
  8
型材断面
  6
DOT
 10
-19.836892
 20
-1.910042
 11
-19.836892
 21
64.756625
  0
LINE
  8
型材断面
  6
DOT
 10
-53.270223
 20
32.673293
 11
-22.336892
 21
32.673293
  0
LINE
  8
型材断面
  6
DOT
 10
-53.270223
 20
30.173293
 11
-22.336892
 21
30.173293
  0
LINE
  8
型材断面
  6
DOT
 10
45.579775
 20
32.673293
 11
13.596437
 21
32.673293
  0
LINE
  8
型材断面
  6
DOT
 10
45.579775
 20
30.173293
 11
13.596437
 21
30.173293
  0
LINE
  8
型材断面
  6
DOT
 10
-19.836892
 20
32.673293
 11
11.096437
 21
32.673293
  0
LINE
  8
型材断面
  6
DOT
 10
-19.836892
 20
30.173293
 11
11.096437
 21
30.173293
  0
LINE
  8
型材断面
  6
CONTINUOUS
 10
-90.383687
 20
31.423293
 11
-92.974195
 21
32.918923
  0
LINE
  8
型材断面
  6
CONTINUOUS
 10
-90.383687
 20
31.423293
 11
-92.974195
 21
29.927663
  0
LINE
  8
型材断面
  6
CONTINUOUS
 10
-92.974195
 20
29.927663
 11
-92.974195
 21
32.918923
  0
LINE
  8
型材断面
  6
CONTINUOUS
 10
-128.605765
 20
109.263973
 11
-130.101395
 21
106.673465
  0
LINE
  8
型材断面
  6
CONTINUOUS
 10
-128.605765
 20
109.263973
 11
-127.110135
 21
106.673465
  0
LINE
  8
型材断面
  6
CONTINUOUS
 10
-127.110135
 20
106.673465
 11
-130.101395
 21
106.673465
  0
LINE
  8
型材断面
  6
CONTINUOUS
 10
-134.628352
 20
105.73487
 11
-88.386575
 21
105.73487
  0
LINE
  8
型材断面
  6
CONTINUOUS
 10
48.209902
 20
31.423293
 11
50.80041
 21
32.918923
  0
LINE
  8
型材断面
  6
CONTINUOUS
 10
48.209902
 20
31.423293
 11
50.80041
 21
29.927663
  0
LINE
  8
型材断面
  6
CONTINUOUS
 10
50.80041
 20
29.927663
 11
50.80041
 21
32.918923
  0
LINE
  8
型材断面
  6
CONTINUOUS
 10
-71.08689
 20
-4.54017
 11
-72.58252
 21
-7.130678
  0
LINE
  8
型材断面
  6
CONTINUOUS
 10
-71.08689
 20
-4.54017
 11
-69.59126
 21
-7.130678
  0
LINE
  8
型材断面
  6
CONTINUOUS
 10
-69.59126
 20
-7.130678
 11
-72.58252
 21
-7.130678
  0
LINE
  8
型材断面
  6
CONTINUOUS
 10
-71.08689
 20
67.386755
 11
-72.58252
 21
69.977262
  0
LINE
  8
型材断面
  6
CONTINUOUS
 10
-71.08689
 20
67.386755
 11
-69.59126
 21
69.977262
  0
LINE
  8
型材断面
  6
CONTINUOUS
 10
-69.59126
 20
69.977262
 11
-72.58252
 21
69.977262
  0
LINE
  8
型材断面
  6
CONTINUOUS
 10
28.913105
 20
-4.54017
 11
30.408735
 21
-7.130678
  0
LINE
  8
型材断面
  6
CONTINUOUS
 10
28.913105
 20
-4.54017
 11
27.417475
 21
-7.130678
  0
LINE
  8
型材断面
  6
CONTINUOUS
 10
27.417475
 20
-7.130678
 11
30.408735
 21
-7.130678
  0
LINE
  8
型材断面
  6
CONTINUOUS
 10
28.913105
 20
67.386755
 11
30.408735
 21
69.977262
  0
LINE
  8
型材断面
  6
CONTINUOUS
 10
28.913105
 20
67.386755
 11
27.417475
 21
69.977262
  0
LINE
  8
型材断面
  6
CONTINUOUS
 10
27.417475
 20
69.977262
 11
30.408735
 21
69.977262
  0
LINE
  8
型材断面
  6
CONTINUOUS
 10
-134.628352
 20
99.778395
 11
-88.386575
 21
99.778395
  0
LINE
  8
型材断面
  6
CONTINUOUS
 62
    47
 10
137.979708
 20
67.756668
 11
137.47971
 21
67.756668
  0
LINE
  8
型材断面
  6
CONTINUOUS
 62
    47
 10
137.47971
 20
67.756668
 11
136.98253
 21
64.823337
  0
LINE
  8
型材断面
  6
CONTINUOUS
 62
    47
 10
137.979708
 20
67.256677
 11
138.479708
 21
67.256677
  0
LINE
  8
型材断面
  6
CONTINUOUS
 62
    47
 10
136.98253
 20
64.823337
 11
136.11304
 21
64.823337
  0
LINE
  8
型材断面
  6
CONTINUOUS
 10
136.98253
 20
64.823337
 11
136.98253
 21
31.423293
  0
LINE
  8
型材断面
  6
CONTINUOUS
 10
137.47971
 20
67.756668
 11
137.47971
 21
31.423293
  0
LINE
  8
型材断面
  6
CONTINUOUS
 62
    47
 10
137.979708
 20
67.756668
 11
137.979708
 21
31.423293
  0
LINE
  8
型材断面
  6
CONTINUOUS
 10
138.479708
 20
67.256677
 11
138.479708
 21
31.423293
  0
LINE
  8
型材断面
  6
CONTINUOUS
 62
    47
 10
137.979708
 20
-4.910083
 11
137.47971
 21
-4.910083
  0
LINE
  8
型材断面
  6
CONTINUOUS
 62
    47
 10
137.47971
 20
-4.910083
 11
136.98253
 21
-1.976753
  0
LINE
  8
型材断面
  6
CONTINUOUS
 62
    47
 10
137.979708
 20
-4.410092
 11
138.479708
 21
-4.410092
  0
LINE
  8
型材断面
  6
CONTINUOUS
 62
    47
 10
136.98253
 20
-1.976753
 11
136.11304
 21
-1.976753
  0
LINE
  8
型材断面
  6
CONTINUOUS
 10
136.98253
 20
-1.976753
 11
136.98253
 21
31.423293
  0
LINE
  8
型材断面
  6
CONTINUOUS
 10
137.47971
 20
-4.910083
 11
137.47971
 21
31.423293
  0
LINE
  8
型材断面
  6
CONTINUOUS
 62
    47
 10
137.979708
 20
-4.910083
 11
137.979708
 21
31.423293
  0
LINE
  8
型材断面
  6
CONTINUOUS
 10
138.479708
 20
-4.410092
 11
138.479708
 21
31.423293
  0
LINE
  8
型材断面
  6
CONTINUOUS
 62
    47
 10
48.57982
 20
-82.491265
 11
48.57982
 21
-81.991267
  0
LINE
  8
型材断面
  6
CONTINUOUS
 62
    47
 10
48.57982
 20
-81.991267
 11
45.64649
 21
-81.494088
  0
LINE
  8
型材断面
  6
CONTINUOUS
 62
    47
 10
48.07983
 20
-82.491265
 11
48.07983
 21
-82.991265
  0
LINE
  8
型材断面
  6
CONTINUOUS
 62
    47
 10
45.64649
 20
-81.494088
 11
45.64649
 21
-80.624597
  0
LINE
  8
型材断面
  6
CONTINUOUS
 10
47.646443
 20
-3.97671
 11
48.579775
 21
-4.910045
  0
LINE
  8
型材断面
  6
CONTINUOUS
 10
48.579775
 20
31.423293
 11
48.579775
 21
-4.910045
  0
LINE
  8
型材断面
  6
CONTINUOUS
 10
48.579775
 20
-4.910045
 11
-21.086892
 21
-4.910023
  0
LINE
  8
型材断面
  6
CONTINUOUS
 10
47.646443
 20
66.823295
 11
48.579775
 21
67.75663
  0
LINE
  8
型材断面
  6
CONTINUOUS
 10
48.579775
 20
31.423293
 11
48.579775
 21
67.75663
  0
LINE
  8
型材断面
  6
CONTINUOUS
 10
48.579775
 20
67.75663
 11
-21.086892
 21
67.756608
  0
LINE
  8
型材断面
  6
CONTINUOUS
 10
-89.820227
 20
66.823295
 11
-90.75356
 21
67.75663
  0
LINE
  8
型材断面
  6
CONTINUOUS
 10
-90.75356
 20
31.423293
 11
-90.75356
 21
67.75663
  0
LINE
  8
型材断面
  6
CONTINUOUS
 10
-90.75356
 20
67.75663
 11
-21.086892
 21
67.756608
  0
LINE
  8
型材断面
  6
CONTINUOUS
 10
-89.820227
 20
-3.97671
 11
-90.75356
 21
-4.910045
  0
LINE
  8
型材断面
  6
CONTINUOUS
 10
-90.75356
 20
31.423293
 11
-90.75356
 21
-4.910045
  0
LINE
  8
型材断面
  6
CONTINUOUS
 10
-90.75356
 20
-4.910045
 11
-21.086892
 21
-4.910023
  0
LINE
  8
型材断面
  6
CONTINUOUS
 10
48.07983
 20
-82.991265
 11
-21.086892
 21
-82.991265
  0
LINE
  8
型材断面
  6
CONTINUOUS
 62
    47
 10
48.57982
 20
-82.491265
 11
-21.086892
 21
-82.491265
  0
LINE
  8
型材断面
  6
CONTINUOUS
 10
45.64649
 20
-81.494088
 11
-21.086892
 21
-81.494088
  0
LINE
  8
型材断面
  6
CONTINUOUS
 10
48.57982
 20
-81.991267
 11
-21.086892
 21
-81.991267
  0
LINE
  8
型材断面
  6
CONTINUOUS
 62
    47
 10
-90.753605
 20
-82.491265
 11
-90.753605
 21
-81.991267
  0
LINE
  8
型材断面
  6
CONTINUOUS
 62
    47
 10
-90.753605
 20
-81.991267
 11
-87.820275
 21
-81.494088
  0
LINE
  8
型材断面
  6
CONTINUOUS
 62
    47
 10
-90.253615
 20
-82.491265
 11
-90.253615
 21
-82.991265
  0
LINE
  8
型材断面
  6
CONTINUOUS
 62
    47
 10
-87.820275
 20
-81.494088
 11
-87.820275
 21
-80.624597
  0
LINE
  8
型材断面
  6
CONTINUOUS
 10
-90.253615
 20
-82.991265
 11
-21.086892
 21
-82.991265
  0
LINE
  8
型材断面
  6
CONTINUOUS
 62
    47
 10
-90.753605
 20
-82.491265
 11
-21.086892
 21
-82.491265
  0
LINE
  8
型材断面
  6
CONTINUOUS
 10
-87.820275
 20
-81.494088
 11
-21.086892
 21
-81.494088
  0
LINE
  8
型材断面
  6
CONTINUOUS
 10
-90.753605
 20
-81.991267
 11
-21.086892
 21
-81.991267
  0
TEXT
  7
TextStyle03
  8
文字
  6
CONTINUOUS
 10
113.925
 20
-83.825
  1
網入り6.8t
 40
3.0
 72
     5
 11
130.6125
 21
-83.825
  0
TEXT
  7
TextStyle03
  8
文字
  6
CONTINUOUS
 10
120.225
 20
-88.45
  1
×８枚
 40
3.0
 72
     5
 11
129.975
 21
-88.45
  0
TEXT
  7
TextStyle03
  8
文字
  6
CONTINUOUS
 10
-125.825
 20
106.85
  1
は排水穴位置を示す
 40
3.0
 72
     5
 11
-95.825
 21
106.85
  0
TEXT
  7
TextStyle03
  8
文字
  6
CONTINUOUS
 10
-126.5
 20
2.025
  1
アンカーピッチ
 40
3.0
 50
90.0
 72
     5
 11
-126.5
 21
25.275
  0
TEXT
  7
TextStyle03
  8
文字
  6
CONTINUOUS
 10
-79.65
 20
102.775
  1
アンカーピッチ
 40
3.0
 72
     5
 11
-56.4
 21
102.775
  0
TEXT
  7
TextStyle03
  8
文字
  6
CONTINUOUS
 10
-129.55
 20
100.675
  1
アンカー数量　１８ヶ所
 40
3.0
 72
     5
 11
-92.8
 21
100.675
  0
TEXT
  7
TextStyle03
  8
文字
  6
CONTINUOUS
 10
78.1
 20
125.25
  1
シリーズ：ＴＤ２ＫＬ
 40
5.0
 72
     5
 11
133.725
 21
125.25
  0
TEXT
  7
TextStyle03
  8
文字
  6
CONTINUOUS
 10
78.1
 20
119.625
  1
　　　　　（固定）2000×4000タイプ
 40
5.0
 72
     5
 11
173.1
 21
119.625
  0
TEXT
  7
TextStyle03
  8
文字
  6
CONTINUOUS
 10
78.1
 20
114.0
  1
図面名　：外観姿図
 40
5.0
 72
     5
 11
128.1
 21
114.0
  0
TEXT
  7
TextStyle03
  8
文字
  6
CONTINUOUS
 10
78.1
 20
108.375
  1
　　　　　　
 40
5.0
 72
     5
 11
111.225
 21
108.375
  0
TEXT
  7
TextStyle03
  8
文字
  6
CONTINUOUS
 10
77.65
 20
104.325
  1
ＮＳコード：ＮＳＫＺＬ
 40
5.0
 72
     5
 11
138.9
 21
104.325
  0
INSERT
  2
*DIM_0002
  8
寸法
  6
CONTINUOUS
 10
0.0
 20
0.0
  0
INSERT
  2
*DIM_0003
  8
寸法
  6
CONTINUOUS
 10
0.0
 20
0.0
  0
INSERT
  2
*DIM_0004
  8
寸法
  6
CONTINUOUS
 10
0.0
 20
0.0
  0
INSERT
  2
*DIM_0005
  8
寸法
  6
CONTINUOUS
 10
0.0
 20
0.0
  0
INSERT
  2
*DIM_0006
  8
寸法
  6
CONTINUOUS
 10
0.0
 20
0.0
  0
INSERT
  2
*DIM_0008
  8
寸法
  6
CONTINUOUS
 10
0.0
 20
0.0
  0
INSERT
  2
*DIM_0009
  8
寸法
  6
CONTINUOUS
 10
0.0
 20
0.0
  0
INSERT
  2
*DIM_0010
  8
寸法
  6
CONTINUOUS
 10
0.0
 20
0.0
  0
INSERT
  2
*DIM_0011
  8
寸法
  6
CONTINUOUS
 10
0.0
 20
0.0
  0
INSERT
  2
*DIM_0012
  8
寸法
  6
CONTINUOUS
 10
0.0
 20
0.0
  0
INSERT
  2
*DIM_0013
  8
寸法
  6
CONTINUOUS
 10
0.0
 20
0.0
  0
INSERT
  2
*DIM_0014
  8
寸法
  6
CONTINUOUS
 10
0.0
 20
0.0
  0
INSERT
  2
*DIM_0015
  8
寸法
  6
CONTINUOUS
 10
0.0
 20
0.0
  0
INSERT
  2
*DIM_0016
  8
寸法
  6
CONTINUOUS
 10
0.0
 20
0.0
  0
INSERT
  2
*DIM_0017
  8
寸法
  6
CONTINUOUS
 10
0.0
 20
0.0
  0
INSERT
  2
*DIM_0018
  8
寸法
  6
CONTINUOUS
 10
0.0
 20
0.0
  0
INSERT
  2
*DIM_0019
  8
寸法
  6
CONTINUOUS
 10
0.0
 20
0.0
  0
INSERT
  2
*DIM_0020
  8
寸法
  6
CONTINUOUS
 10
0.0
 20
0.0
  0
INSERT
  2
*DIM_0021
  8
寸法
  6
CONTINUOUS
 10
0.0
 20
0.0
  0
INSERT
  2
*DIM_0022
  8
寸法
  6
CONTINUOUS
 10
0.0
 20
0.0
  0
LINE
  8
別途部材
  6
CONTINUOUS
 10
47.646443
 20
-3.97671
 11
47.246443
 21
-3.57671
  0
LINE
  8
別途部材
  6
CONTINUOUS
 10
45.579775
 20
-1.910042
 11
37.52052
 21
6.149215
  0
LINE
  8
別途部材
  6
CONTINUOUS
 10
47.646443
 20
-3.97671
 11
47.646443
 21
31.423293
  0
LINE
  8
別途部材
  6
CONTINUOUS
 10
47.246443
 20
-3.57671
 11
47.246443
 21
31.423293
  0
LINE
  8
別途部材
  6
CONTINUOUS
 10
47.646443
 20
66.823295
 11
47.246443
 21
66.423295
  0
LINE
  8
別途部材
  6
CONTINUOUS
 10
45.579775
 20
64.756627
 11
37.52052
 21
56.69737
  0
LINE
  8
別途部材
  6
CONTINUOUS
 10
47.646443
 20
66.823295
 11
47.646443
 21
31.423293
  0
LINE
  8
別途部材
  6
CONTINUOUS
 10
47.246443
 20
66.423295
 11
47.246443
 21
31.423293
  0
LINE
  8
別途部材
  6
CONTINUOUS
 10
47.646443
 20
-3.97671
 11
-21.086892
 21
-3.97671
  0
LINE
  8
別途部材
  6
CONTINUOUS
 10
47.246443
 20
-3.57671
 11
-21.086892
 21
-3.57671
  0
LINE
  8
別途部材
  6
CONTINUOUS
 10
47.246443
 20
66.423295
 11
-21.086892
 21
66.423295
  0
LINE
  8
別途部材
  6
CONTINUOUS
 10
47.646443
 20
66.823295
 11
-21.086892
 21
66.823295
  0
LINE
  8
別途部材
  6
CONTINUOUS
 10
-89.820227
 20
-3.97671
 11
-89.420227
 21
-3.57671
  0
LINE
  8
別途部材
  6
CONTINUOUS
 10
-87.75356
 20
-1.910042
 11
-79.694305
 21
6.149215
  0
LINE
  8
別途部材
  6
CONTINUOUS
 10
-89.820227
 20
-3.97671
 11
-89.820227
 21
31.423293
  0
LINE
  8
別途部材
  6
CONTINUOUS
 10
-89.420227
 20
-3.57671
 11
-89.420227
 21
31.423293
  0
LINE
  8
別途部材
  6
CONTINUOUS
 10
-89.820227
 20
66.823295
 11
-89.420227
 21
66.423295
  0
LINE
  8
別途部材
  6
CONTINUOUS
 10
-87.75356
 20
64.756627
 11
-79.694305
 21
56.69737
  0
LINE
  8
別途部材
  6
CONTINUOUS
 10
-89.820227
 20
66.823295
 11
-89.820227
 21
31.423293
  0
LINE
  8
別途部材
  6
CONTINUOUS
 10
-89.420227
 20
66.423295
 11
-89.420227
 21
31.423293
  0
LINE
  8
別途部材
  6
CONTINUOUS
 10
-89.820227
 20
-3.97671
 11
-21.086892
 21
-3.97671
  0
LINE
  8
別途部材
  6
CONTINUOUS
 10
-89.420227
 20
-3.57671
 11
-21.086892
 21
-3.57671
  0
LINE
  8
別途部材
  6
CONTINUOUS
 10
-89.420227
 20
66.423295
 11
-21.086892
 21
66.423295
  0
LINE
  8
別途部材
  6
CONTINUOUS
 10
-89.820227
 20
66.823295
 11
-21.086892
 21
66.823295
  0
INSERT
  2
*GRP_0007
  8
別途部材
  6
CONTINUOUS
 10
0.0
 20
0.0
  0
LINE
  8
別途部材
  6
CONTINUOUS
 62
    96
 10
135.11304
 20
-3.57671
 11
136.11304
 21
-3.97671
  0
ARC
  8
別途部材
  6
CONTINUOUS
 10
160.113036
 20
31.42329
 40
41.666665
 50
180.0
 51
233.130105
  0
ARC
  8
別途部材
  6
CONTINUOUS
 10
160.113036
 20
31.423291
 40
41.666665
 50
126.869895
 51
180.0
  0
LINE
  8
別途部材
  6
CONTINUOUS
 10
136.11304
 20
-3.97671
 11
136.11304
 21
31.42329
  0
LINE
  8
別途部材
  6
CONTINUOUS
 62
    96
 10
135.11304
 20
-3.57671
 11
135.11304
 21
31.42329
  0
LINE
  8
別途部材
  6
CONTINUOUS
 62
    96
 10
135.11304
 20
66.42329
 11
136.11304
 21
66.82329
  0
LINE
  8
別途部材
  6
CONTINUOUS
 10
136.11304
 20
66.82329
 11
136.11304
 21
31.42329
  0
LINE
  8
別途部材
  6
CONTINUOUS
 62
    96
 10
135.11304
 20
66.42329
 11
135.11304
 21
31.42329
  0
INSERT
  2
*GRP_0023
  8
別途部材
  6
DOT
 10
0.0
 20
0.0
  0
INSERT
  2
*GRP_0024
  8
別途部材
  6
DOT
 10
0.0
 20
0.0
  0
INSERT
  2
*GRP_0025
  8
別途部材
  6
DOT
 10
0.0
 20
0.0
  0
INSERT
  2
*GRP_0026
  8
別途部材
  6
DOT
 10
0.0
 20
0.0
  0
LINE
  8
曲げ物
  6
CONTINUOUS
 10
100.883267
 20
-90.759512
 11
100.883267
 21
-58.292845
  0
LINE
  8
曲げ物
  6
CONTINUOUS
 10
100.883267
 20
-58.292845
 11
133.249935
 21
-58.292845
  0
LINE
  8
曲げ物
  6
CONTINUOUS
 10
133.249935
 20
-58.292845
 11
133.249935
 21
-90.759512
  0
LINE
  8
曲げ物
  6
CONTINUOUS
 10
100.883267
 20
-90.759512
 11
133.249935
 21
-90.759512
  0
CIRCLE
  8
LAYER010
  6
CONTINUOUS
 62
     7
 10
137.47971
 20
67.756668
 40
0.011113
  0
CIRCLE
  8
LAYER010
  6
CONTINUOUS
 62
     7
 10
137.47971
 20
67.756668
 40
0.011113
  0
CIRCLE
  8
LAYER010
  6
CONTINUOUS
 62
     7
 10
137.47971
 20
-4.910083
 40
0.011113
  0
CIRCLE
  8
LAYER010
  6
CONTINUOUS
 62
     7
 10
137.47971
 20
-4.910083
 40
0.011113
  0
CIRCLE
  8
LAYER010
  6
CONTINUOUS
 62
     7
 10
48.57982
 20
-81.991267
 40
0.011113
  0
CIRCLE
  8
LAYER010
  6
CONTINUOUS
 62
     7
 10
48.57982
 20
-81.991267
 40
0.011113
  0
CIRCLE
  8
LAYER010
  6
CONTINUOUS
 62
     7
 10
-90.753605
 20
-81.991267
 40
0.011113
  0
CIRCLE
  8
LAYER010
  6
CONTINUOUS
 62
     7
 10
-90.753605
 20
-81.991267
 40
0.011113
  0
ENDSEC
  0
EOF
