  0
SECTION
  2
HEADER
  9
$EXTMIN
 10
-210.0
 20
-148.5
  9
$EXTMAX
 10
210.0
 20
148.5
  9
$PDMODE
 70
    32
  9
$PDSIZE
 40
1.5
  9
$LTSCALE
 40
10.0
  0
ENDSEC
  0
SECTION
  2
TABLES
  0
TABLE
  2
LTYPE
 70
    15
  0
LTYPE
  2
CONTINUOUS
 70
    64
  3
実線
 72
    65
 73
     0
 40
0.0
  0
LTYPE
  2
DASHED
 70
    64
  3
破線A
 72
    65
 73
     2
 40
0.6
 49
0.4
 49
-0.2
  0
LTYPE
  2
DASHEDX2
 70
    64
  3
破線B
 72
    65
 73
     2
 40
1.3
 49
0.9
 49
-0.4
  0
LTYPE
  2
DASHDOT
 70
    64
  3
１点鎖線A
 72
    65
 73
     4
 40
0.5375
 49
0.375
 49
-0.05
 49
0.0625
 49
-0.05
  0
LTYPE
  2
DASHDOTX2
 70
    64
  3
１点鎖線B
 72
    65
 73
     4
 40
1.075
 49
0.75
 49
-0.1
 49
0.125
 49
-0.1
  0
LTYPE
  2
DIVIDE2
 70
    64
  3
２点鎖線A
 72
    65
 73
     6
 40
0.5125
 49
0.3
 49
-0.0375
 49
0.05
 49
-0.0375
 49
0.05
 49
-0.0375
  0
LTYPE
  2
DIVIDE
 70
    64
  3
２点鎖線B
 72
    65
 73
     6
 40
1.05
 49
0.55
 49
-0.1
 49
0.1
 49
-0.1
 49
0.1
 49
-0.1
  0
LTYPE
  2
DOT
 70
    64
  3
点線A
 72
    65
 73
     2
 40
0.1125
 49
0.0625
 49
-0.05
  0
LTYPE
  2
DOTX2
 70
    64
  3
点線B
 72
    65
 73
     2
 40
0.275
 49
0.15
 49
-0.125
  0
LTYPE
  2
CONTINUOUS
 70
    64
  3
実線
 72
    65
 73
     0
 40
0.0
  0
LTYPE
  2
CONTINUOUS
 70
    64
  3
実線
 72
    65
 73
     0
 40
0.0
  0
LTYPE
  2
CONTINUOUS
 70
    64
  3
実線
 72
    65
 73
     0
 40
0.0
  0
LTYPE
  2
CONTINUOUS
 70
    64
  3
実線
 72
    65
 73
     0
 40
0.0
  0
LTYPE
  2
CONTINUOUS
 70
    64
  3
実線
 72
    65
 73
     0
 40
0.0
  0
LTYPE
  2
CONTINUOUS
 70
    64
  3
実線
 72
    65
 73
     0
 40
0.0
  0
ENDTAB
  0
TABLE
  2
LAYER
 70
    36
  0
LAYER
  2
通り芯
 70
     0
 62
    15
  6
CONTINUOUS
  0
LAYER
  2
補助線
 70
     0
 62
    16
  6
DOT
  0
LAYER
  2
躯体
 70
     0
 62
    31
  6
CONTINUOUS
  0
LAYER
  2
型材
 70
     0
 62
    32
  6
CONTINUOUS
  0
LAYER
  2
型材断面
 70
     0
 62
    47
  6
CONTINUOUS
  0
LAYER
  2
ガラス
 70
     0
 62
    48
  6
CONTINUOUS
  0
LAYER
  2
ゴム等
 70
     0
 62
    63
  6
CONTINUOUS
  0
LAYER
  2
ボルト／ビス
 70
     0
 62
    64
  6
CONTINUOUS
  0
LAYER
  2
文字
 70
     0
 62
    79
  6
CONTINUOUS
  0
LAYER
  2
寸法
 70
     0
 62
    80
  6
CONTINUOUS
  0
LAYER
  2
ﾊｯﾁﾝｸﾞ
 70
     0
 62
    95
  6
CONTINUOUS
  0
LAYER
  2
別途部材
 70
     0
 62
    96
  6
CONTINUOUS
  0
LAYER
  2
曲げ物
 70
     0
 62
   111
  6
CONTINUOUS
  0
LAYER
  2
鉄骨等
 70
     0
 62
   112
  6
CONTINUOUS
  0
LAYER
  2
St
 70
     0
 62
   127
  6
CONTINUOUS
  0
LAYER
  2
その他部品等
 70
     0
 62
   128
  6
CONTINUOUS
  0
LAYER
  2
ｶﾞｽｹｯﾄ
 70
     0
 62
   143
  6
CONTINUOUS
  0
LAYER
  2
ｽｹｯﾁ
 70
     0
 62
    14
  6
CONTINUOUS
  0
LAYER
  2
0
 70
     0
 62
    17
  6
CONTINUOUS
  0
LAYER
  2
1
 70
     0
 62
    30
  6
CONTINUOUS
  0
LAYER
  2
4
 70
     0
 62
    33
  6
CONTINUOUS
  0
LAYER
  2
ﾚｲﾔ3
 70
     0
 62
    46
  6
CONTINUOUS
  0
LAYER
  2
外形線
 70
     0
 62
    49
  6
CONTINUOUS
  0
LAYER
  2
部品
 70
     0
 62
    14
  6
CONTINUOUS
  0
LAYER
  2
サッシ芯
 70
     0
 62
    17
  6
DASHDOTX2
  0
LAYER
  2
寸法線
 70
     0
 62
    62
  6
CONTINUOUS
  0
LAYER
  2
姿図外形線
 70
     0
 62
    65
  6
CONTINUOUS
  0
LAYER
  2
姿補助線
 70
     0
 62
    30
  6
CONTINUOUS
  0
LAYER
  2
透視線
 70
     0
 62
    78
  6
DOT
  0
LAYER
  2
用紙
 70
     0
 62
    81
  6
CONTINUOUS
  0
LAYER
  2
実線図枠
 70
     0
 62
    94
  6
CONTINUOUS
  0
LAYER
  2
補助図枠
 70
     0
 62
    97
  6
CONTINUOUS
  0
LAYER
  2
建具記号
 70
     0
 62
   110
  6
CONTINUOUS
  0
LAYER
  2
補助文字
 70
     0
 62
   113
  6
CONTINUOUS
  0
LAYER
  2
LAYER001
 70
     0
 62
     7
  6
CONTINUOUS
  0
LAYER
  2
LAYER010
 70
     0
 62
    11
  6
CONTINUOUS
  0
ENDTAB
  0
TABLE
  2
STYLE
 70
    10
  0
STYLE
  2
STANDARD
 70
     0
 40
1.0
 41
1.0
 42
1.0
 50
0.0
 71
     0
  3
TXT
  4
BIGFONT
  0
STYLE
  2
TATE
 70
     4
 40
1.0
 41
1.0
 42
1.0
 50
0.0
 71
     0
  3
TXT
  4
BIGFONT
  0
STYLE
  2
TextStyle03
 70
     0
 40
1.0
 41
1.0
 42
1.0
 50
0.0
 71
     0
  3
MONOTXT
  4
BIGFONT
  0
STYLE
  2
TextStyle04
 70
     0
 40
1.0
 41
1.0
 42
1.0
 50
0.0
 71
     0
  3
MONOTXT
  4
BIGFONT
  0
STYLE
  2
TextStyle05
 70
     0
 40
1.0
 41
1.0
 42
1.0
 50
0.0
 71
     0
  3
MONOTXT
  4
BIGFONT
  0
STYLE
  2
TextStyle06
 70
     0
 40
1.0
 41
1.0
 42
1.0
 50
0.0
 71
     0
  3
MONOTXT
  4
BIGFONT
  0
STYLE
  2
TextStyle07
 70
     0
 40
1.0
 41
1.0
 42
1.0
 50
0.0
 71
     0
  3
MONOTXT
  4
BIGFONT
  0
STYLE
  2
TextStyle08
 70
     0
 40
1.0
 41
1.0
 42
1.0
 50
0.0
 71
     0
  3
MONOTXT
  4
BIGFONT
  0
STYLE
  2
TextStyle09
 70
     0
 40
1.0
 41
1.0
 42
1.0
 50
0.0
 71
     0
  3
MONOTXT
  4
BIGFONT
  0
STYLE
  2
TextStyle10
 70
     0
 40
1.0
 41
1.0
 42
1.0
 50
0.0
 71
     0
  3
MONOTXT
  4
BIGFONT
  0
ENDTAB
  0
ENDSEC
  0
SECTION
  2
BLOCKS
  0
BLOCK
  2
*HAT_0001
 70
    65
 10
0.0
 20
0.0
  0
LINE
  8
ゴム等
 10
18.975
 20
-4.975
 11
19.65
 21
-4.3
  0
LINE
  8
ゴム等
 10
17.55
 20
-4.975
 11
19.65
 21
-2.875
  0
LINE
  8
ゴム等
 10
16.125
 20
-4.975
 11
19.65
 21
-1.525
  0
LINE
  8
ゴム等
 10
14.775
 20
-4.975
 11
19.65
 21
-0.1
  0
LINE
  8
ゴム等
 10
13.35
 20
-4.975
 11
18.3
 21
0.05
  0
LINE
  8
ゴム等
 10
11.925
 20
-4.975
 11
16.95
 21
0.05
  0
LINE
  8
ゴム等
 10
10.5
 20
-4.975
 11
15.525
 21
0.05
  0
LINE
  8
ゴム等
 10
9.675
 20
-4.45
 11
14.1
 21
0.05
  0
LINE
  8
ゴム等
 10
9.675
 20
-3.025
 11
12.675
 21
0.05
  0
LINE
  8
ゴム等
 10
9.675
 20
-1.6
 11
11.25
 21
0.05
  0
LINE
  8
ゴム等
 10
9.675
 20
-0.175
 11
9.825
 21
0.05
  0
ENDBLK
  0
BLOCK
  2
*HAT_0002
 70
    65
 10
0.0
 20
0.0
  0
LINE
  8
St
 10
-8.925
 20
17.075
 11
-7.05
 21
15.2
  0
LINE
  8
St
 10
-10.275
 20
17.075
 11
-7.65
 21
14.375
  0
LINE
  8
St
 10
-11.7
 20
17.075
 11
-8.7
 21
14.075
  0
LINE
  8
St
 10
-13.125
 20
17.075
 11
-10.125
 21
14.075
  0
LINE
  8
St
 10
-14.55
 20
17.075
 11
-11.55
 21
14.075
  0
LINE
  8
St
 10
-15.975
 20
17.075
 11
-12.975
 21
14.075
  0
LINE
  8
St
 10
-17.4
 20
17.075
 11
-14.4
 21
14.075
  0
LINE
  8
St
 10
-18.75
 20
17.075
 11
-15.75
 21
14.075
  0
LINE
  8
St
 10
-20.175
 20
17.075
 11
-17.175
 21
14.075
  0
LINE
  8
St
 10
-21.6
 20
17.075
 11
-18.6
 21
14.075
  0
LINE
  8
St
 10
-23.025
 20
17.075
 11
-20.025
 21
14.075
  0
LINE
  8
St
 10
-24.45
 20
17.075
 11
-21.45
 21
14.075
  0
LINE
  8
St
 10
-25.875
 20
17.075
 11
-22.875
 21
14.075
  0
LINE
  8
St
 10
-27.225
 20
17.075
 11
-24.225
 21
14.075
  0
LINE
  8
St
 10
-28.65
 20
17.075
 11
-25.65
 21
14.075
  0
LINE
  8
St
 10
-30.075
 20
17.075
 11
-27.075
 21
14.075
  0
LINE
  8
St
 10
-31.5
 20
17.075
 11
-28.5
 21
14.075
  0
LINE
  8
St
 10
-32.925
 20
17.075
 11
-29.925
 21
14.075
  0
LINE
  8
St
 10
-34.35
 20
17.075
 11
-31.35
 21
14.075
  0
LINE
  8
St
 10
-35.7
 20
17.075
 11
-32.7
 21
14.075
  0
LINE
  8
St
 10
-36.675
 20
16.55
 11
-34.125
 21
14.075
  0
LINE
  8
St
 10
-37.05
 20
15.5
 11
-35.55
 21
14.075
  0
ENDBLK
  0
BLOCK
  2
*HAT_0003
 70
    65
 10
0.0
 20
0.0
  0
LINE
  8
その他部品等
 10
25.575
 20
-36.4
 11
25.875
 21
-36.1
  0
LINE
  8
その他部品等
 10
22.5
 20
-36.925
 11
25.875
 21
-33.55
  0
LINE
  8
その他部品等
 10
19.5
 20
-37.375
 11
23.475
 21
-33.4
  0
LINE
  8
その他部品等
 10
16.425
 20
-37.9
 11
20.4
 21
-33.925
  0
LINE
  8
その他部品等
 10
13.35
 20
-38.425
 11
17.325
 21
-34.45
  0
LINE
  8
その他部品等
 10
10.275
 20
-38.95
 11
14.325
 21
-34.975
  0
LINE
  8
その他部品等
 10
7.2
 20
-39.475
 11
11.25
 21
-35.5
  0
LINE
  8
その他部品等
 10
4.2
 20
-40.0
 11
8.175
 21
-36.025
  0
LINE
  8
その他部品等
 10
1.125
 20
-40.525
 11
5.1
 21
-36.55
  0
LINE
  8
その他部品等
 10
-1.95
 20
-41.05
 11
2.025
 21
-37.0
  0
LINE
  8
その他部品等
 10
-5.025
 20
-41.575
 11
-1.05
 21
-37.525
  0
LINE
  8
その他部品等
 10
-8.1
 20
-42.1
 11
-4.05
 21
-38.05
  0
LINE
  8
その他部品等
 10
-11.1
 20
-42.55
 11
-7.125
 21
-38.575
  0
LINE
  8
その他部品等
 10
-14.175
 20
-43.075
 11
-10.2
 21
-39.1
  0
LINE
  8
その他部品等
 10
-17.25
 20
-43.6
 11
-13.275
 21
-39.625
  0
LINE
  8
その他部品等
 10
-20.325
 20
-44.125
 11
-16.35
 21
-40.15
  0
LINE
  8
その他部品等
 10
-23.4
 20
-44.65
 11
-19.35
 21
-40.675
  0
LINE
  8
その他部品等
 10
-26.4
 20
-45.175
 11
-22.425
 21
-41.2
  0
LINE
  8
その他部品等
 10
-29.475
 20
-45.7
 11
-25.5
 21
-41.725
  0
LINE
  8
その他部品等
 10
-32.55
 20
-46.225
 11
-28.575
 21
-42.25
  0
LINE
  8
その他部品等
 10
-35.625
 20
-46.75
 11
-31.65
 21
-42.775
  0
LINE
  8
その他部品等
 10
-38.7
 20
-47.275
 11
-34.65
 21
-43.3
  0
LINE
  8
その他部品等
 10
-41.775
 20
-47.8
 11
-37.725
 21
-43.75
  0
LINE
  8
その他部品等
 10
-44.775
 20
-48.325
 11
-40.8
 21
-44.275
  0
LINE
  8
その他部品等
 10
-47.85
 20
-48.85
 11
-43.875
 21
-44.8
  0
LINE
  8
その他部品等
 10
-50.925
 20
-49.375
 11
-46.95
 21
-45.325
  0
LINE
  8
その他部品等
 10
-54.0
 20
-49.825
 11
-49.95
 21
-45.85
  0
LINE
  8
その他部品等
 10
-57.075
 20
-50.35
 11
-53.025
 21
-46.375
  0
LINE
  8
その他部品等
 10
-60.075
 20
-50.875
 11
-56.1
 21
-46.9
  0
LINE
  8
その他部品等
 10
-63.15
 20
-51.4
 11
-59.175
 21
-47.425
  0
LINE
  8
その他部品等
 10
-66.225
 20
-51.925
 11
-62.25
 21
-47.95
  0
LINE
  8
その他部品等
 10
-69.3
 20
-52.45
 11
-65.25
 21
-48.475
  0
LINE
  8
その他部品等
 10
-72.375
 20
-52.975
 11
-68.325
 21
-49.0
  0
LINE
  8
その他部品等
 10
-75.375
 20
-53.5
 11
-71.4
 21
-49.45
  0
LINE
  8
その他部品等
 10
-88.425
 20
-64.0
 11
-87.15
 21
-62.65
  0
LINE
  8
その他部品等
 10
-78.45
 20
-54.025
 11
-74.475
 21
-49.975
  0
LINE
  8
その他部品等
 10
-90.15
 20
-63.175
 11
-87.15
 21
-60.175
  0
LINE
  8
その他部品等
 10
-90.15
 20
-60.625
 11
-87.15
 21
-57.625
  0
LINE
  8
その他部品等
 10
-81.525
 20
-54.55
 11
-77.55
 21
-50.5
  0
LINE
  8
その他部品等
 10
-84.6
 20
-55.075
 11
-80.55
 21
-51.025
  0
LINE
  8
その他部品等
 10
-90.15
 20
-58.075
 11
-83.625
 21
-51.55
  0
LINE
  8
その他部品等
 10
-90.15
 20
-55.525
 11
-86.7
 21
-52.075
  0
LINE
  8
その他部品等
 10
-90.15
 20
-52.975
 11
-89.775
 21
-52.6
  0
LINE
  8
その他部品等
 10
-90.15
 20
-61.6
 11
-87.75
 21
-64.0
  0
LINE
  8
その他部品等
 10
-90.15
 20
-59.05
 11
-87.15
 21
-62.05
  0
LINE
  8
その他部品等
 10
-90.15
 20
-56.5
 11
-87.15
 21
-59.5
  0
LINE
  8
その他部品等
 10
-90.15
 20
-53.95
 11
-87.15
 21
-56.95
  0
LINE
  8
その他部品等
 10
-89.1
 20
-52.45
 11
-86.025
 21
-55.525
  0
LINE
  8
その他部品等
 10
-86.925
 20
-52.075
 11
-84.075
 21
-54.925
  0
LINE
  8
その他部品等
 10
-84.75
 20
-51.775
 11
-81.9
 21
-54.55
  0
LINE
  8
その他部品等
 10
-82.575
 20
-51.4
 11
-79.725
 21
-54.25
  0
LINE
  8
その他部品等
 10
-80.4
 20
-51.025
 11
-77.55
 21
-53.875
  0
LINE
  8
その他部品等
 10
-78.225
 20
-50.65
 11
-75.375
 21
-53.5
  0
LINE
  8
その他部品等
 10
-76.05
 20
-50.275
 11
-73.2
 21
-53.125
  0
LINE
  8
その他部品等
 10
-73.875
 20
-49.9
 11
-71.025
 21
-52.75
  0
LINE
  8
その他部品等
 10
-71.7
 20
-49.525
 11
-68.85
 21
-52.375
  0
LINE
  8
その他部品等
 10
-69.525
 20
-49.15
 11
-66.675
 21
-52.0
  0
LINE
  8
その他部品等
 10
-67.35
 20
-48.775
 11
-64.5
 21
-51.625
  0
LINE
  8
その他部品等
 10
-65.175
 20
-48.4
 11
-62.325
 21
-51.25
  0
LINE
  8
その他部品等
 10
-63.0
 20
-48.025
 11
-60.15
 21
-50.875
  0
LINE
  8
その他部品等
 10
-60.825
 20
-47.65
 11
-57.975
 21
-50.5
  0
LINE
  8
その他部品等
 10
-58.65
 20
-47.35
 11
-55.8
 21
-50.125
  0
LINE
  8
その他部品等
 10
-56.475
 20
-46.975
 11
-53.625
 21
-49.825
  0
LINE
  8
その他部品等
 10
-54.3
 20
-46.6
 11
-51.45
 21
-49.45
  0
LINE
  8
その他部品等
 10
-52.125
 20
-46.225
 11
-49.275
 21
-49.075
  0
LINE
  8
その他部品等
 10
-49.95
 20
-45.85
 11
-47.1
 21
-48.7
  0
LINE
  8
その他部品等
 10
-47.775
 20
-45.475
 11
-44.925
 21
-48.325
  0
LINE
  8
その他部品等
 10
-45.6
 20
-45.1
 11
-42.75
 21
-47.95
  0
LINE
  8
その他部品等
 10
-43.425
 20
-44.725
 11
-40.65
 21
-47.575
  0
LINE
  8
その他部品等
 10
-41.25
 20
-44.35
 11
-38.475
 21
-47.2
  0
LINE
  8
その他部品等
 10
-39.075
 20
-43.975
 11
-36.3
 21
-46.825
  0
LINE
  8
その他部品等
 10
-36.9
 20
-43.675
 11
-34.125
 21
-46.45
  0
LINE
  8
その他部品等
 10
-34.725
 20
-43.3
 11
-31.95
 21
-46.15
  0
LINE
  8
その他部品等
 10
-32.55
 20
-42.925
 11
-29.775
 21
-45.775
  0
LINE
  8
その他部品等
 10
-30.45
 20
-42.55
 11
-27.6
 21
-45.4
  0
LINE
  8
その他部品等
 10
-28.275
 20
-42.175
 11
-25.425
 21
-45.025
  0
LINE
  8
その他部品等
 10
-26.1
 20
-41.8
 11
-23.25
 21
-44.65
  0
LINE
  8
その他部品等
 10
-23.925
 20
-41.425
 11
-21.075
 21
-44.275
  0
LINE
  8
その他部品等
 10
-21.75
 20
-41.05
 11
-18.9
 21
-43.9
  0
LINE
  8
その他部品等
 10
-19.575
 20
-40.675
 11
-16.725
 21
-43.525
  0
LINE
  8
その他部品等
 10
-17.4
 20
-40.3
 11
-14.55
 21
-43.15
  0
LINE
  8
その他部品等
 10
-15.225
 20
-39.925
 11
-12.375
 21
-42.775
  0
LINE
  8
その他部品等
 10
-13.05
 20
-39.55
 11
-10.2
 21
-42.4
  0
LINE
  8
その他部品等
 10
-10.875
 20
-39.25
 11
-8.025
 21
-42.025
  0
LINE
  8
その他部品等
 10
-8.7
 20
-38.875
 11
-5.85
 21
-41.725
  0
LINE
  8
その他部品等
 10
-6.525
 20
-38.5
 11
-3.675
 21
-41.35
  0
LINE
  8
その他部品等
 10
-4.35
 20
-38.125
 11
-1.5
 21
-40.975
  0
LINE
  8
その他部品等
 10
-2.175
 20
-37.75
 11
0.675
 21
-40.6
  0
LINE
  8
その他部品等
 10
0.0
 20
-37.375
 11
2.85
 21
-40.225
  0
LINE
  8
その他部品等
 10
2.175
 20
-37.0
 11
5.025
 21
-39.85
  0
LINE
  8
その他部品等
 10
4.35
 20
-36.625
 11
7.2
 21
-39.475
  0
LINE
  8
その他部品等
 10
6.525
 20
-36.25
 11
9.375
 21
-39.1
  0
LINE
  8
その他部品等
 10
8.7
 20
-35.875
 11
11.55
 21
-38.725
  0
LINE
  8
その他部品等
 10
10.875
 20
-35.5
 11
13.725
 21
-38.35
  0
LINE
  8
その他部品等
 10
13.05
 20
-35.125
 11
15.9
 21
-37.975
  0
LINE
  8
その他部品等
 10
15.225
 20
-34.825
 11
18.075
 21
-37.675
  0
LINE
  8
その他部品等
 10
17.4
 20
-34.45
 11
20.25
 21
-37.3
  0
LINE
  8
その他部品等
 10
19.575
 20
-34.075
 11
22.425
 21
-36.925
  0
LINE
  8
その他部品等
 10
21.75
 20
-33.7
 11
24.6
 21
-36.55
  0
LINE
  8
その他部品等
 10
23.925
 20
-33.325
 11
25.875
 21
-35.275
  0
ENDBLK
  0
BLOCK
  2
*HAT_0004
 70
    65
 10
0.0
 20
0.0
  0
LINE
  8
その他部品等
 10
24.975
 20
-62.35
 11
25.875
 21
-61.525
  0
LINE
  8
その他部品等
 10
22.425
 20
-62.35
 11
25.875
 21
-58.975
  0
LINE
  8
その他部品等
 10
19.875
 20
-62.35
 11
25.875
 21
-56.425
  0
LINE
  8
その他部品等
 10
17.4
 20
-62.35
 11
25.875
 21
-53.875
  0
LINE
  8
その他部品等
 10
14.85
 20
-62.35
 11
25.875
 21
-51.325
  0
LINE
  8
その他部品等
 10
12.3
 20
-62.35
 11
25.875
 21
-48.775
  0
LINE
  8
その他部品等
 10
9.75
 20
-62.35
 11
25.875
 21
-46.225
  0
LINE
  8
その他部品等
 10
7.2
 20
-62.35
 11
25.875
 21
-43.75
  0
LINE
  8
その他部品等
 10
6.6
 20
-60.475
 11
25.875
 21
-41.2
  0
LINE
  8
その他部品等
 10
6.6
 20
-57.925
 11
25.875
 21
-38.65
  0
LINE
  8
その他部品等
 10
6.6
 20
-55.375
 11
23.625
 21
-38.35
  0
LINE
  8
その他部品等
 10
6.6
 20
-52.825
 11
20.55
 21
-38.875
  0
LINE
  8
その他部品等
 10
6.6
 20
-50.275
 11
17.55
 21
-39.325
  0
LINE
  8
その他部品等
 10
6.6
 20
-47.725
 11
14.475
 21
-39.85
  0
LINE
  8
その他部品等
 10
6.6
 20
-45.175
 11
11.4
 21
-40.375
  0
LINE
  8
その他部品等
 10
6.6
 20
-42.7
 11
8.325
 21
-40.9
  0
LINE
  8
その他部品等
 10
6.6
 20
-61.75
 11
7.2
 21
-62.35
  0
LINE
  8
その他部品等
 10
6.6
 20
-59.2
 11
9.75
 21
-62.35
  0
LINE
  8
その他部品等
 10
6.6
 20
-56.65
 11
12.3
 21
-62.35
  0
LINE
  8
その他部品等
 10
6.6
 20
-54.1
 11
14.85
 21
-62.35
  0
LINE
  8
その他部品等
 10
6.6
 20
-51.55
 11
17.4
 21
-62.35
  0
LINE
  8
その他部品等
 10
6.6
 20
-49.0
 11
19.95
 21
-62.35
  0
LINE
  8
その他部品等
 10
6.6
 20
-46.45
 11
22.5
 21
-62.35
  0
LINE
  8
その他部品等
 10
6.6
 20
-43.975
 11
24.975
 21
-62.35
  0
LINE
  8
その他部品等
 10
6.6
 20
-41.425
 11
25.875
 21
-60.7
  0
LINE
  8
その他部品等
 10
8.55
 20
-40.9
 11
25.875
 21
-58.15
  0
LINE
  8
その他部品等
 10
10.725
 20
-40.525
 11
25.875
 21
-55.6
  0
LINE
  8
その他部品等
 10
12.9
 20
-40.15
 11
25.875
 21
-53.05
  0
LINE
  8
その他部品等
 10
15.075
 20
-39.775
 11
25.875
 21
-50.5
  0
LINE
  8
その他部品等
 10
17.25
 20
-39.4
 11
25.875
 21
-47.95
  0
LINE
  8
その他部品等
 10
19.425
 20
-39.025
 11
25.875
 21
-45.4
  0
LINE
  8
その他部品等
 10
21.6
 20
-38.65
 11
25.875
 21
-42.85
  0
LINE
  8
その他部品等
 10
23.775
 20
-38.275
 11
25.875
 21
-40.3
  0
ENDBLK
  0
BLOCK
  2
*GRP_0001
 70
    65
 10
0.0
 20
0.0
  0
POLYLINE
  8
寸法
  6
BYBLOCK
 62
     0
 66
     1
  0
VERTEX
  8
寸法
 10
-23.02645
 20
-69.020463
  0
VERTEX
  8
寸法
 10
-25.624525
 20
-67.520463
  0
VERTEX
  8
寸法
 10
-24.124525
 20
-70.118538
  0
SEQEND
  0
POLYLINE
  8
寸法
  6
BYBLOCK
 62
     0
 66
     1
  0
VERTEX
  8
寸法
 10
-25.624525
 20
-67.520463
  0
VERTEX
  8
寸法
 10
-3.419117
 20
-89.72587
  0
VERTEX
  8
寸法
 10
-0.382752
 20
-89.72587
  0
SEQEND
  0
ENDBLK
  0
BLOCK
  2
*GRP_0002
 70
    65
 10
0.0
 20
0.0
  0
POLYLINE
  8
寸法
  6
BYBLOCK
 62
     0
 66
     1
  0
VERTEX
  8
寸法
 10
-28.673377
 20
-38.228997
  0
VERTEX
  8
寸法
 10
-26.075302
 20
-39.728997
  0
VERTEX
  8
寸法
 10
-27.575302
 20
-37.13092
  0
SEQEND
  0
POLYLINE
  8
寸法
  6
BYBLOCK
 62
     0
 66
     1
  0
VERTEX
  8
寸法
 10
-26.075302
 20
-39.728997
  0
VERTEX
  8
寸法
 10
-36.539433
 20
-29.264865
  0
VERTEX
  8
寸法
 10
-40.80065
 20
-29.264865
  0
SEQEND
  0
ENDBLK
  0
BLOCK
  2
*GRP_0003
 70
    65
 10
0.0
 20
0.0
  0
POLYLINE
  8
寸法
  6
BYBLOCK
 62
     0
 66
     1
  0
VERTEX
  8
寸法
 10
-39.26403
 20
17.55781
  0
VERTEX
  8
寸法
 10
-36.665955
 20
16.05781
  0
VERTEX
  8
寸法
 10
-38.165955
 20
18.655885
  0
SEQEND
  0
POLYLINE
  8
寸法
  6
BYBLOCK
 62
     0
 66
     1
  0
VERTEX
  8
寸法
 10
-36.665955
 20
16.05781
  0
VERTEX
  8
寸法
 10
-48.82192
 20
28.213775
  0
VERTEX
  8
寸法
 10
-57.415197
 20
28.213775
  0
SEQEND
  0
ENDBLK
  0
BLOCK
  2
*DIM_0004
 70
    65
 10
0.0
 20
0.0
  0
LINE
  8
寸法
  6
BYBLOCK
 62
     0
 10
-92.104742
 20
-49.920555
 11
-92.104742
 21
81.03789
  0
LINE
  8
寸法
  6
BYBLOCK
 62
     0
 10
27.89507
 20
-24.920543
 11
27.89507
 21
81.03789
  0
LINE
  8
寸法
  6
BYBLOCK
 62
     0
 10
-92.104742
 20
81.03789
 11
27.89507
 21
81.03789
  0
POINT
  8
寸法
 62
     0
 10
-92.104742
 20
81.03789
  0
POINT
  8
寸法
 62
     0
 10
27.89507
 20
81.03789
  0
TEXT
  7
TextStyle03
  8
寸法
  6
CONTINUOUS
 62
     0
 10
-35.375
 20
81.375
  1
120
 40
4.0
 72
     5
 11
-28.875
 21
81.375
  0
ENDBLK
  0
BLOCK
  2
*DIM_0005
 70
    65
 10
0.0
 20
0.0
  0
LINE
  8
寸法
  6
BYBLOCK
 62
     0
 10
-92.104742
 20
73.176353
 11
-92.104742
 21
72.51068
  0
LINE
  8
寸法
  6
BYBLOCK
 62
     0
 10
-2.1034
 20
53.03302
 11
-2.1034
 21
72.51068
  0
LINE
  8
寸法
  6
BYBLOCK
 62
     0
 10
-92.104742
 20
72.51068
 11
-2.1034
 21
72.51068
  0
POINT
  8
寸法
 62
     0
 10
-92.104742
 20
72.51068
  0
POINT
  8
寸法
 62
     0
 10
-2.1034
 20
72.51068
  0
TEXT
  7
TextStyle03
  8
寸法
  6
CONTINUOUS
 62
     0
 10
-49.25
 20
72.875
  1
90
 40
4.0
 72
     5
 11
-45.0
 21
72.875
  0
ENDBLK
  0
BLOCK
  2
*DIM_0006
 70
    65
 10
0.0
 20
0.0
  0
LINE
  8
寸法
  6
BYBLOCK
 62
     0
 10
-2.1034
 20
65.943143
 11
-2.1034
 21
65.110305
  0
LINE
  8
寸法
  6
BYBLOCK
 62
     0
 10
-52.103395
 20
22.637838
 11
-52.103395
 21
65.110305
  0
LINE
  8
寸法
  6
BYBLOCK
 62
     0
 10
-2.1034
 20
65.110305
 11
-52.103395
 21
65.110305
  0
POINT
  8
寸法
 62
     0
 10
-2.1034
 20
65.110305
  0
POINT
  8
寸法
 62
     0
 10
-52.103395
 20
65.110305
  0
TEXT
  7
TextStyle03
  8
寸法
  6
CONTINUOUS
 62
     0
 10
-29.25
 20
65.475
  1
50
 40
4.0
 72
     5
 11
-25.0
 21
65.475
  0
ENDBLK
  0
BLOCK
  2
*DIM_0007
 70
    65
 10
0.0
 20
0.0
  0
LINE
  8
寸法
  6
BYBLOCK
 62
     0
 10
-92.104742
 20
22.637838
 11
-92.104742
 21
65.110305
  0
LINE
  8
寸法
  6
BYBLOCK
 62
     0
 10
-52.103395
 20
65.110305
 11
-92.104742
 21
65.110305
  0
POINT
  8
寸法
 62
     0
 10
-92.104742
 20
65.110305
  0
TEXT
  7
TextStyle03
  8
寸法
  6
CONTINUOUS
 62
     0
 10
-74.25
 20
65.475
  1
40
 40
4.0
 72
     5
 11
-70.0
 21
65.475
  0
ENDBLK
  0
BLOCK
  2
*DIM_0008
 70
    65
 10
0.0
 20
0.0
  0
LINE
  8
寸法
  6
BYBLOCK
 62
     0
 10
-2.1034
 20
65.110305
 11
27.89507
 21
65.110305
  0
POINT
  8
寸法
 62
     0
 10
-2.1034
 20
65.110305
  0
POINT
  8
寸法
 62
     0
 10
27.89507
 20
65.110305
  0
TEXT
  7
TextStyle03
  8
寸法
  6
CONTINUOUS
 62
     0
 10
10.75
 20
65.475
  1
30
 40
4.0
 72
     5
 11
15.0
 21
65.475
  0
ENDBLK
  0
BLOCK
  2
*GRP_0009
 70
    65
 10
0.0
 20
0.0
  0
LINE
  8
別途部材
  6
CONTINUOUS
 62
    96
 10
-72.10507
 20
-67.520463
 11
-72.10507
 21
-65.920488
  0
LINE
  8
別途部材
  6
CONTINUOUS
 62
    96
 10
-72.10507
 20
-62.320285
 11
-72.10507
 21
-63.920522
  0
LINE
  8
別途部材
  6
CONTINUOUS
 62
    96
 10
-62.767682
 20
-63.920522
 11
-72.10507
 21
-63.920522
  0
LINE
  8
別途部材
  6
CONTINUOUS
 62
    96
 10
-72.10507
 20
-62.320285
 11
-62.104878
 21
-62.320285
  0
LINE
  8
別途部材
  6
CONTINUOUS
 62
    96
 10
-62.104878
 20
-62.320285
 11
-56.904962
 21
-67.520463
  0
LINE
  8
別途部材
  6
CONTINUOUS
 62
    96
 10
-60.767717
 20
-65.920488
 11
-62.767682
 21
-63.920522
  0
LINE
  8
別途部材
  6
CONTINUOUS
 62
    96
 10
12.894785
 20
-67.520463
 11
12.894785
 21
-65.920488
  0
LINE
  8
別途部材
  6
CONTINUOUS
 62
    96
 10
12.894785
 20
-62.320285
 11
12.894785
 21
-63.920522
  0
LINE
  8
別途部材
  6
CONTINUOUS
 62
    96
 10
3.557405
 20
-63.920522
 11
12.894785
 21
-63.920522
  0
LINE
  8
別途部材
  6
CONTINUOUS
 62
    96
 10
12.894785
 20
-62.320285
 11
2.894592
 21
-62.320285
  0
LINE
  8
別途部材
  6
CONTINUOUS
 62
    96
 10
2.894592
 20
-62.320285
 11
-2.305322
 21
-67.520463
  0
LINE
  8
別途部材
  6
CONTINUOUS
 62
    96
 10
1.557432
 20
-65.920488
 11
3.557405
 21
-63.920522
  0
LINE
  8
別途部材
  6
CONTINUOUS
 62
    96
 10
-72.10507
 20
-67.520463
 11
12.894785
 21
-67.520463
  0
LINE
  8
別途部材
  6
CONTINUOUS
 62
    96
 10
8.294683
 20
-65.920488
 11
-67.504968
 21
-65.920488
  0
LINE
  8
別途部材
  6
CONTINUOUS
 62
    96
 10
-52.448515
 20
-80.920338
 11
-32.44849
 21
-80.920338
  0
LINE
  8
別途部材
  6
CONTINUOUS
 62
    96
 10
-32.44849
 20
-80.920338
 11
-32.44849
 21
-67.520463
  0
LINE
  8
別途部材
  6
CONTINUOUS
 62
    96
 10
-52.448515
 20
-80.920338
 11
-52.448515
 21
-67.520463
  0
ENDBLK
  0
BLOCK
  2
*GRP_0010
 70
    65
 10
0.0
 20
0.0
  0
ARC
  8
ゴム等
  6
CONTINUOUS
 62
   127
 10
-8.58314
 20
15.579546
 40
1.5
 50
270.0
 51
360.0
  0
LINE
  8
ゴム等
  6
CONTINUOUS
 62
   127
 10
-7.083137
 20
15.579545
 11
-7.083137
 21
15.579545
  0
ARC
  8
ゴム等
  6
CONTINUOUS
 62
   127
 10
-8.58314
 20
15.579546
 40
1.5
 50
0.0
 51
90.0
  0
LINE
  8
ゴム等
  6
CONTINUOUS
 62
   127
 10
-35.583137
 20
14.079545
 11
-8.583137
 21
14.079545
  0
ARC
  8
ゴム等
  6
CONTINUOUS
 62
   127
 10
-35.58314
 20
15.579546
 40
1.5
 50
180.0
 51
270.0
  0
LINE
  8
ゴム等
  6
CONTINUOUS
 62
   127
 10
-37.083137
 20
15.579545
 11
-37.083137
 21
15.579545
  0
LINE
  8
ゴム等
  6
CONTINUOUS
 62
   127
 10
-35.583137
 20
17.079545
 11
-8.583137
 21
17.079545
  0
ARC
  8
ゴム等
  6
CONTINUOUS
 62
   127
 10
-35.58314
 20
15.579546
 40
1.5
 50
90.0
 51
180.0
  0
ENDBLK
  0
BLOCK
  2
*GRP_0011
 70
    65
 10
0.0
 20
0.0
  0
LINE
  8
ボルト／ビス
  6
CONTINUOUS
 62
    64
 10
-85.105105
 20
-64.120615
 11
-81.105108
 21
-64.120615
  0
LINE
  8
ボルト／ビス
  6
CONTINUOUS
 62
    64
 10
-86.105102
 20
-65.920615
 11
-85.105105
 21
-64.120615
  0
LINE
  8
ボルト／ビス
  6
CONTINUOUS
 62
    64
 10
-86.105102
 20
-65.920615
 11
-80.105102
 21
-65.920615
  0
LINE
  8
ボルト／ビス
  6
CONTINUOUS
 62
    64
 10
-80.105102
 20
-65.920615
 11
-81.105108
 21
-64.120615
  0
LINE
  8
ボルト／ビス
  6
CONTINUOUS
 62
    64
 10
-83.105102
 20
-67.404145
 11
-83.105102
 21
-57.04159
  0
LINE
  8
ボルト／ビス
  6
CONTINUOUS
 62
    64
 10
-85.105105
 20
-58.420615
 11
-84.605102
 21
-57.920612
  0
LINE
  8
ボルト／ビス
  6
CONTINUOUS
 62
    64
 10
-81.105108
 20
-58.420615
 11
-81.605102
 21
-57.920612
  0
LINE
  8
ボルト／ビス
  6
CONTINUOUS
 62
    64
 10
-84.605102
 20
-57.920612
 11
-81.605102
 21
-57.920612
  0
LINE
  8
ボルト／ビス
  6
CONTINUOUS
 62
    64
 10
-85.105105
 20
-58.420615
 11
-81.105108
 21
-58.420615
  0
LINE
  8
ボルト／ビス
  6
CONTINUOUS
 62
    64
 10
-84.605102
 20
-64.120615
 11
-84.605102
 21
-57.920612
  0
LINE
  8
ボルト／ビス
  6
CONTINUOUS
 62
    64
 10
-81.605102
 20
-64.120615
 11
-81.605102
 21
-57.920612
  0
LINE
  8
ボルト／ビス
  6
CONTINUOUS
 62
    64
 10
-81.105108
 20
-64.120615
 11
-81.105108
 21
-58.420615
  0
LINE
  8
ボルト／ビス
  6
CONTINUOUS
 62
    64
 10
-85.105105
 20
-64.120615
 11
-85.105105
 21
-58.420615
  0
ENDBLK
  0
BLOCK
  2
*GRP_0012
 70
    65
 10
0.0
 20
0.0
  0
LINE
  8
ボルト／ビス
  6
CONTINUOUS
 62
    64
 10
15.527503
 20
-64.120615
 11
19.5275
 21
-64.120615
  0
LINE
  8
ボルト／ビス
  6
CONTINUOUS
 62
    64
 10
14.527498
 20
-65.920615
 11
15.527503
 21
-64.120615
  0
LINE
  8
ボルト／ビス
  6
CONTINUOUS
 62
    64
 10
14.527498
 20
-65.920615
 11
20.527498
 21
-65.920615
  0
LINE
  8
ボルト／ビス
  6
CONTINUOUS
 62
    64
 10
20.527498
 20
-65.920615
 11
19.5275
 21
-64.120615
  0
LINE
  8
ボルト／ビス
  6
CONTINUOUS
 62
    64
 10
17.527498
 20
-67.404145
 11
17.527498
 21
-57.04159
  0
LINE
  8
ボルト／ビス
  6
CONTINUOUS
 62
    64
 10
15.527503
 20
-58.420615
 11
16.027498
 21
-57.920612
  0
LINE
  8
ボルト／ビス
  6
CONTINUOUS
 62
    64
 10
19.5275
 20
-58.420615
 11
19.027498
 21
-57.920612
  0
LINE
  8
ボルト／ビス
  6
CONTINUOUS
 62
    64
 10
16.027498
 20
-57.920612
 11
19.027498
 21
-57.920612
  0
LINE
  8
ボルト／ビス
  6
CONTINUOUS
 62
    64
 10
15.527503
 20
-58.420615
 11
19.5275
 21
-58.420615
  0
LINE
  8
ボルト／ビス
  6
CONTINUOUS
 62
    64
 10
16.027498
 20
-64.120615
 11
16.027498
 21
-57.920612
  0
LINE
  8
ボルト／ビス
  6
CONTINUOUS
 62
    64
 10
19.027498
 20
-64.120615
 11
19.027498
 21
-57.920612
  0
LINE
  8
ボルト／ビス
  6
CONTINUOUS
 62
    64
 10
19.5275
 20
-64.120615
 11
19.5275
 21
-58.420615
  0
LINE
  8
ボルト／ビス
  6
CONTINUOUS
 62
    64
 10
15.527503
 20
-64.120615
 11
15.527503
 21
-58.420615
  0
ENDBLK
  0
BLOCK
  2
*GRP_0013
 70
    65
 10
0.0
 20
0.0
  0
POLYLINE
  8
寸法
  6
BYBLOCK
 62
     0
 66
     1
  0
VERTEX
  8
寸法
 10
-53.807517
 20
-47.836595
  0
VERTEX
  8
寸法
 10
-51.20944
 20
-49.336595
  0
VERTEX
  8
寸法
 10
-52.70944
 20
-46.738518
  0
SEQEND
  0
POLYLINE
  8
寸法
  6
BYBLOCK
 62
     0
 66
     1
  0
VERTEX
  8
寸法
 10
-51.20944
 20
-49.336595
  0
VERTEX
  8
寸法
 10
-62.189245
 20
-38.35679
  0
VERTEX
  8
寸法
 10
-99.881312
 20
-38.35679
  0
SEQEND
  0
ENDBLK
  0
BLOCK
  2
*DIM_0014
 70
    65
 10
0.0
 20
0.0
  0
LINE
  8
寸法
  6
BYBLOCK
 62
     0
 10
-49.30475
 20
16.079413
 11
-149.92464
 21
16.079413
  0
LINE
  8
寸法
  6
BYBLOCK
 62
     0
 10
-93.104742
 20
-65.920488
 11
-149.92464
 21
-65.920488
  0
LINE
  8
寸法
  6
BYBLOCK
 62
     0
 10
-149.92464
 20
16.079413
 11
-149.92464
 21
-65.920488
  0
POINT
  8
寸法
 62
     0
 10
-149.92464
 20
16.079413
  0
POINT
  8
寸法
 62
     0
 10
-149.92464
 20
-65.920488
  0
TEXT
  7
TextStyle03
  8
寸法
  6
CONTINUOUS
 62
     0
 10
-150.3
 20
-26.51875
  1
82
 40
3.0
 50
90.0
 72
     5
 11
-150.3
 21
-23.33125
  0
ENDBLK
  0
BLOCK
  2
*DIM_0015
 70
    65
 10
0.0
 20
0.0
  0
LINE
  8
寸法
  6
BYBLOCK
 62
     0
 10
-142.723343
 20
-65.920488
 11
-143.094668
 21
-65.920488
  0
LINE
  8
寸法
  6
BYBLOCK
 62
     0
 10
-93.104742
 20
-50.920555
 11
-143.094668
 21
-50.920555
  0
LINE
  8
寸法
  6
BYBLOCK
 62
     0
 10
-143.094668
 20
-65.920488
 11
-143.094668
 21
-50.920555
  0
POINT
  8
寸法
 62
     0
 10
-143.094668
 20
-65.920488
  0
POINT
  8
寸法
 62
     0
 10
-143.094668
 20
-50.920555
  0
TEXT
  7
TextStyle03
  8
寸法
  6
CONTINUOUS
 62
     0
 10
-143.475
 20
-60.01875
  1
15
 40
3.0
 50
90.0
 72
     5
 11
-143.475
 21
-56.83125
  0
ENDBLK
  0
BLOCK
  2
*DIM_0016
 70
    65
 10
0.0
 20
0.0
  0
LINE
  8
寸法
  6
BYBLOCK
 62
     0
 10
-92.104742
 20
-66.920488
 11
-92.104742
 21
-97.355403
  0
LINE
  8
寸法
  6
BYBLOCK
 62
     0
 10
-77.10499
 20
-76.92059
 11
-77.10499
 21
-97.355403
  0
LINE
  8
寸法
  6
BYBLOCK
 62
     0
 10
-92.104742
 20
-97.355403
 11
-77.10499
 21
-97.355403
  0
POINT
  8
寸法
 62
     0
 10
-92.104742
 20
-97.355403
  0
POINT
  8
寸法
 62
     0
 10
-77.10499
 20
-97.355403
  0
TEXT
  7
TextStyle03
  8
寸法
  6
CONTINUOUS
 62
     0
 10
-86.21875
 20
-97.0
  1
15
 40
3.0
 72
     5
 11
-83.03125
 21
-97.0
  0
ENDBLK
  0
BLOCK
  2
*DIM_0017
 70
    65
 10
0.0
 20
0.0
  0
LINE
  8
寸法
  6
BYBLOCK
 62
     0
 10
-2.1034
 20
57.00872
 11
-2.1034
 21
57.43314
  0
LINE
  8
寸法
  6
BYBLOCK
 62
     0
 10
-22.1034
 20
33.929805
 11
-22.1034
 21
57.43314
  0
LINE
  8
寸法
  6
BYBLOCK
 62
     0
 10
-2.1034
 20
57.43314
 11
-22.1034
 21
57.43314
  0
POINT
  8
寸法
 62
     0
 10
-2.1034
 20
57.43314
  0
POINT
  8
寸法
 62
     0
 10
-22.1034
 20
57.43314
  0
TEXT
  7
TextStyle03
  8
寸法
  6
CONTINUOUS
 62
     0
 10
-13.71875
 20
57.8
  1
20
 40
3.0
 72
     5
 11
-10.53125
 21
57.8
  0
ENDBLK
  0
BLOCK
  2
*DIM_0018
 70
    65
 10
0.0
 20
0.0
  0
LINE
  8
寸法
  6
BYBLOCK
 62
     0
 10
-52.103395
 20
33.929805
 11
-52.103395
 21
57.43314
  0
LINE
  8
寸法
  6
BYBLOCK
 62
     0
 10
-22.1034
 20
57.43314
 11
-52.103395
 21
57.43314
  0
POINT
  8
寸法
 62
     0
 10
-52.103395
 20
57.43314
  0
TEXT
  7
TextStyle03
  8
寸法
  6
CONTINUOUS
 62
     0
 10
-38.71875
 20
57.8
  1
30
 40
3.0
 72
     5
 11
-35.53125
 21
57.8
  0
ENDBLK
  0
BLOCK
  2
*GRP_0019
 70
    65
 10
0.0
 20
0.0
  0
LINE
  8
型材断面
  6
CONTINUOUS
 62
    47
 10
25.895097
 20
-63.920612
 11
25.895097
 21
-32.949017
  0
LINE
  8
型材断面
  6
CONTINUOUS
 62
    47
 10
-90.105108
 20
-52.610102
 11
25.895097
 21
-32.949017
  0
LINE
  8
型材断面
  6
CONTINUOUS
 62
    47
 10
-90.105108
 20
-52.610102
 11
-90.105108
 21
-63.920612
  0
LINE
  8
型材断面
  6
CONTINUOUS
 62
    47
 10
-77.10499
 20
-65.920488
 11
-92.104742
 21
-65.920488
  0
LINE
  8
型材断面
  6
CONTINUOUS
 62
    47
 10
8.295207
 20
-63.920612
 11
25.895097
 21
-63.920612
  0
LINE
  8
型材断面
  6
CONTINUOUS
 62
    47
 10
8.295207
 20
-65.920488
 11
27.89507
 21
-65.920488
  0
LINE
  8
型材断面
  6
CONTINUOUS
 62
    47
 10
7.895038
 20
-65.520497
 11
7.895038
 21
-64.32043
  0
LINE
  8
型材断面
  6
CONTINUOUS
 62
    47
 10
-67.504795
 20
-63.920612
 11
-90.105108
 21
-63.920612
  0
LINE
  8
型材断面
  6
CONTINUOUS
 62
    47
 10
-67.504795
 20
-65.920488
 11
-75.104845
 21
-65.920488
  0
LINE
  8
型材断面
  6
CONTINUOUS
 62
    47
 10
-67.104978
 20
-65.520497
 11
-67.104978
 21
-64.32043
  0
LINE
  8
型材断面
  6
CONTINUOUS
 62
    47
 10
-92.104742
 20
-65.920488
 11
-92.104742
 21
-50.920555
  0
LINE
  8
型材断面
  6
CONTINUOUS
 62
    47
 10
-92.104742
 20
-50.920555
 11
-4.104798
 21
-36.00514
  0
LINE
  8
型材断面
  6
CONTINUOUS
 62
    47
 10
-2.104975
 20
-35.66614
 11
25.895097
 21
-30.920515
  0
LINE
  8
型材断面
  6
CONTINUOUS
 62
    47
 10
-2.104975
 20
-27.920583
 11
2.39483
 21
-27.920583
  0
LINE
  8
型材断面
  6
CONTINUOUS
 62
    47
 10
2.39483
 20
-22.920572
 11
1.195025
 21
-22.920572
  0
LINE
  8
型材断面
  6
CONTINUOUS
 62
    47
 10
1.195025
 20
-22.920572
 11
1.195025
 21
-25.920543
  0
LINE
  8
型材断面
  6
CONTINUOUS
 62
    47
 10
1.195025
 20
-25.920543
 11
-2.104975
 21
-25.920543
  0
LINE
  8
型材断面
  6
CONTINUOUS
 62
    47
 10
-2.104975
 20
-27.920583
 11
-2.104975
 21
-35.66614
  0
LINE
  8
型材断面
  6
CONTINUOUS
 62
    47
 10
2.39483
 20
-22.920572
 11
2.39483
 21
-27.920583
  0
ARC
  8
型材断面
  6
CONTINUOUS
 62
    47
 10
8.295207
 20
-64.320433
 40
0.4
 50
90.001373
 51
180.002747
  0
ARC
  8
型材断面
  6
CONTINUOUS
 62
    47
 10
8.295207
 20
-65.520501
 40
0.4
 50
180.002747
 51
270.00412
  0
ARC
  8
型材断面
  6
CONTINUOUS
 62
    47
 10
-67.504794
 20
-64.320433
 40
0.4
 50
0.0
 51
90.001373
  0
ARC
  8
型材断面
  6
CONTINUOUS
 62
    47
 10
-67.504794
 20
-65.520501
 40
0.4
 50
270.00412
 51
360.0
  0
LINE
  8
型材断面
  6
CONTINUOUS
 62
    47
 10
1.195025
 20
16.079203
 11
2.39483
 21
16.079203
  0
LINE
  8
型材断面
  6
CONTINUOUS
 62
    47
 10
1.195025
 20
14.079162
 11
-2.104975
 21
14.079162
  0
LINE
  8
型材断面
  6
CONTINUOUS
 62
    47
 10
2.39483
 20
16.079203
 11
-4.104798
 21
16.079203
  0
LINE
  8
型材断面
  6
CONTINUOUS
 62
    47
 10
-4.104798
 20
14.079545
 11
-4.104798
 21
16.079203
  0
LINE
  8
型材断面
  6
CONTINUOUS
 62
    47
 10
-2.104975
 20
14.079545
 11
1.195025
 21
14.079545
  0
LINE
  8
型材断面
  6
CONTINUOUS
 62
    47
 10
-2.104975
 20
-6.920575
 11
20.895005
 21
-6.920575
  0
LINE
  8
型材断面
  6
CONTINUOUS
 62
    47
 10
20.895005
 20
-6.920575
 11
20.895005
 21
-2.920622
  0
LINE
  8
型材断面
  6
CONTINUOUS
 62
    47
 10
20.895005
 20
-2.920622
 11
19.6952
 21
-2.920622
  0
LINE
  8
型材断面
  6
CONTINUOUS
 62
    47
 10
19.6952
 20
-4.920482
 11
19.6952
 21
-2.920622
  0
LINE
  8
型材断面
  6
CONTINUOUS
 62
    47
 10
4.8947
 20
-1.120683
 11
8.89481
 21
-1.120683
  0
LINE
  8
型材断面
  6
CONTINUOUS
 62
    47
 10
8.89481
 20
-1.120683
 11
8.89481
 21
-4.920693
  0
LINE
  8
型材断面
  6
CONTINUOUS
 62
    47
 10
7.394923
 20
-4.920693
 11
7.394923
 21
-2.620683
  0
LINE
  8
型材断面
  6
CONTINUOUS
 62
    47
 10
7.394923
 20
-2.620683
 11
4.8947
 21
-2.620683
  0
LINE
  8
型材断面
  6
CONTINUOUS
 62
    47
 10
4.8947
 20
-2.620683
 11
4.8947
 21
-1.120683
  0
LINE
  8
型材断面
  6
CONTINUOUS
 62
    47
 10
19.6952
 20
-4.920482
 11
8.89481
 21
-4.920482
  0
LINE
  8
型材断面
  6
CONTINUOUS
 62
    47
 10
7.394923
 20
-4.920693
 11
-2.104975
 21
-4.920693
  0
LINE
  8
型材断面
  6
CONTINUOUS
 62
    47
 10
-2.104975
 20
-25.920543
 11
-2.104975
 21
-6.920575
  0
LINE
  8
型材断面
  6
CONTINUOUS
 62
    47
 10
-2.104975
 20
14.079545
 11
-2.104975
 21
-4.920693
  0
LINE
  8
型材断面
  6
CONTINUOUS
 10
2.39483
 20
11.079207
 11
1.195025
 21
11.079207
  0
LINE
  8
型材断面
  6
CONTINUOUS
 62
    47
 10
1.195025
 20
14.079162
 11
1.195025
 21
11.079207
  0
LINE
  8
型材断面
  6
CONTINUOUS
 62
    47
 10
-6.704897
 20
7.77944
 11
-4.104798
 21
7.77944
  0
LINE
  8
型材断面
  6
CONTINUOUS
 62
    47
 10
-6.704897
 20
6.579508
 11
-4.104798
 21
6.579508
  0
LINE
  8
型材断面
  6
CONTINUOUS
 62
    47
 10
-7.104715
 20
6.979505
 11
-7.104715
 21
7.379495
  0
ARC
  8
型材断面
  6
CONTINUOUS
 62
    47
 10
-6.7049
 20
7.379493
 40
0.4
 50
90.001373
 51
180.002747
  0
ARC
  8
型材断面
  6
CONTINUOUS
 62
    47
 10
-6.7049
 20
6.9795
 40
0.4
 50
180.002747
 51
270.00412
  0
LINE
  8
型材断面
  6
CONTINUOUS
 62
    47
 10
-33.703285
 20
6.579508
 11
-38.303208
 21
6.579508
  0
LINE
  8
型材断面
  6
CONTINUOUS
 62
    47
 10
-33.703285
 20
7.77944
 11
-36.303453
 21
7.77944
  0
LINE
  8
型材断面
  6
CONTINUOUS
 62
    47
 10
-33.303467
 20
7.379495
 11
-33.303467
 21
6.979505
  0
ARC
  8
型材断面
  6
CONTINUOUS
 62
    47
 10
-33.703285
 20
6.9795
 40
0.4
 50
270.00412
 51
360.0
  0
ARC
  8
型材断面
  6
CONTINUOUS
 62
    47
 10
-33.703285
 20
7.379493
 40
0.4
 50
0.0
 51
90.001373
  0
LINE
  8
型材断面
  6
CONTINUOUS
 62
    47
 10
-4.104798
 20
-36.00514
 11
-4.104798
 21
6.579508
  0
LINE
  8
型材断面
  6
CONTINUOUS
 10
-4.104798
 20
11.079545
 11
-36.303453
 21
11.079545
  0
LINE
  8
型材断面
  6
CONTINUOUS
 62
    47
 10
-36.303453
 20
7.77944
 11
-36.303453
 21
11.079545
  0
LINE
  8
型材断面
  6
CONTINUOUS
 62
    47
 10
-4.104798
 20
7.77944
 11
-4.104798
 21
11.079545
  0
LINE
  8
型材断面
  6
CONTINUOUS
 10
-22.103402
 20
13.779545
 11
-21.803402
 21
14.079545
  0
LINE
  8
型材断面
  6
CONTINUOUS
 62
    47
 10
-4.104798
 20
14.079545
 11
-21.803402
 21
14.079545
  0
LINE
  8
型材断面
  6
CONTINUOUS
 10
-22.103402
 20
13.779545
 11
-22.403402
 21
14.079545
  0
LINE
  8
型材断面
  6
CONTINUOUS
 62
    47
 10
-22.403402
 20
14.079545
 11
-38.303208
 21
14.079545
  0
LINE
  8
型材断面
  6
CONTINUOUS
 10
-38.303208
 20
6.579508
 11
-38.303208
 21
14.079545
  0
LINE
  8
型材断面
  6
CONTINUOUS
 62
    47
 10
-75.104845
 20
-65.920488
 11
-75.104845
 21
-80.920488
  0
LINE
  8
型材断面
  6
CONTINUOUS
 10
-77.105027
 20
-80.920488
 11
-75.104845
 21
-80.920488
  0
LINE
  8
型材断面
  6
CONTINUOUS
 10
-76.805027
 20
-73.420488
 11
-77.105027
 21
-73.120488
  0
LINE
  8
型材断面
  6
CONTINUOUS
 10
-76.805027
 20
-73.420488
 11
-77.105027
 21
-73.720488
  0
LINE
  8
型材断面
  6
CONTINUOUS
 62
    47
 10
-77.10499
 20
-65.920488
 11
-77.10499
 21
-73.120525
  0
LINE
  8
型材断面
  6
CONTINUOUS
 62
    47
 10
-77.10499
 20
-73.72045
 11
-77.10499
 21
-80.920488
  0
LINE
  8
型材断面
  6
CONTINUOUS
 10
25.895097
 20
-21.920515
 11
27.89507
 21
-21.920515
  0
LINE
  8
型材断面
  6
CONTINUOUS
 62
    47
 10
25.895097
 20
-30.920515
 11
25.895097
 21
-21.920515
  0
LINE
  8
型材断面
  6
CONTINUOUS
 62
    47
 10
27.89507
 20
-65.920488
 11
27.89507
 21
-21.920515
  0
LINE
  8
型材断面
  6
CONTINUOUS
 10
2.39483
 20
16.079203
 11
2.39483
 21
11.079207
  0
CIRCLE
  8
LAYER010
  6
CONTINUOUS
 62
     7
 10
-92.104742
 20
-50.920555
 40
0.33333
  0
ENDBLK
  0
BLOCK
  2
*GRP_0020
 70
    65
 10
0.0
 20
0.0
  0
LINE
  8
ゴム等
  6
CONTINUOUS
 10
9.695203
 20
0.07952
 11
19.6952
 21
0.07952
  0
LINE
  8
ゴム等
  6
CONTINUOUS
 10
19.6952
 20
0.07952
 11
19.6952
 21
-4.920482
  0
LINE
  8
ゴム等
  6
CONTINUOUS
 10
19.6952
 20
-4.920482
 11
9.695203
 21
-4.920482
  0
LINE
  8
ゴム等
  6
CONTINUOUS
 10
9.695203
 20
0.07952
 11
9.695203
 21
-4.920482
  0
INSERT
  2
*HAT_0001
  8
ゴム等
 10
0.0
 20
0.0
  0
ENDBLK
  0
BLOCK
  2
*GRP_0021
 70
    65
 10
0.0
 20
0.0
  0
POLYLINE
  8
寸法
  6
BYBLOCK
 62
     0
 66
     1
  0
VERTEX
  8
寸法
 10
16.617022
 20
1.707738
  0
VERTEX
  8
寸法
 10
15.117022
 20
-0.890337
  0
VERTEX
  8
寸法
 10
17.715098
 20
0.609663
  0
SEQEND
  0
POLYLINE
  8
寸法
  6
BYBLOCK
 62
     0
 66
     1
  0
VERTEX
  8
寸法
 10
15.117022
 20
-0.890337
  0
VERTEX
  8
寸法
 10
27.292137
 20
11.284778
  0
VERTEX
  8
寸法
 10
32.0741
 20
11.284778
  0
SEQEND
  0
ENDBLK
  0
BLOCK
  2
*DIM_0022
 70
    65
 10
0.0
 20
0.0
  0
LINE
  8
寸法
  6
BYBLOCK
 62
     0
 10
28.89507
 20
-65.920488
 11
65.802633
 21
-65.920488
  0
LINE
  8
寸法
  6
BYBLOCK
 62
     0
 10
28.89507
 20
-21.920515
 11
65.802633
 21
-21.920515
  0
LINE
  8
寸法
  6
BYBLOCK
 62
     0
 10
65.802633
 20
-65.920488
 11
65.802633
 21
-21.920515
  0
POINT
  8
寸法
 62
     0
 10
65.802633
 20
-65.920488
  0
POINT
  8
寸法
 62
     0
 10
65.802633
 20
-21.920515
  0
TEXT
  7
TextStyle03
  8
寸法
  6
CONTINUOUS
 62
     0
 10
65.425
 20
-45.51875
  1
44
 40
3.0
 50
90.0
 72
     5
 11
65.425
 21
-42.33125
  0
ENDBLK
  0
BLOCK
  2
*DIM_0023
 70
    65
 10
0.0
 20
0.0
  0
LINE
  8
寸法
  6
BYBLOCK
 62
     0
 10
56.999343
 20
-6.920575
 11
65.802633
 21
-6.920575
  0
LINE
  8
寸法
  6
BYBLOCK
 62
     0
 10
65.802633
 20
-21.920515
 11
65.802633
 21
-6.920575
  0
POINT
  8
寸法
 62
     0
 10
65.802633
 20
-21.920515
  0
POINT
  8
寸法
 62
     0
 10
65.802633
 20
-6.920575
  0
TEXT
  7
TextStyle03
  8
寸法
  6
CONTINUOUS
 62
     0
 10
65.425
 20
-16.01875
  1
15
 40
3.0
 50
90.0
 72
     5
 11
65.425
 21
-12.83125
  0
ENDBLK
  0
BLOCK
  2
*DIM_0024
 70
    65
 10
0.0
 20
0.0
  0
LINE
  8
寸法
  6
BYBLOCK
 62
     0
 10
56.999343
 20
0.07952
 11
65.802633
 21
0.07952
  0
LINE
  8
寸法
  6
BYBLOCK
 62
     0
 10
65.802633
 20
-6.920575
 11
65.802633
 21
0.07952
  0
POINT
  8
寸法
 62
     0
 10
65.802633
 20
0.07952
  0
TEXT
  7
TextStyle03
  8
寸法
  6
CONTINUOUS
 62
     0
 10
65.425
 20
-4.175
  1
7
 40
3.0
 50
90.0
 72
     5
 11
65.425
 21
-2.675
  0
ENDBLK
  0
BLOCK
  2
*DIM_0025
 70
    65
 10
0.0
 20
0.0
  0
LINE
  8
寸法
  6
BYBLOCK
 62
     0
 10
-78.105027
 20
-80.920488
 11
-149.92464
 21
-80.920488
  0
LINE
  8
寸法
  6
BYBLOCK
 62
     0
 10
-149.92464
 20
-65.920488
 11
-149.92464
 21
-80.920488
  0
POINT
  8
寸法
 62
     0
 10
-149.92464
 20
-65.920488
  0
POINT
  8
寸法
 62
     0
 10
-149.92464
 20
-80.920488
  0
TEXT
  7
TextStyle03
  8
寸法
  6
CONTINUOUS
 62
     0
 10
-150.3
 20
-75.01875
  1
15
 40
3.0
 50
90.0
 72
     5
 11
-150.3
 21
-71.83125
  0
ENDBLK
  0
BLOCK
  2
*GRP_0026
 70
    65
 10
0.0
 20
0.0
  0
POLYLINE
  8
寸法
  6
BYBLOCK
 62
     0
 66
     1
  0
VERTEX
  8
寸法
 10
-27.88869
 20
9.079595
  0
VERTEX
  8
寸法
 10
-34.450208
 20
2.518075
  0
VERTEX
  8
寸法
 10
-62.473055
 20
2.518075
  0
SEQEND
  0
ENDBLK
  0
BLOCK
  2
*GRP_0027
 70
    65
 10
0.0
 20
0.0
  0
POLYLINE
  8
寸法
  6
BYBLOCK
 62
     0
 66
     1
  0
VERTEX
  8
寸法
 10
-27.87691
 20
23.779505
  0
VERTEX
  8
寸法
 10
-42.80497
 20
38.707565
  0
VERTEX
  8
寸法
 10
-57.51095
 20
38.707565
  0
SEQEND
  0
ENDBLK
  0
BLOCK
  2
*GRP_0028
 70
    65
 10
0.0
 20
0.0
  0
LINE
  8
ボルト／ビス
  6
CONTINUOUS
 10
-33.103405
 20
20.079507
 11
-33.103405
 21
22.07951
  0
LINE
  8
ボルト／ビス
  6
CONTINUOUS
 10
-33.103405
 20
22.07951
 11
-11.1034
 21
22.07951
  0
LINE
  8
ボルト／ビス
  6
CONTINUOUS
 10
-11.1034
 20
22.07951
 11
-11.1034
 21
20.079507
  0
LINE
  8
ボルト／ビス
  6
CONTINUOUS
 10
-33.103405
 20
20.079507
 11
-11.1034
 21
20.079507
  0
LINE
  8
ボルト／ビス
  6
CONTINUOUS
 10
-31.103402
 20
23.079507
 11
-31.103402
 21
22.07951
  0
LINE
  8
ボルト／ビス
  6
CONTINUOUS
 10
-31.103402
 20
23.079507
 11
-13.103402
 21
23.079507
  0
LINE
  8
ボルト／ビス
  6
CONTINUOUS
 10
-13.103402
 20
23.079507
 11
-13.103402
 21
22.07951
  0
LINE
  8
ボルト／ビス
  6
CONTINUOUS
 62
    64
 10
-26.914653
 20
29.079507
 11
-27.876902
 21
28.72928
  0
ARC
  8
ボルト／ビス
  6
CONTINUOUS
 62
    64
 10
-26.433527
 20
25.930154
 40
3.149352
 50
62.721967
 51
90.0
  0
ARC
  8
ボルト／ビス
  6
CONTINUOUS
 62
    64
 10
-22.103399
 20
17.007439
 40
12.072067
 50
76.165002
 51
103.834985
  0
LINE
  8
ボルト／ビス
  6
CONTINUOUS
 62
    64
 10
-17.292152
 20
29.079507
 11
-16.329903
 21
28.72928
  0
ARC
  8
ボルト／ビス
  6
CONTINUOUS
 62
    64
 10
-17.773272
 20
25.930154
 40
3.149352
 50
90.0
 51
117.278033
  0
LINE
  8
ボルト／ビス
  6
CONTINUOUS
 62
    64
 10
-26.914653
 20
29.079507
 11
-17.292152
 21
29.079507
  0
LINE
  8
ボルト／ビス
  6
CONTINUOUS
 62
    64
 10
-16.329903
 20
28.72928
 11
-16.329903
 21
25.07951
  0
LINE
  8
ボルト／ビス
  6
CONTINUOUS
 62
    64
 10
-19.216652
 20
28.72928
 11
-19.216652
 21
25.07951
  0
LINE
  8
ボルト／ビス
  6
CONTINUOUS
 62
    64
 10
-27.876902
 20
28.72928
 11
-27.876902
 21
25.07951
  0
LINE
  8
ボルト／ビス
  6
CONTINUOUS
 62
    64
 10
-24.990153
 20
28.72928
 11
-24.990153
 21
25.07951
  0
LINE
  8
ボルト／ビス
  6
CONTINUOUS
 10
-27.876902
 20
25.07951
 11
-16.329903
 21
25.07951
  0
LINE
  8
ボルト／ビス
  6
CONTINUOUS
 10
-28.103402
 20
25.07951
 11
-28.103402
 21
23.079507
  0
LINE
  8
ボルト／ビス
  6
CONTINUOUS
 10
-28.103402
 20
25.07951
 11
-16.103402
 21
25.07951
  0
LINE
  8
ボルト／ビス
  6
CONTINUOUS
 10
-16.103402
 20
25.07951
 11
-16.103402
 21
23.079507
  0
LINE
  8
ボルト／ビス
  6
CONTINUOUS
 62
    64
 10
-24.403405
 20
20.079507
 11
-24.403405
 21
0.079513
  0
LINE
  8
ボルト／ビス
  6
CONTINUOUS
 62
    64
 10
-19.8034
 20
20.079507
 11
-19.8034
 21
0.079513
  0
LINE
  8
ボルト／ビス
  6
CONTINUOUS
 62
    64
 10
-24.403405
 20
0.079513
 11
-19.8034
 21
0.079513
  0
LINE
  8
ボルト／ビス
  6
CONTINUOUS
 62
    64
 10
-19.103402
 20
1.07951
 11
-19.8034
 21
0.079513
  0
LINE
  8
ボルト／ビス
  6
CONTINUOUS
 62
    64
 10
-25.103402
 20
1.07951
 11
-24.403405
 21
0.079513
  0
LINE
  8
ボルト／ビス
  6
CONTINUOUS
 62
    64
 10
-25.103402
 20
1.07951
 11
-19.103402
 21
1.07951
  0
LINE
  8
ボルト／ビス
  6
CONTINUOUS
 62
    64
 10
-24.403405
 20
0.079513
 11
-19.8034
 21
0.079513
  0
LINE
  8
ボルト／ビス
  6
CONTINUOUS
 62
    64
 10
-19.103402
 20
20.079507
 11
-19.103402
 21
1.07951
  0
LINE
  8
ボルト／ビス
  6
CONTINUOUS
 62
    64
 10
-25.103402
 20
20.079507
 11
-25.103402
 21
1.07951
  0
ENDBLK
  0
BLOCK
  2
*GRP_0029
 70
    65
 10
0.0
 20
0.0
  0
POLYLINE
  8
寸法
  6
BYBLOCK
 62
     0
 66
     1
  0
VERTEX
  8
寸法
 10
5.895025
 20
-31.812038
  0
VERTEX
  8
寸法
 10
20.72734
 20
-16.979723
  0
VERTEX
  8
寸法
 10
34.462435
 20
-16.979723
  0
SEQEND
  0
ENDBLK
  0
BLOCK
  2
*GRP_0030
 70
    65
 10
0.0
 20
0.0
  0
POLYLINE
  8
寸法
  6
BYBLOCK
 62
     0
 66
     1
  0
VERTEX
  8
寸法
 10
-4.104798
 20
-30.416005
  0
VERTEX
  8
寸法
 10
-15.60544
 20
-18.915362
  0
VERTEX
  8
寸法
 10
-18.900792
 20
-18.915362
  0
SEQEND
  0
ENDBLK
  0
BLOCK
  2
*GRP_0031
 70
    65
 10
0.0
 20
0.0
  0
SPLINE
  5
1400000
100
AcDbEntity
  8
ガラス
100
AcDbSpline
  6
CONTINUOUS
 70
     0
 71
     3
 74
     3
 44
0.0
 11
13.104862
 21
-30.656123
 11
14.92368
 21
-30.726022
 11
16.194628
 21
-31.82478
  0
SPLINE
  5
1400001
100
AcDbEntity
  8
ガラス
100
AcDbSpline
  6
CONTINUOUS
 70
     0
 71
     3
 74
     3
 44
0.0
 11
16.194628
 21
-31.82478
 11
14.892518
 21
-32.034055
 11
13.828632
 21
-32.423973
  0
ARC
  8
ガラス
  6
CONTINUOUS
 10
13.466748
 20
-31.540045
 40
0.955135
 50
112.264588
 51
292.264588
  0
ENDBLK
  0
BLOCK
  2
*GRP_0032
 70
    65
 10
0.0
 20
0.0
  0
SPLINE
  5
1400002
100
AcDbEntity
  8
ガラス
100
AcDbSpline
  6
CONTINUOUS
 70
     0
 71
     3
 74
     3
 44
0.0
 11
0.910312
 21
-32.72293
 11
2.72913
 21
-32.79283
 11
4.000078
 21
-33.891587
  0
SPLINE
  5
1400003
100
AcDbEntity
  8
ガラス
100
AcDbSpline
  6
CONTINUOUS
 70
     0
 71
     3
 74
     3
 44
0.0
 11
4.000078
 21
-33.891587
 11
2.697968
 21
-34.100863
 11
1.634082
 21
-34.49078
  0
ARC
  8
ガラス
  6
CONTINUOUS
 10
1.272197
 20
-33.606853
 40
0.955135
 50
112.264588
 51
292.264588
  0
ENDBLK
  0
BLOCK
  2
*GRP_0033
 70
    65
 10
0.0
 20
0.0
  0
SPLINE
  5
1400004
100
AcDbEntity
  8
ガラス
100
AcDbSpline
  6
CONTINUOUS
 70
     0
 71
     3
 74
     3
 44
0.0
 11
-13.688627
 21
-35.197247
 11
-11.86981
 21
-35.267148
 11
-10.598862
 21
-36.365905
  0
SPLINE
  5
1400005
100
AcDbEntity
  8
ガラス
100
AcDbSpline
  6
CONTINUOUS
 70
     0
 71
     3
 74
     3
 44
0.0
 11
-10.598862
 21
-36.365905
 11
-11.900972
 21
-36.57518
 11
-12.964858
 21
-36.965097
  0
ARC
  8
ガラス
  6
CONTINUOUS
 10
-13.326741
 20
-36.081171
 40
0.955135
 50
112.264588
 51
292.264588
  0
ENDBLK
  0
BLOCK
  2
*GRP_0034
 70
    65
 10
0.0
 20
0.0
  0
SPLINE
  5
1400006
100
AcDbEntity
  8
ガラス
100
AcDbSpline
  6
CONTINUOUS
 70
     0
 71
     3
 74
     3
 44
0.0
 11
23.604598
 21
-7.817093
 11
23.534698
 21
-5.998275
 11
22.43594
 21
-4.727327
  0
SPLINE
  5
1400007
100
AcDbEntity
  8
ガラス
100
AcDbSpline
  6
CONTINUOUS
 70
     0
 71
     3
 74
     3
 44
0.0
 11
22.43594
 21
-4.727327
 11
22.226665
 21
-6.029438
 11
21.836747
 21
-7.093322
  0
ARC
  8
ガラス
  6
CONTINUOUS
 10
22.720674
 20
-7.455207
 40
0.955135
 50
157.735412
 51
337.735412
  0
ENDBLK
  0
BLOCK
  2
*GRP_0035
 70
    65
 10
0.0
 20
0.0
  0
SPLINE
  5
1400008
100
AcDbEntity
  8
ガラス
100
AcDbSpline
  6
CONTINUOUS
 70
     0
 71
     3
 74
     3
 44
0.0
 11
23.604598
 21
-23.523308
 11
23.534698
 21
-21.70449
 11
22.43594
 21
-20.433543
  0
SPLINE
  5
1400009
100
AcDbEntity
  8
ガラス
100
AcDbSpline
  6
CONTINUOUS
 70
     0
 71
     3
 74
     3
 44
0.0
 11
22.43594
 21
-20.433543
 11
22.226665
 21
-21.735653
 11
21.836747
 21
-22.799538
  0
ARC
  8
ガラス
  6
CONTINUOUS
 10
22.720674
 20
-23.161423
 40
0.955135
 50
157.735412
 51
337.735412
  0
ENDBLK
  0
ENDSEC
  0
SECTION
  2
ENTITIES
  0
POLYLINE
  8
通り芯
  6
CONTINUOUS
 66
     1
 70
     1
  0
VERTEX
  8
通り芯
 10
-210.0
 20
-148.5
  0
VERTEX
  8
通り芯
 10
210.0
 20
-148.5
  0
VERTEX
  8
通り芯
 10
210.0
 20
148.5
  0
VERTEX
  8
通り芯
 10
-210.0
 20
148.5
  0
SEQEND
  0
LINE
  8
通り芯
  6
CONTINUOUS
 62
    64
 10
-22.1034
 20
-4.227775
 11
-22.1034
 21
32.929805
  0
LINE
  8
通り芯
  6
CONTINUOUS
 62
    64
 10
-22.103402
 20
-4.227775
 11
-22.103402
 21
32.929805
  0
LINE
  8
通り芯
  6
CONTINUOUS
 10
-36.053455
 20
11.079545
 11
-36.053455
 21
9.079595
  0
LINE
  8
通り芯
  6
CONTINUOUS
 10
-4.354795
 20
11.079545
 11
-4.354795
 21
9.079595
  0
LINE
  8
通り芯
  6
CONTINUOUS
 62
    15
 10
-36.053455
 20
9.079595
 11
-4.354795
 21
9.079595
  0
LINE
  8
通り芯
  6
CONTINUOUS
 10
-36.053455
 20
9.079595
 11
-4.354795
 21
11.079545
  0
LINE
  8
型材断面
  6
CONTINUOUS
 10
-2.104975
 20
-8.92036
 11
-2.104975
 21
-10.920453
  0
LINE
  8
型材断面
  6
DASHDOT
 10
-2.1034
 20
1.332035
 11
-2.1034
 21
50.47469
  0
LINE
  8
型材断面
  6
CONTINUOUS
 10
-2.1034
 20
72.51068
 11
70.965358
 21
72.51068
  0
POLYLINE
  8
型材断面
  6
CONTINUOUS
 66
     1
  0
VERTEX
  8
型材断面
 10
70.965358
 20
72.51068
  0
VERTEX
  8
型材断面
 10
64.402305
 20
74.299837
  0
VERTEX
  8
型材断面
 10
64.402305
 20
72.51068
  0
SEQEND
  0
POLYLINE
  8
型材断面
  6
CONTINUOUS
 66
     1
  0
VERTEX
  8
型材断面
 10
68.29611
 20
72.51068
  0
VERTEX
  8
型材断面
 10
61.733057
 20
74.299837
  0
VERTEX
  8
型材断面
 10
61.733057
 20
72.51068
  0
SEQEND
  0
LINE
  8
型材断面
  6
CONTINUOUS
 10
195.0
 20
133.5
 11
195.0
 21
-133.5
  0
LINE
  8
型材断面
  6
CONTINUOUS
 10
195.0
 20
-133.5
 11
-185.0
 21
-133.5
  0
LINE
  8
型材断面
  6
CONTINUOUS
 10
-185.0
 20
-133.5
 11
-185.0
 21
133.5
  0
LINE
  8
型材断面
  6
CONTINUOUS
 10
195.0
 20
133.5
 11
-185.0
 21
133.5
  0
LINE
  8
型材断面
  6
CONTINUOUS
 10
145.0
 20
-133.5
 11
145.0
 21
-118.5
  0
LINE
  8
型材断面
  6
CONTINUOUS
 10
195.0
 20
-118.5
 11
145.0
 21
-118.5
  0
INSERT
  2
*GRP_0019
  8
型材断面
  6
CONTINUOUS
 10
0.0
 20
0.0
  0
LINE
  8
型材断面
  6
CONTINUOUS
 10
20.895005
 20
-6.920575
 11
55.999343
 21
-6.920575
  0
LINE
  8
型材断面
  6
CONTINUOUS
 10
20.895005
 20
-2.920622
 11
55.999343
 21
-2.920622
  0
LINE
  8
型材断面
  6
DOT
 10
-4.104798
 20
-36.00514
 11
-2.104975
 21
-35.66614
  0
LINE
  8
型材断面
  6
DOT
 10
-2.104975
 20
-27.920583
 11
-4.104798
 21
-27.920583
  0
LINE
  8
型材断面
  6
DOT
 10
-3.604842
 20
-35.92039
 11
-3.604842
 21
-27.920583
  0
LINE
  8
型材断面
  6
DOT
 10
-3.104885
 20
-35.83564
 11
-3.104885
 21
-27.920583
  0
LINE
  8
型材断面
  6
DOT
 10
-2.60493
 20
-35.75089
 11
-2.60493
 21
-27.920583
  0
LINE
  8
型材断面
  6
DOT
 10
2.39483
 20
-27.920583
 11
5.895025
 21
-27.920583
  0
LINE
  8
型材断面
  6
DOT
 10
5.895025
 20
-27.920583
 11
5.895025
 21
-34.31025
  0
LINE
  8
型材断面
  6
DOT
 10
5.895025
 20
-32.648502
 11
3.894158
 21
-34.64937
  0
LINE
  8
型材断面
  6
DOT
 10
5.895025
 20
-30.527182
 11
1.339933
 21
-35.082275
  0
LINE
  8
型材断面
  6
DOT
 10
5.895025
 20
-28.405862
 11
-1.214295
 21
-35.515182
  0
LINE
  8
型材断面
  6
DOT
 10
4.258985
 20
-27.920583
 11
-2.104975
 21
-34.284543
  0
LINE
  8
型材断面
  6
DOT
 10
2.137665
 20
-27.920583
 11
-2.104975
 21
-32.163223
  0
LINE
  8
型材断面
  6
DOT
 10
0.016345
 20
-27.920583
 11
-2.104975
 21
-30.041903
  0
LINE
  8
ガラス
  6
CONTINUOUS
 10
7.896597
 20
6.87947
 11
7.896597
 21
0.07952
  0
LINE
  8
ガラス
  6
CONTINUOUS
 10
7.896597
 20
0.07952
 11
55.999343
 21
0.07952
  0
LINE
  8
ガラス
  6
CONTINUOUS
 10
7.896597
 20
0.579515
 11
55.999343
 21
0.579515
  0
LINE
  8
ガラス
  6
CONTINUOUS
 10
7.896597
 20
6.379475
 11
55.999343
 21
6.379475
  0
LINE
  8
ガラス
  6
CONTINUOUS
 10
7.896597
 20
6.87947
 11
55.999343
 21
6.87947
  0
INSERT
  2
*GRP_0031
  8
ガラス
  6
CONTINUOUS
 10
0.0
 20
0.0
  0
INSERT
  2
*GRP_0032
  8
ガラス
  6
CONTINUOUS
 10
0.0
 20
0.0
  0
INSERT
  2
*GRP_0033
  8
ガラス
  6
CONTINUOUS
 10
0.0
 20
0.0
  0
INSERT
  2
*GRP_0034
  8
ガラス
  6
CONTINUOUS
 10
0.0
 20
0.0
  0
INSERT
  2
*GRP_0035
  8
ガラス
  6
CONTINUOUS
 10
0.0
 20
0.0
  0
INSERT
  2
*GRP_0020
  8
ゴム等
  6
CONTINUOUS
 10
0.0
 20
0.0
  0
INSERT
  2
*GRP_0011
  8
ボルト／ビス
  6
CONTINUOUS
 62
    64
 10
0.0
 20
0.0
  0
INSERT
  2
*GRP_0012
  8
ボルト／ビス
  6
CONTINUOUS
 62
    64
 10
0.0
 20
0.0
  0
INSERT
  2
*GRP_0028
  8
ボルト／ビス
  6
CONTINUOUS
 10
0.0
 20
0.0
  0
TEXT
  7
TextStyle03
  8
文字
  6
CONTINUOUS
 10
-54.725
 20
-30.975
  1
TK-0007
 40
3.0
 72
     5
 11
-43.1
 21
-30.975
  0
TEXT
  7
TextStyle03
  8
文字
  6
CONTINUOUS
 10
1.7
 20
-91.15
  1
KA-78A（末栄金属）
 40
3.0
 72
     5
 11
31.7
 21
-91.15
  0
TEXT
  7
TextStyle03
  8
文字
  6
CONTINUOUS
 10
-75.8
 20
26.325
  1
TKR-1701
 40
4.0
 72
     5
 11
-58.05
 21
26.325
  0
TEXT
  7
TextStyle03
  8
文字
  6
CONTINUOUS
 10
-91.2
 20
5.025
  1
コーナー用
 40
3.0
 72
     5
 11
-74.7
 21
5.025
  0
TEXT
  7
TextStyle03
  8
文字
  6
CONTINUOUS
 10
-91.2
 20
1.65
  1
AL-3.0t(かしめ止）
 40
3.0
 72
     5
 11
-61.2
 21
1.65
  0
TEXT
  7
TextStyle03
  8
文字
  6
CONTINUOUS
 10
35.075
 20
72.675
  1
呼称寸法
 40
4.0
 72
     5
 11
52.575
 21
72.675
  0
TEXT
  7
TextStyle03
  8
文字
  6
CONTINUOUS
 10
-137.9
 20
-39.275
  1
コーナージョイント金物
 40
3.0
 72
     5
 11
-101.15
 21
-39.275
  0
TEXT
  7
TextStyle03
  8
文字
  6
CONTINUOUS
 10
-137.9
 20
-42.65
  1
St-1.6t
 40
3.0
 72
     5
 11
-126.275
 21
-42.65
  0
TEXT
  7
TextStyle03
  8
文字
  6
CONTINUOUS
 10
33.4
 20
9.2
  1
TKR-1107
 40
4.0
 72
     5
 11
51.15
 21
9.2
  0
TEXT
  7
TextStyle03
  8
文字
  6
CONTINUOUS
 10
-90.9
 20
37.45
  1
M6×20ゴムパッキン付
 40
3.0
 72
     5
 11
-57.525
 21
37.45
  0
TEXT
  7
TextStyle03
  8
文字
  6
CONTINUOUS
 10
94.075
 20
100.175
  1
ＮＳコード：ＮＳＫＺ
 40
5.0
 72
     5
 11
149.7
 21
100.175
  0
TEXT
  7
TextStyle03
  8
文字
  6
CONTINUOUS
 10
36.1
 20
-18.5
  1
バッフル材
 40
3.0
 72
     5
 11
52.6
 21
-18.5
  0
TEXT
  7
TextStyle03
  8
文字
  6
CONTINUOUS
 10
-49.975
 20
-16.4
  1
φ8穴加工
 40
3.0
 72
     5
 11
-35.1625
 21
-16.4
  0
TEXT
  7
TextStyle03
  8
文字
  6
CONTINUOUS
 10
-49.975
 20
-19.775
  1
裏面バッフル材付き
 40
3.0
 72
     5
 11
-19.975
 21
-19.775
  0
TEXT
  7
TextStyle03
  8
文字
  6
CONTINUOUS
 10
94.125
 20
125.05
  1
シリーズ：ＴＤ２Ｋ
 40
5.0
 72
     5
 11
144.125
 21
125.05
  0
TEXT
  7
TextStyle03
  8
文字
  6
CONTINUOUS
 10
94.125
 20
119.425
  1
　　　　　（固定）
 40
5.0
 72
     5
 11
144.125
 21
119.425
  0
TEXT
  7
TextStyle03
  8
文字
  6
CONTINUOUS
 10
94.125
 20
113.8
  1
図面名　：下枠断面詳細図
 40
5.0
 72
     5
 11
161.0
 21
113.8
  0
INSERT
  2
*GRP_0001
  8
寸法
  6
CONTINUOUS
 10
0.0
 20
0.0
  0
INSERT
  2
*GRP_0002
  8
寸法
  6
CONTINUOUS
 10
0.0
 20
0.0
  0
INSERT
  2
*GRP_0003
  8
寸法
  6
CONTINUOUS
 10
0.0
 20
0.0
  0
INSERT
  2
*DIM_0004
  8
寸法
  6
CONTINUOUS
 10
0.0
 20
0.0
  0
INSERT
  2
*DIM_0005
  8
寸法
  6
CONTINUOUS
 10
0.0
 20
0.0
  0
INSERT
  2
*DIM_0006
  8
寸法
  6
CONTINUOUS
 10
0.0
 20
0.0
  0
INSERT
  2
*DIM_0007
  8
寸法
  6
CONTINUOUS
 10
0.0
 20
0.0
  0
INSERT
  2
*DIM_0008
  8
寸法
  6
CONTINUOUS
 10
0.0
 20
0.0
  0
INSERT
  2
*GRP_0013
  8
寸法
  6
CONTINUOUS
 10
0.0
 20
0.0
  0
INSERT
  2
*DIM_0014
  8
寸法
  6
CONTINUOUS
 10
0.0
 20
0.0
  0
INSERT
  2
*DIM_0015
  8
寸法
  6
CONTINUOUS
 10
0.0
 20
0.0
  0
INSERT
  2
*DIM_0016
  8
寸法
  6
CONTINUOUS
 10
0.0
 20
0.0
  0
INSERT
  2
*DIM_0017
  8
寸法
  6
CONTINUOUS
 10
0.0
 20
0.0
  0
INSERT
  2
*DIM_0018
  8
寸法
  6
CONTINUOUS
 10
0.0
 20
0.0
  0
INSERT
  2
*GRP_0021
  8
寸法
  6
CONTINUOUS
 10
0.0
 20
0.0
  0
INSERT
  2
*DIM_0022
  8
寸法
  6
CONTINUOUS
 10
0.0
 20
0.0
  0
INSERT
  2
*DIM_0023
  8
寸法
  6
CONTINUOUS
 10
0.0
 20
0.0
  0
INSERT
  2
*DIM_0024
  8
寸法
  6
CONTINUOUS
 10
0.0
 20
0.0
  0
INSERT
  2
*DIM_0025
  8
寸法
  6
CONTINUOUS
 10
0.0
 20
0.0
  0
INSERT
  2
*GRP_0026
  8
寸法
  6
CONTINUOUS
 10
0.0
 20
0.0
  0
INSERT
  2
*GRP_0027
  8
寸法
  6
CONTINUOUS
 10
0.0
 20
0.0
  0
INSERT
  2
*GRP_0029
  8
寸法
  6
CONTINUOUS
 10
0.0
 20
0.0
  0
INSERT
  2
*GRP_0030
  8
寸法
  6
CONTINUOUS
 10
0.0
 20
0.0
  0
INSERT
  2
*GRP_0009
  8
別途部材
  6
CONTINUOUS
 10
0.0
 20
0.0
  0
ARC
  8
別途部材
  6
CONTINUOUS
 62
    96
 10
-46.680633
 20
12.06999
 40
5.005952
 50
90.001373
 51
158.200992
  0
LINE
  8
別途部材
  6
CONTINUOUS
 62
    96
 10
-52.103395
 20
20.079507
 11
-2.1034
 21
20.079507
  0
LINE
  8
別途部材
  6
CONTINUOUS
 62
    96
 10
-46.68064
 20
17.075922
 11
-0.438835
 21
17.075922
  0
LINE
  8
別途部材
  6
CONTINUOUS
 10
-64.103373
 20
-9.920492
 11
-60.868427
 21
-9.920492
  0
LINE
  8
別途部材
  6
CONTINUOUS
 62
    96
 10
-52.103395
 20
20.079507
 11
-64.103373
 21
-9.920492
  0
LINE
  8
別途部材
  6
CONTINUOUS
 62
    96
 10
-51.328585
 20
13.929125
 11
-60.868427
 21
-9.920492
  0
ARC
  8
別途部材
  6
CONTINUOUS
 10
189.652392
 20
-79.858307
 40
216.235628
 50
138.993728
 51
152.472719
  0
ARC
  8
別途部材
  6
CONTINUOUS
 10
189.652392
 20
-79.858307
 40
213.379747
 50
138.323547
 51
152.981359
  0
INSERT
  2
*GRP_0010
  8
St
  6
CONTINUOUS
 62
   127
 10
0.0
 20
0.0
  0
INSERT
  2
*HAT_0002
  8
St
 10
0.0
 20
0.0
  0
LINE
  8
St
  6
CONTINUOUS
 10
-58.537705
 20
-63.920612
 11
-56.9377
 21
-62.320615
  0
LINE
  8
St
  6
CONTINUOUS
 10
-57.830598
 20
-63.920612
 11
-56.230592
 21
-62.320615
  0
LINE
  8
St
  6
CONTINUOUS
 10
-31.516428
 20
-63.920612
 11
-29.916423
 21
-62.320615
  0
LINE
  8
St
  6
CONTINUOUS
 10
-30.80932
 20
-63.920612
 11
-29.209315
 21
-62.320615
  0
LINE
  8
St
  6
CONTINUOUS
 10
-85.50511
 20
-63.920612
 11
-85.50511
 21
-56.77225
  0
LINE
  8
St
  6
CONTINUOUS
 10
-87.105108
 20
-63.920612
 11
-87.105108
 21
-56.77225
  0
ARC
  8
St
  6
CONTINUOUS
 10
-85.505108
 20
-56.772247
 40
1.6
 50
99.619743
 51
180.0
  0
ARC
  8
St
  6
CONTINUOUS
 10
5.020392
 20
-62.320612
 40
1.6
 50
-90.0
 51
0.0
  0
LINE
  8
St
  6
CONTINUOUS
 10
-85.50511
 20
-62.320615
 11
5.011962
 21
-62.320615
  0
LINE
  8
St
  6
DOT
 10
5.011962
 20
-62.320615
 11
25.895097
 21
-62.320615
  0
LINE
  8
St
  6
CONTINUOUS
 10
-87.105108
 20
-63.920612
 11
25.895097
 21
-63.920612
  0
LINE
  8
St
  6
CONTINUOUS
 10
5.011962
 20
-62.320615
 11
5.011962
 21
-41.430347
  0
LINE
  8
St
  6
CONTINUOUS
 10
6.62039
 20
-63.920612
 11
6.62039
 21
-41.15773
  0
LINE
  8
St
  6
CONTINUOUS
 10
-85.772477
 20
-55.194745
 11
25.895097
 21
-36.268008
  0
LINE
  8
St
  6
CONTINUOUS
 10
-85.50511
 20
-56.77225
 11
25.895097
 21
-37.890827
  0
LINE
  8
St
  6
CONTINUOUS
 10
-53.744523
 20
-49.766267
 11
-55.698542
 21
-51.72028
  0
LINE
  8
St
  6
CONTINUOUS
 10
-52.893108
 20
-49.62196
 11
-54.847127
 21
-51.575972
  0
LINE
  8
St
  6
CONTINUOUS
 10
-12.91642
 20
-42.846235
 11
-14.87044
 21
-44.800248
  0
LINE
  8
St
  6
CONTINUOUS
 10
-12.065005
 20
-42.701927
 11
-14.019025
 21
-44.65594
  0
LINE
  8
St
  6
CONTINUOUS
 10
-2.104975
 20
13.579543
 11
0.895025
 21
13.579543
  0
LINE
  8
St
  6
CONTINUOUS
 10
0.895025
 20
13.579543
 11
0.895025
 21
-4.920693
  0
LINE
  8
St
  6
CONTINUOUS
 10
0.895025
 20
-6.920575
 11
0.895025
 21
-25.920543
  0
INSERT
  2
*HAT_0003
  8
その他部品等
 10
0.0
 20
0.0
  0
INSERT
  2
*HAT_0004
  8
その他部品等
 10
0.0
 20
0.0
  0
LINE
  8
LAYER010
  6
DOT
 62
     7
 10
-48.30475
 20
12.079565
 11
-48.30475
 21
7.579528
  0
CIRCLE
  8
LAYER010
  6
CONTINUOUS
 62
     7
 10
-92.104742
 20
-50.920555
 40
0.33333
  0
ENDSEC
  0
EOF
