  0
SECTION
  2
HEADER
  9
$EXTMIN
 10
-210.0
 20
-148.5
  9
$EXTMAX
 10
210.0
 20
148.5
  9
$PDMODE
 70
    32
  9
$PDSIZE
 40
1.5
  9
$LTSCALE
 40
10.0
  0
ENDSEC
  0
SECTION
  2
TABLES
  0
TABLE
  2
LTYPE
 70
    15
  0
LTYPE
  2
CONTINUOUS
 70
    64
  3
実線
 72
    65
 73
     0
 40
0.0
  0
LTYPE
  2
DASHED
 70
    64
  3
破線A
 72
    65
 73
     2
 40
0.6
 49
0.4
 49
-0.2
  0
LTYPE
  2
DASHEDX2
 70
    64
  3
破線B
 72
    65
 73
     2
 40
1.3
 49
0.9
 49
-0.4
  0
LTYPE
  2
DASHDOT
 70
    64
  3
１点鎖線A
 72
    65
 73
     4
 40
0.5375
 49
0.375
 49
-0.05
 49
0.0625
 49
-0.05
  0
LTYPE
  2
DASHDOTX2
 70
    64
  3
１点鎖線B
 72
    65
 73
     4
 40
1.075
 49
0.75
 49
-0.1
 49
0.125
 49
-0.1
  0
LTYPE
  2
DIVIDE2
 70
    64
  3
２点鎖線A
 72
    65
 73
     6
 40
0.5125
 49
0.3
 49
-0.0375
 49
0.05
 49
-0.0375
 49
0.05
 49
-0.0375
  0
LTYPE
  2
DIVIDE
 70
    64
  3
２点鎖線B
 72
    65
 73
     6
 40
1.05
 49
0.55
 49
-0.1
 49
0.1
 49
-0.1
 49
0.1
 49
-0.1
  0
LTYPE
  2
DOT
 70
    64
  3
点線A
 72
    65
 73
     2
 40
0.1125
 49
0.0625
 49
-0.05
  0
LTYPE
  2
DOTX2
 70
    64
  3
点線B
 72
    65
 73
     2
 40
0.275
 49
0.15
 49
-0.125
  0
LTYPE
  2
CONTINUOUS
 70
    64
  3
実線
 72
    65
 73
     0
 40
0.0
  0
LTYPE
  2
CONTINUOUS
 70
    64
  3
実線
 72
    65
 73
     0
 40
0.0
  0
LTYPE
  2
CONTINUOUS
 70
    64
  3
実線
 72
    65
 73
     0
 40
0.0
  0
LTYPE
  2
CONTINUOUS
 70
    64
  3
実線
 72
    65
 73
     0
 40
0.0
  0
LTYPE
  2
CONTINUOUS
 70
    64
  3
実線
 72
    65
 73
     0
 40
0.0
  0
LTYPE
  2
CONTINUOUS
 70
    64
  3
実線
 72
    65
 73
     0
 40
0.0
  0
ENDTAB
  0
TABLE
  2
LAYER
 70
    35
  0
LAYER
  2
通り芯
 70
     0
 62
    15
  6
CONTINUOUS
  0
LAYER
  2
補助線
 70
     0
 62
    16
  6
DOT
  0
LAYER
  2
躯体
 70
     0
 62
    31
  6
CONTINUOUS
  0
LAYER
  2
型材
 70
     0
 62
    32
  6
CONTINUOUS
  0
LAYER
  2
型材断面
 70
     0
 62
    47
  6
CONTINUOUS
  0
LAYER
  2
ガラス
 70
     0
 62
    48
  6
CONTINUOUS
  0
LAYER
  2
ゴム等
 70
     0
 62
    63
  6
CONTINUOUS
  0
LAYER
  2
ボルト／ビス
 70
     0
 62
    64
  6
CONTINUOUS
  0
LAYER
  2
文字
 70
     0
 62
    79
  6
CONTINUOUS
  0
LAYER
  2
寸法
 70
     0
 62
    80
  6
CONTINUOUS
  0
LAYER
  2
ﾊｯﾁﾝｸﾞ
 70
     0
 62
    95
  6
CONTINUOUS
  0
LAYER
  2
別途部材
 70
     0
 62
    96
  6
CONTINUOUS
  0
LAYER
  2
曲げ物
 70
     0
 62
   111
  6
CONTINUOUS
  0
LAYER
  2
鉄骨等
 70
     0
 62
   112
  6
CONTINUOUS
  0
LAYER
  2
St
 70
     0
 62
   127
  6
CONTINUOUS
  0
LAYER
  2
その他部品等
 70
     0
 62
   128
  6
CONTINUOUS
  0
LAYER
  2
ｶﾞｽｹｯﾄ
 70
     0
 62
   143
  6
CONTINUOUS
  0
LAYER
  2
ｽｹｯﾁ
 70
     0
 62
    14
  6
CONTINUOUS
  0
LAYER
  2
0
 70
     0
 62
    17
  6
CONTINUOUS
  0
LAYER
  2
1
 70
     0
 62
    30
  6
CONTINUOUS
  0
LAYER
  2
4
 70
     0
 62
    33
  6
CONTINUOUS
  0
LAYER
  2
ﾚｲﾔ3
 70
     0
 62
    46
  6
CONTINUOUS
  0
LAYER
  2
外形線
 70
     0
 62
    49
  6
CONTINUOUS
  0
LAYER
  2
部品
 70
     0
 62
    14
  6
CONTINUOUS
  0
LAYER
  2
サッシ芯
 70
     0
 62
    17
  6
DASHDOTX2
  0
LAYER
  2
寸法線
 70
     0
 62
    62
  6
CONTINUOUS
  0
LAYER
  2
姿図外形線
 70
     0
 62
    65
  6
CONTINUOUS
  0
LAYER
  2
姿補助線
 70
     0
 62
    30
  6
CONTINUOUS
  0
LAYER
  2
透視線
 70
     0
 62
    78
  6
DOT
  0
LAYER
  2
用紙
 70
     0
 62
    81
  6
CONTINUOUS
  0
LAYER
  2
実線図枠
 70
     0
 62
    94
  6
CONTINUOUS
  0
LAYER
  2
補助図枠
 70
     0
 62
    97
  6
CONTINUOUS
  0
LAYER
  2
建具記号
 70
     0
 62
   110
  6
CONTINUOUS
  0
LAYER
  2
補助文字
 70
     0
 62
   113
  6
CONTINUOUS
  0
LAYER
  2
LAYER010
 70
     0
 62
    11
  6
CONTINUOUS
  0
ENDTAB
  0
TABLE
  2
STYLE
 70
    10
  0
STYLE
  2
STANDARD
 70
     0
 40
1.0
 41
1.0
 42
1.0
 50
0.0
 71
     0
  3
TXT
  4
BIGFONT
  0
STYLE
  2
TATE
 70
     4
 40
1.0
 41
1.0
 42
1.0
 50
0.0
 71
     0
  3
TXT
  4
BIGFONT
  0
STYLE
  2
TextStyle03
 70
     0
 40
1.0
 41
1.0
 42
1.0
 50
0.0
 71
     0
  3
MONOTXT
  4
BIGFONT
  0
STYLE
  2
TextStyle04
 70
     0
 40
1.0
 41
1.0
 42
1.0
 50
0.0
 71
     0
  3
MONOTXT
  4
BIGFONT
  0
STYLE
  2
TextStyle05
 70
     0
 40
1.0
 41
1.0
 42
1.0
 50
0.0
 71
     0
  3
MONOTXT
  4
BIGFONT
  0
STYLE
  2
TextStyle06
 70
     0
 40
1.0
 41
1.0
 42
1.0
 50
0.0
 71
     0
  3
MONOTXT
  4
BIGFONT
  0
STYLE
  2
TextStyle07
 70
     0
 40
1.0
 41
1.0
 42
1.0
 50
0.0
 71
     0
  3
MONOTXT
  4
BIGFONT
  0
STYLE
  2
TextStyle08
 70
     0
 40
1.0
 41
1.0
 42
1.0
 50
0.0
 71
     0
  3
MONOTXT
  4
BIGFONT
  0
STYLE
  2
TextStyle09
 70
     0
 40
1.0
 41
1.0
 42
1.0
 50
0.0
 71
     0
  3
MONOTXT
  4
BIGFONT
  0
STYLE
  2
TextStyle10
 70
     0
 40
1.0
 41
1.0
 42
1.0
 50
0.0
 71
     0
  3
MONOTXT
  4
BIGFONT
  0
ENDTAB
  0
ENDSEC
  0
SECTION
  2
BLOCKS
  0
BLOCK
  2
*GRP_0001
 70
    65
 10
0.0
 20
0.0
  0
LINE
  8
型材断面
  6
CONTINUOUS
 10
195.0
 20
133.5
 11
195.0
 21
-133.5
  0
LINE
  8
型材断面
  6
CONTINUOUS
 10
195.0
 20
-133.5
 11
-185.0
 21
-133.5
  0
LINE
  8
型材断面
  6
CONTINUOUS
 10
-185.0
 20
-133.5
 11
-185.0
 21
133.5
  0
LINE
  8
型材断面
  6
CONTINUOUS
 10
195.0
 20
133.5
 11
-185.0
 21
133.5
  0
LINE
  8
型材断面
  6
CONTINUOUS
 10
145.0
 20
-133.5
 11
145.0
 21
-118.5
  0
LINE
  8
型材断面
  6
CONTINUOUS
 10
195.0
 20
-118.5
 11
145.0
 21
-118.5
  0
ENDBLK
  0
BLOCK
  2
*GRP_0002
 70
    65
 10
0.0
 20
0.0
  0
INSERT
  2
*GRP_0016
  8
補助線
  6
CONTINUOUS
 10
0.0
 20
0.0
  0
LINE
  8
ボルト／ビス
  6
CONTINUOUS
 10
-84.935405
 20
10.371595
 11
-84.685405
 21
10.515933
  0
LINE
  8
ボルト／ビス
  6
CONTINUOUS
 10
-84.935405
 20
10.371595
 11
-85.185405
 21
10.515933
  0
LINE
  8
ボルト／ビス
  6
CONTINUOUS
 10
-84.685405
 20
10.804608
 11
-84.935405
 21
10.948945
  0
LINE
  8
ボルト／ビス
  6
CONTINUOUS
 10
-85.185405
 20
10.804608
 11
-84.935405
 21
10.948945
  0
CIRCLE
  8
ボルト／ビス
  6
CONTINUOUS
 10
-84.935405
 20
10.66027
 40
0.25
  0
LINE
  8
ボルト／ビス
  6
CONTINUOUS
 10
-85.185405
 20
10.515933
 11
-85.185405
 21
10.804608
  0
LINE
  8
ボルト／ビス
  6
CONTINUOUS
 10
-84.685405
 20
10.804608
 11
-84.685405
 21
10.515933
  0
ENDBLK
  0
BLOCK
  2
*GRP_0003
 70
    65
 10
0.0
 20
0.0
  0
INSERT
  2
*GRP_0017
  8
補助線
  6
CONTINUOUS
 10
0.0
 20
0.0
  0
LINE
  8
ボルト／ビス
  6
CONTINUOUS
 10
-69.935405
 20
10.371595
 11
-69.685405
 21
10.515933
  0
LINE
  8
ボルト／ビス
  6
CONTINUOUS
 10
-69.935405
 20
10.371595
 11
-70.185405
 21
10.515933
  0
LINE
  8
ボルト／ビス
  6
CONTINUOUS
 10
-69.685405
 20
10.804608
 11
-69.935405
 21
10.948945
  0
LINE
  8
ボルト／ビス
  6
CONTINUOUS
 10
-70.185405
 20
10.804608
 11
-69.935405
 21
10.948945
  0
CIRCLE
  8
ボルト／ビス
  6
CONTINUOUS
 10
-69.935405
 20
10.66027
 40
0.25
  0
LINE
  8
ボルト／ビス
  6
CONTINUOUS
 10
-70.185405
 20
10.515933
 11
-70.185405
 21
10.804608
  0
LINE
  8
ボルト／ビス
  6
CONTINUOUS
 10
-69.685405
 20
10.804608
 11
-69.685405
 21
10.515933
  0
ENDBLK
  0
BLOCK
  2
*GRP_0004
 70
    65
 10
0.0
 20
0.0
  0
INSERT
  2
*GRP_0018
  8
補助線
  6
CONTINUOUS
 10
0.0
 20
0.0
  0
LINE
  8
ボルト／ビス
  6
CONTINUOUS
 10
-93.72408
 20
19.16027
 11
-93.579742
 21
19.41027
  0
LINE
  8
ボルト／ビス
  6
CONTINUOUS
 10
-93.72408
 20
19.16027
 11
-93.579742
 21
18.91027
  0
LINE
  8
ボルト／ビス
  6
CONTINUOUS
 10
-93.291068
 20
19.41027
 11
-93.14673
 21
19.16027
  0
LINE
  8
ボルト／ビス
  6
CONTINUOUS
 10
-93.291068
 20
18.91027
 11
-93.14673
 21
19.16027
  0
CIRCLE
  8
ボルト／ビス
  6
CONTINUOUS
 10
-93.435405
 20
19.16027
 40
0.25
  0
LINE
  8
ボルト／ビス
  6
CONTINUOUS
 10
-93.579742
 20
18.91027
 11
-93.291068
 21
18.91027
  0
LINE
  8
ボルト／ビス
  6
CONTINUOUS
 10
-93.291068
 20
19.41027
 11
-93.579742
 21
19.41027
  0
ENDBLK
  0
BLOCK
  2
*GRP_0005
 70
    65
 10
0.0
 20
0.0
  0
INSERT
  2
*GRP_0019
  8
補助線
  6
CONTINUOUS
 10
0.0
 20
0.0
  0
LINE
  8
ボルト／ビス
  6
CONTINUOUS
 10
-93.72408
 20
34.16027
 11
-93.579742
 21
34.41027
  0
LINE
  8
ボルト／ビス
  6
CONTINUOUS
 10
-93.72408
 20
34.16027
 11
-93.579742
 21
33.91027
  0
LINE
  8
ボルト／ビス
  6
CONTINUOUS
 10
-93.291068
 20
34.41027
 11
-93.14673
 21
34.16027
  0
LINE
  8
ボルト／ビス
  6
CONTINUOUS
 10
-93.291068
 20
33.91027
 11
-93.14673
 21
34.16027
  0
CIRCLE
  8
ボルト／ビス
  6
CONTINUOUS
 10
-93.435405
 20
34.16027
 40
0.25
  0
LINE
  8
ボルト／ビス
  6
CONTINUOUS
 10
-93.579742
 20
33.91027
 11
-93.291068
 21
33.91027
  0
LINE
  8
ボルト／ビス
  6
CONTINUOUS
 10
-93.291068
 20
34.41027
 11
-93.579742
 21
34.41027
  0
ENDBLK
  0
BLOCK
  2
*GRP_0006
 70
    65
 10
0.0
 20
0.0
  0
INSERT
  2
*GRP_0020
  8
補助線
  6
CONTINUOUS
 10
0.0
 20
0.0
  0
LINE
  8
ボルト／ビス
  6
CONTINUOUS
 10
-54.935405
 20
10.371595
 11
-55.185405
 21
10.515933
  0
LINE
  8
ボルト／ビス
  6
CONTINUOUS
 10
-54.935405
 20
10.371595
 11
-54.685405
 21
10.515933
  0
LINE
  8
ボルト／ビス
  6
CONTINUOUS
 10
-55.185405
 20
10.804608
 11
-54.935405
 21
10.948945
  0
LINE
  8
ボルト／ビス
  6
CONTINUOUS
 10
-54.685405
 20
10.804608
 11
-54.935405
 21
10.948945
  0
CIRCLE
  8
ボルト／ビス
  6
CONTINUOUS
 10
-54.935405
 20
10.66027
 40
0.25
  0
LINE
  8
ボルト／ビス
  6
CONTINUOUS
 10
-54.685405
 20
10.515933
 11
-54.685405
 21
10.804608
  0
LINE
  8
ボルト／ビス
  6
CONTINUOUS
 10
-55.185405
 20
10.804608
 11
-55.185405
 21
10.515933
  0
ENDBLK
  0
BLOCK
  2
*GRP_0007
 70
    65
 10
0.0
 20
0.0
  0
INSERT
  2
*GRP_0021
  8
補助線
  6
CONTINUOUS
 10
0.0
 20
0.0
  0
LINE
  8
ボルト／ビス
  6
CONTINUOUS
 10
-46.14673
 20
19.16027
 11
-46.291068
 21
19.41027
  0
LINE
  8
ボルト／ビス
  6
CONTINUOUS
 10
-46.14673
 20
19.16027
 11
-46.291068
 21
18.91027
  0
LINE
  8
ボルト／ビス
  6
CONTINUOUS
 10
-46.579742
 20
19.41027
 11
-46.72408
 21
19.16027
  0
LINE
  8
ボルト／ビス
  6
CONTINUOUS
 10
-46.579742
 20
18.91027
 11
-46.72408
 21
19.16027
  0
CIRCLE
  8
ボルト／ビス
  6
CONTINUOUS
 10
-46.435405
 20
19.16027
 40
0.25
  0
LINE
  8
ボルト／ビス
  6
CONTINUOUS
 10
-46.291068
 20
18.91027
 11
-46.579742
 21
18.91027
  0
LINE
  8
ボルト／ビス
  6
CONTINUOUS
 10
-46.579742
 20
19.41027
 11
-46.291068
 21
19.41027
  0
ENDBLK
  0
BLOCK
  2
*GRP_0008
 70
    65
 10
0.0
 20
0.0
  0
INSERT
  2
*GRP_0022
  8
補助線
  6
CONTINUOUS
 10
0.0
 20
0.0
  0
LINE
  8
ボルト／ビス
  6
CONTINUOUS
 10
-46.14673
 20
34.16027
 11
-46.291068
 21
34.41027
  0
LINE
  8
ボルト／ビス
  6
CONTINUOUS
 10
-46.14673
 20
34.16027
 11
-46.291068
 21
33.91027
  0
LINE
  8
ボルト／ビス
  6
CONTINUOUS
 10
-46.579742
 20
34.41027
 11
-46.72408
 21
34.16027
  0
LINE
  8
ボルト／ビス
  6
CONTINUOUS
 10
-46.579742
 20
33.91027
 11
-46.72408
 21
34.16027
  0
CIRCLE
  8
ボルト／ビス
  6
CONTINUOUS
 10
-46.435405
 20
34.16027
 40
0.25
  0
LINE
  8
ボルト／ビス
  6
CONTINUOUS
 10
-46.291068
 20
33.91027
 11
-46.579742
 21
33.91027
  0
LINE
  8
ボルト／ビス
  6
CONTINUOUS
 10
-46.579742
 20
34.41027
 11
-46.291068
 21
34.41027
  0
ENDBLK
  0
BLOCK
  2
*GRP_0009
 70
    65
 10
0.0
 20
0.0
  0
INSERT
  2
*GRP_0023
  8
補助線
  6
CONTINUOUS
 10
0.0
 20
0.0
  0
LINE
  8
ボルト／ビス
  6
CONTINUOUS
 10
-84.935405
 20
57.948945
 11
-84.685405
 21
57.804608
  0
LINE
  8
ボルト／ビス
  6
CONTINUOUS
 10
-84.935405
 20
57.948945
 11
-85.185405
 21
57.804608
  0
LINE
  8
ボルト／ビス
  6
CONTINUOUS
 10
-84.685405
 20
57.515933
 11
-84.935405
 21
57.371595
  0
LINE
  8
ボルト／ビス
  6
CONTINUOUS
 10
-85.185405
 20
57.515933
 11
-84.935405
 21
57.371595
  0
CIRCLE
  8
ボルト／ビス
  6
CONTINUOUS
 10
-84.935405
 20
57.66027
 40
0.25
  0
LINE
  8
ボルト／ビス
  6
CONTINUOUS
 10
-85.185405
 20
57.804608
 11
-85.185405
 21
57.515933
  0
LINE
  8
ボルト／ビス
  6
CONTINUOUS
 10
-84.685405
 20
57.515933
 11
-84.685405
 21
57.804608
  0
ENDBLK
  0
BLOCK
  2
*GRP_0010
 70
    65
 10
0.0
 20
0.0
  0
INSERT
  2
*GRP_0024
  8
補助線
  6
CONTINUOUS
 10
0.0
 20
0.0
  0
LINE
  8
ボルト／ビス
  6
CONTINUOUS
 10
-69.935405
 20
57.948945
 11
-69.685405
 21
57.804608
  0
LINE
  8
ボルト／ビス
  6
CONTINUOUS
 10
-69.935405
 20
57.948945
 11
-70.185405
 21
57.804608
  0
LINE
  8
ボルト／ビス
  6
CONTINUOUS
 10
-69.685405
 20
57.515933
 11
-69.935405
 21
57.371595
  0
LINE
  8
ボルト／ビス
  6
CONTINUOUS
 10
-70.185405
 20
57.515933
 11
-69.935405
 21
57.371595
  0
CIRCLE
  8
ボルト／ビス
  6
CONTINUOUS
 10
-69.935405
 20
57.66027
 40
0.25
  0
LINE
  8
ボルト／ビス
  6
CONTINUOUS
 10
-70.185405
 20
57.804608
 11
-70.185405
 21
57.515933
  0
LINE
  8
ボルト／ビス
  6
CONTINUOUS
 10
-69.685405
 20
57.515933
 11
-69.685405
 21
57.804608
  0
ENDBLK
  0
BLOCK
  2
*GRP_0011
 70
    65
 10
0.0
 20
0.0
  0
INSERT
  2
*GRP_0025
  8
補助線
  6
CONTINUOUS
 10
0.0
 20
0.0
  0
LINE
  8
ボルト／ビス
  6
CONTINUOUS
 10
-93.72408
 20
49.16027
 11
-93.579742
 21
48.91027
  0
LINE
  8
ボルト／ビス
  6
CONTINUOUS
 10
-93.72408
 20
49.16027
 11
-93.579742
 21
49.41027
  0
LINE
  8
ボルト／ビス
  6
CONTINUOUS
 10
-93.291068
 20
48.91027
 11
-93.14673
 21
49.16027
  0
LINE
  8
ボルト／ビス
  6
CONTINUOUS
 10
-93.291068
 20
49.41027
 11
-93.14673
 21
49.16027
  0
CIRCLE
  8
ボルト／ビス
  6
CONTINUOUS
 10
-93.435405
 20
49.16027
 40
0.25
  0
LINE
  8
ボルト／ビス
  6
CONTINUOUS
 10
-93.579742
 20
49.41027
 11
-93.291068
 21
49.41027
  0
LINE
  8
ボルト／ビス
  6
CONTINUOUS
 10
-93.291068
 20
48.91027
 11
-93.579742
 21
48.91027
  0
ENDBLK
  0
BLOCK
  2
*GRP_0012
 70
    65
 10
0.0
 20
0.0
  0
INSERT
  2
*GRP_0026
  8
補助線
  6
CONTINUOUS
 10
0.0
 20
0.0
  0
LINE
  8
ボルト／ビス
  6
CONTINUOUS
 10
-54.935405
 20
57.948945
 11
-55.185405
 21
57.804608
  0
LINE
  8
ボルト／ビス
  6
CONTINUOUS
 10
-54.935405
 20
57.948945
 11
-54.685405
 21
57.804608
  0
LINE
  8
ボルト／ビス
  6
CONTINUOUS
 10
-55.185405
 20
57.515933
 11
-54.935405
 21
57.371595
  0
LINE
  8
ボルト／ビス
  6
CONTINUOUS
 10
-54.685405
 20
57.515933
 11
-54.935405
 21
57.371595
  0
CIRCLE
  8
ボルト／ビス
  6
CONTINUOUS
 10
-54.935405
 20
57.66027
 40
0.25
  0
LINE
  8
ボルト／ビス
  6
CONTINUOUS
 10
-54.685405
 20
57.804608
 11
-54.685405
 21
57.515933
  0
LINE
  8
ボルト／ビス
  6
CONTINUOUS
 10
-55.185405
 20
57.515933
 11
-55.185405
 21
57.804608
  0
ENDBLK
  0
BLOCK
  2
*GRP_0013
 70
    65
 10
0.0
 20
0.0
  0
INSERT
  2
*GRP_0027
  8
補助線
  6
CONTINUOUS
 10
0.0
 20
0.0
  0
LINE
  8
ボルト／ビス
  6
CONTINUOUS
 10
-46.14673
 20
49.16027
 11
-46.291068
 21
48.91027
  0
LINE
  8
ボルト／ビス
  6
CONTINUOUS
 10
-46.14673
 20
49.16027
 11
-46.291068
 21
49.41027
  0
LINE
  8
ボルト／ビス
  6
CONTINUOUS
 10
-46.579742
 20
48.91027
 11
-46.72408
 21
49.16027
  0
LINE
  8
ボルト／ビス
  6
CONTINUOUS
 10
-46.579742
 20
49.41027
 11
-46.72408
 21
49.16027
  0
CIRCLE
  8
ボルト／ビス
  6
CONTINUOUS
 10
-46.435405
 20
49.16027
 40
0.25
  0
LINE
  8
ボルト／ビス
  6
CONTINUOUS
 10
-46.291068
 20
49.41027
 11
-46.579742
 21
49.41027
  0
LINE
  8
ボルト／ビス
  6
CONTINUOUS
 10
-46.579742
 20
48.91027
 11
-46.291068
 21
48.91027
  0
ENDBLK
  0
BLOCK
  2
*DIM_0014
 70
    65
 10
0.0
 20
0.0
  0
LINE
  8
寸法
  6
BYBLOCK
 62
     0
 10
-68.935405
 20
-39.779985
 11
-25.043632
 21
-39.779985
  0
LINE
  8
寸法
  6
BYBLOCK
 62
     0
 10
-25.043632
 20
-52.279985
 11
-25.043632
 21
-39.779985
  0
POINT
  8
寸法
 62
     0
 10
-25.043632
 20
-52.279985
  0
POINT
  8
寸法
 62
     0
 10
-25.043632
 20
-39.779985
  0
TEXT
  7
TextStyle03
  8
寸法
  6
CONTINUOUS
 62
     0
 10
-25.45
 20
-48.4875
  1
250
 40
3.0
 50
90.0
 72
     5
 11
-25.45
 21
-43.6125
  0
ENDBLK
  0
BLOCK
  2
*DIM_0015
 70
    65
 10
0.0
 20
0.0
  0
LINE
  8
寸法
  6
BYBLOCK
 62
     0
 10
-92.435405
 20
-16.126177
 11
-47.435405
 21
-16.126177
  0
POINT
  8
寸法
 62
     0
 10
-92.435405
 20
-16.126177
  0
POINT
  8
寸法
 62
     0
 10
-47.435405
 20
-16.126177
  0
TEXT
  7
TextStyle03
  8
寸法
  6
CONTINUOUS
 62
     0
 10
-80.85
 20
-15.775
  1
呼称寸法　900
 40
3.0
 72
     5
 11
-59.1
 21
-15.775
  0
ENDBLK
  0
BLOCK
  2
*GRP_0016
 70
    65
 10
0.0
 20
0.0
  0
LINE
  8
補助線
  6
BYBLOCK
 62
     0
 10
-85.060405
 20
10.66027
 11
-84.810405
 21
10.66027
  0
LINE
  8
補助線
  6
BYBLOCK
 62
     0
 10
-84.935405
 20
10.53527
 11
-84.935405
 21
10.78527
  0
ENDBLK
  0
BLOCK
  2
*GRP_0017
 70
    65
 10
0.0
 20
0.0
  0
LINE
  8
補助線
  6
BYBLOCK
 62
     0
 10
-70.060405
 20
10.66027
 11
-69.810405
 21
10.66027
  0
LINE
  8
補助線
  6
BYBLOCK
 62
     0
 10
-69.935405
 20
10.53527
 11
-69.935405
 21
10.78527
  0
ENDBLK
  0
BLOCK
  2
*GRP_0018
 70
    65
 10
0.0
 20
0.0
  0
LINE
  8
補助線
  6
BYBLOCK
 62
     0
 10
-93.435405
 20
19.03527
 11
-93.435405
 21
19.28527
  0
LINE
  8
補助線
  6
BYBLOCK
 62
     0
 10
-93.560405
 20
19.16027
 11
-93.310405
 21
19.16027
  0
ENDBLK
  0
BLOCK
  2
*GRP_0019
 70
    65
 10
0.0
 20
0.0
  0
LINE
  8
補助線
  6
BYBLOCK
 62
     0
 10
-93.435405
 20
34.03527
 11
-93.435405
 21
34.28527
  0
LINE
  8
補助線
  6
BYBLOCK
 62
     0
 10
-93.560405
 20
34.16027
 11
-93.310405
 21
34.16027
  0
ENDBLK
  0
BLOCK
  2
*GRP_0020
 70
    65
 10
0.0
 20
0.0
  0
LINE
  8
補助線
  6
BYBLOCK
 62
     0
 10
-54.810405
 20
10.66027
 11
-55.060405
 21
10.66027
  0
LINE
  8
補助線
  6
BYBLOCK
 62
     0
 10
-54.935405
 20
10.53527
 11
-54.935405
 21
10.78527
  0
ENDBLK
  0
BLOCK
  2
*GRP_0021
 70
    65
 10
0.0
 20
0.0
  0
LINE
  8
補助線
  6
BYBLOCK
 62
     0
 10
-46.435405
 20
19.03527
 11
-46.435405
 21
19.28527
  0
LINE
  8
補助線
  6
BYBLOCK
 62
     0
 10
-46.310405
 20
19.16027
 11
-46.560405
 21
19.16027
  0
ENDBLK
  0
BLOCK
  2
*GRP_0022
 70
    65
 10
0.0
 20
0.0
  0
LINE
  8
補助線
  6
BYBLOCK
 62
     0
 10
-46.435405
 20
34.03527
 11
-46.435405
 21
34.28527
  0
LINE
  8
補助線
  6
BYBLOCK
 62
     0
 10
-46.310405
 20
34.16027
 11
-46.560405
 21
34.16027
  0
ENDBLK
  0
BLOCK
  2
*GRP_0023
 70
    65
 10
0.0
 20
0.0
  0
LINE
  8
補助線
  6
BYBLOCK
 62
     0
 10
-85.060405
 20
57.66027
 11
-84.810405
 21
57.66027
  0
LINE
  8
補助線
  6
BYBLOCK
 62
     0
 10
-84.935405
 20
57.78527
 11
-84.935405
 21
57.53527
  0
ENDBLK
  0
BLOCK
  2
*GRP_0024
 70
    65
 10
0.0
 20
0.0
  0
LINE
  8
補助線
  6
BYBLOCK
 62
     0
 10
-70.060405
 20
57.66027
 11
-69.810405
 21
57.66027
  0
LINE
  8
補助線
  6
BYBLOCK
 62
     0
 10
-69.935405
 20
57.78527
 11
-69.935405
 21
57.53527
  0
ENDBLK
  0
BLOCK
  2
*GRP_0025
 70
    65
 10
0.0
 20
0.0
  0
LINE
  8
補助線
  6
BYBLOCK
 62
     0
 10
-93.435405
 20
49.28527
 11
-93.435405
 21
49.03527
  0
LINE
  8
補助線
  6
BYBLOCK
 62
     0
 10
-93.560405
 20
49.16027
 11
-93.310405
 21
49.16027
  0
ENDBLK
  0
BLOCK
  2
*GRP_0026
 70
    65
 10
0.0
 20
0.0
  0
LINE
  8
補助線
  6
BYBLOCK
 62
     0
 10
-54.810405
 20
57.66027
 11
-55.060405
 21
57.66027
  0
LINE
  8
補助線
  6
BYBLOCK
 62
     0
 10
-54.935405
 20
57.78527
 11
-54.935405
 21
57.53527
  0
ENDBLK
  0
BLOCK
  2
*GRP_0027
 70
    65
 10
0.0
 20
0.0
  0
LINE
  8
補助線
  6
BYBLOCK
 62
     0
 10
-46.435405
 20
49.28527
 11
-46.435405
 21
49.03527
  0
LINE
  8
補助線
  6
BYBLOCK
 62
     0
 10
-46.310405
 20
49.16027
 11
-46.560405
 21
49.16027
  0
ENDBLK
  0
BLOCK
  2
*DIM_0028
 70
    65
 10
0.0
 20
0.0
  0
LINE
  8
寸法
  6
BYBLOCK
 62
     0
 10
-84.935405
 20
57.66027
 11
-84.935405
 21
75.599285
  0
LINE
  8
寸法
  6
BYBLOCK
 62
     0
 10
-54.935405
 20
57.66027
 11
-54.935405
 21
75.599285
  0
LINE
  8
寸法
  6
BYBLOCK
 62
     0
 10
-84.935405
 20
75.599285
 11
-54.935405
 21
75.599285
  0
POINT
  8
寸法
 62
     0
 10
-84.935405
 20
75.599285
  0
POINT
  8
寸法
 62
     0
 10
-54.935405
 20
75.599285
  0
TEXT
  7
TextStyle03
  8
寸法
  6
CONTINUOUS
 62
     0
 10
-72.3875
 20
75.95
  1
600
 40
3.0
 72
     5
 11
-67.5125
 21
75.95
  0
ENDBLK
  0
BLOCK
  2
*DIM_0029
 70
    65
 10
0.0
 20
0.0
  0
LINE
  8
寸法
  6
BYBLOCK
 62
     0
 10
-93.435405
 20
56.66027
 11
-116.343648
 21
56.66027
  0
LINE
  8
寸法
  6
BYBLOCK
 62
     0
 10
-93.435405
 20
34.16027
 11
-116.343648
 21
34.16027
  0
LINE
  8
寸法
  6
BYBLOCK
 62
     0
 10
-116.343648
 20
56.66027
 11
-116.343648
 21
34.16027
  0
POINT
  8
寸法
 62
     0
 10
-116.343648
 20
56.66027
  0
POINT
  8
寸法
 62
     0
 10
-116.343648
 20
34.16027
  0
TEXT
  7
TextStyle03
  8
寸法
  6
CONTINUOUS
 62
     0
 10
-116.725
 20
42.9375
  1
450
 40
3.0
 50
90.0
 72
     5
 11
-116.725
 21
47.8125
  0
ENDBLK
  0
BLOCK
  2
*DIM_0030
 70
    65
 10
0.0
 20
0.0
  0
LINE
  8
寸法
  6
BYBLOCK
 62
     0
 10
-93.435405
 20
11.66027
 11
-116.343648
 21
11.66027
  0
LINE
  8
寸法
  6
BYBLOCK
 62
     0
 10
-116.343648
 20
34.16027
 11
-116.343648
 21
11.66027
  0
POINT
  8
寸法
 62
     0
 10
-116.343648
 20
11.66027
  0
TEXT
  7
TextStyle03
  8
寸法
  6
CONTINUOUS
 62
     0
 10
-116.725
 20
20.4375
  1
450
 40
3.0
 50
90.0
 72
     5
 11
-116.725
 21
25.3125
  0
ENDBLK
  0
BLOCK
  2
*DIM_0031
 70
    65
 10
0.0
 20
0.0
  0
LINE
  8
寸法
  6
BYBLOCK
 62
     0
 10
-43.935405
 20
-52.279985
 11
-25.043632
 21
-52.279985
  0
LINE
  8
寸法
  6
BYBLOCK
 62
     0
 10
-41.935337
 20
-56.579985
 11
-25.043632
 21
-56.579985
  0
LINE
  8
寸法
  6
BYBLOCK
 62
     0
 10
-25.043632
 20
-52.279985
 11
-25.043632
 21
-56.579985
  0
POINT
  8
寸法
 62
     0
 10
-25.043632
 20
-52.279985
  0
POINT
  8
寸法
 62
     0
 10
-25.043632
 20
-56.579985
  0
TEXT
  7
TextStyle03
  8
寸法
  6
CONTINUOUS
 62
     0
 10
-25.425
 20
-56.04375
  1
86
 40
3.0
 50
90.0
 72
     5
 11
-25.425
 21
-52.85625
  0
ENDBLK
  0
BLOCK
  2
*DIM_0032
 70
    65
 10
0.0
 20
0.0
  0
LINE
  8
寸法
  6
BYBLOCK
 62
     0
 10
-42.935337
 20
-54.82999
 11
-42.935337
 21
-16.126177
  0
LINE
  8
寸法
  6
BYBLOCK
 62
     0
 10
-47.435405
 20
-16.126177
 11
-42.935337
 21
-16.126177
  0
POINT
  8
寸法
 62
     0
 10
-47.435405
 20
-16.126177
  0
POINT
  8
寸法
 62
     0
 10
-42.935337
 20
-16.126177
  0
TEXT
  7
TextStyle03
  8
寸法
  6
CONTINUOUS
 62
     0
 10
-46.79375
 20
-15.775
  1
90
 40
3.0
 72
     5
 11
-43.60625
 21
-15.775
  0
ENDBLK
  0
BLOCK
  2
*DIM_0033
 70
    65
 10
0.0
 20
0.0
  0
LINE
  8
寸法
  6
BYBLOCK
 62
     0
 10
-96.935473
 20
-54.82999
 11
-96.935473
 21
-16.126177
  0
LINE
  8
寸法
  6
BYBLOCK
 62
     0
 10
-92.435405
 20
-16.126177
 11
-96.935473
 21
-16.126177
  0
POINT
  8
寸法
 62
     0
 10
-92.435405
 20
-16.126177
  0
POINT
  8
寸法
 62
     0
 10
-96.935473
 20
-16.126177
  0
TEXT
  7
TextStyle03
  8
寸法
  6
CONTINUOUS
 62
     0
 10
-96.29375
 20
-15.775
  1
90
 40
3.0
 72
     5
 11
-93.10625
 21
-15.775
  0
ENDBLK
  0
BLOCK
  2
*DIM_0034
 70
    65
 10
0.0
 20
0.0
  0
LINE
  8
寸法
  6
BYBLOCK
 62
     0
 10
170.304785
 20
74.557477
 11
179.967098
 21
74.557477
  0
LINE
  8
寸法
  6
BYBLOCK
 62
     0
 10
170.304785
 20
30.557477
 11
179.967098
 21
30.557477
  0
LINE
  8
寸法
  6
BYBLOCK
 62
     0
 10
179.967098
 20
74.557477
 11
179.967098
 21
30.557477
  0
POINT
  8
寸法
 62
     0
 10
179.967098
 20
74.557477
  0
POINT
  8
寸法
 62
     0
 10
179.967098
 20
30.557477
  0
TEXT
  7
TextStyle03
  8
寸法
  6
CONTINUOUS
 62
     0
 10
179.575
 20
50.1125
  1
880
 40
3.0
 50
90.0
 72
     5
 11
179.575
 21
54.9875
  0
ENDBLK
  0
BLOCK
  2
*DIM_0035
 70
    65
 10
0.0
 20
0.0
  0
LINE
  8
寸法
  6
BYBLOCK
 62
     0
 10
123.304785
 20
77.557477
 11
123.304785
 21
85.30483
  0
LINE
  8
寸法
  6
BYBLOCK
 62
     0
 10
167.304785
 20
77.557477
 11
167.304785
 21
85.30483
  0
LINE
  8
寸法
  6
BYBLOCK
 62
     0
 10
123.304785
 20
85.30483
 11
167.304785
 21
85.30483
  0
POINT
  8
寸法
 62
     0
 10
123.304785
 20
85.30483
  0
POINT
  8
寸法
 62
     0
 10
167.304785
 20
85.30483
  0
TEXT
  7
TextStyle03
  8
寸法
  6
CONTINUOUS
 62
     0
 10
142.8625
 20
85.675
  1
880
 40
3.0
 72
     5
 11
147.7375
 21
85.675
  0
ENDBLK
  0
BLOCK
  2
*GRP_0036
 70
    65
 10
0.0
 20
0.0
  0
LINE
  8
ボルト／ビス
  6
CONTINUOUS
 10
-93.435405
 20
-52.279987
 11
-93.435405
 21
-51.579987
  0
LINE
  8
ボルト／ビス
  6
CONTINUOUS
 10
-93.985405
 20
-52.279987
 11
-93.985405
 21
-52.179987
  0
LINE
  8
ボルト／ビス
  6
CONTINUOUS
 10
-93.985405
 20
-52.179987
 11
-92.885405
 21
-52.179987
  0
LINE
  8
ボルト／ビス
  6
CONTINUOUS
 10
-92.885405
 20
-52.179987
 11
-92.885405
 21
-52.279987
  0
LINE
  8
ボルト／ビス
  6
CONTINUOUS
 10
-93.985405
 20
-52.279987
 11
-92.885405
 21
-52.279987
  0
LINE
  8
ボルト／ビス
  6
CONTINUOUS
 10
-93.885405
 20
-52.129987
 11
-93.885405
 21
-52.179987
  0
LINE
  8
ボルト／ビス
  6
CONTINUOUS
 10
-93.885405
 20
-52.129987
 11
-92.985405
 21
-52.129987
  0
LINE
  8
ボルト／ビス
  6
CONTINUOUS
 10
-92.985405
 20
-52.129987
 11
-92.985405
 21
-52.179987
  0
LINE
  8
ボルト／ビス
  6
CONTINUOUS
 62
    64
 10
-93.675968
 20
-51.829987
 11
-93.72408
 21
-51.8475
  0
ARC
  8
ボルト／ビス
  6
CONTINUOUS
 62
    64
 10
-93.65191
 20
-51.987456
 40
0.157468
 50
62.721967
 51
90.0
  0
ARC
  8
ボルト／ビス
  6
CONTINUOUS
 62
    64
 10
-93.435404
 20
-52.433592
 40
0.603603
 50
76.165002
 51
103.834985
  0
LINE
  8
ボルト／ビス
  6
CONTINUOUS
 62
    64
 10
-93.194842
 20
-51.829987
 11
-93.14673
 21
-51.8475
  0
ARC
  8
ボルト／ビス
  6
CONTINUOUS
 62
    64
 10
-93.218897
 20
-51.987456
 40
0.157468
 50
90.0
 51
117.278033
  0
LINE
  8
ボルト／ビス
  6
CONTINUOUS
 62
    64
 10
-93.675968
 20
-51.829987
 11
-93.194842
 21
-51.829987
  0
LINE
  8
ボルト／ビス
  6
CONTINUOUS
 62
    64
 10
-93.14673
 20
-51.8475
 11
-93.14673
 21
-52.029987
  0
LINE
  8
ボルト／ビス
  6
CONTINUOUS
 62
    64
 10
-93.291068
 20
-51.8475
 11
-93.291068
 21
-52.029987
  0
LINE
  8
ボルト／ビス
  6
CONTINUOUS
 62
    64
 10
-93.72408
 20
-51.8475
 11
-93.72408
 21
-52.029987
  0
LINE
  8
ボルト／ビス
  6
CONTINUOUS
 62
    64
 10
-93.579742
 20
-51.8475
 11
-93.579742
 21
-52.029987
  0
LINE
  8
ボルト／ビス
  6
CONTINUOUS
 10
-93.72408
 20
-52.029987
 11
-93.14673
 21
-52.029987
  0
LINE
  8
ボルト／ビス
  6
CONTINUOUS
 10
-93.735405
 20
-52.029987
 11
-93.735405
 21
-52.129987
  0
LINE
  8
ボルト／ビス
  6
CONTINUOUS
 10
-93.735405
 20
-52.029987
 11
-93.135405
 21
-52.029987
  0
LINE
  8
ボルト／ビス
  6
CONTINUOUS
 10
-93.135405
 20
-52.029987
 11
-93.135405
 21
-52.129987
  0
ENDBLK
  0
BLOCK
  2
*GRP_0037
 70
    65
 10
0.0
 20
0.0
  0
LINE
  8
ボルト／ビス
  6
CONTINUOUS
 10
-46.435405
 20
-52.279987
 11
-46.435405
 21
-51.579987
  0
LINE
  8
ボルト／ビス
  6
CONTINUOUS
 10
-46.985405
 20
-52.279987
 11
-46.985405
 21
-52.179987
  0
LINE
  8
ボルト／ビス
  6
CONTINUOUS
 10
-46.985405
 20
-52.179987
 11
-45.885405
 21
-52.179987
  0
LINE
  8
ボルト／ビス
  6
CONTINUOUS
 10
-45.885405
 20
-52.179987
 11
-45.885405
 21
-52.279987
  0
LINE
  8
ボルト／ビス
  6
CONTINUOUS
 10
-46.985405
 20
-52.279987
 11
-45.885405
 21
-52.279987
  0
LINE
  8
ボルト／ビス
  6
CONTINUOUS
 10
-46.885405
 20
-52.129987
 11
-46.885405
 21
-52.179987
  0
LINE
  8
ボルト／ビス
  6
CONTINUOUS
 10
-46.885405
 20
-52.129987
 11
-45.985405
 21
-52.129987
  0
LINE
  8
ボルト／ビス
  6
CONTINUOUS
 10
-45.985405
 20
-52.129987
 11
-45.985405
 21
-52.179987
  0
LINE
  8
ボルト／ビス
  6
CONTINUOUS
 62
    64
 10
-46.675968
 20
-51.829987
 11
-46.72408
 21
-51.8475
  0
ARC
  8
ボルト／ビス
  6
CONTINUOUS
 62
    64
 10
-46.65191
 20
-51.987456
 40
0.157468
 50
62.721967
 51
90.0
  0
ARC
  8
ボルト／ビス
  6
CONTINUOUS
 62
    64
 10
-46.435404
 20
-52.433592
 40
0.603603
 50
76.165002
 51
103.834985
  0
LINE
  8
ボルト／ビス
  6
CONTINUOUS
 62
    64
 10
-46.194842
 20
-51.829987
 11
-46.14673
 21
-51.8475
  0
ARC
  8
ボルト／ビス
  6
CONTINUOUS
 62
    64
 10
-46.218897
 20
-51.987456
 40
0.157468
 50
90.0
 51
117.278033
  0
LINE
  8
ボルト／ビス
  6
CONTINUOUS
 62
    64
 10
-46.675968
 20
-51.829987
 11
-46.194842
 21
-51.829987
  0
LINE
  8
ボルト／ビス
  6
CONTINUOUS
 62
    64
 10
-46.14673
 20
-51.8475
 11
-46.14673
 21
-52.029987
  0
LINE
  8
ボルト／ビス
  6
CONTINUOUS
 62
    64
 10
-46.291068
 20
-51.8475
 11
-46.291068
 21
-52.029987
  0
LINE
  8
ボルト／ビス
  6
CONTINUOUS
 62
    64
 10
-46.72408
 20
-51.8475
 11
-46.72408
 21
-52.029987
  0
LINE
  8
ボルト／ビス
  6
CONTINUOUS
 62
    64
 10
-46.579742
 20
-51.8475
 11
-46.579742
 21
-52.029987
  0
LINE
  8
ボルト／ビス
  6
CONTINUOUS
 10
-46.72408
 20
-52.029987
 11
-46.14673
 21
-52.029987
  0
LINE
  8
ボルト／ビス
  6
CONTINUOUS
 10
-46.735405
 20
-52.029987
 11
-46.735405
 21
-52.129987
  0
LINE
  8
ボルト／ビス
  6
CONTINUOUS
 10
-46.735405
 20
-52.029987
 11
-46.135405
 21
-52.029987
  0
LINE
  8
ボルト／ビス
  6
CONTINUOUS
 10
-46.135405
 20
-52.029987
 11
-46.135405
 21
-52.129987
  0
ENDBLK
  0
ENDSEC
  0
SECTION
  2
ENTITIES
  0
POLYLINE
  8
通り芯
  6
CONTINUOUS
 66
     1
 70
     1
  0
VERTEX
  8
通り芯
 10
-210.0
 20
-148.5
  0
VERTEX
  8
通り芯
 10
210.0
 20
-148.5
  0
VERTEX
  8
通り芯
 10
210.0
 20
148.5
  0
VERTEX
  8
通り芯
 10
-210.0
 20
148.5
  0
SEQEND
  0
INSERT
  2
*GRP_0001
  8
型材断面
  6
CONTINUOUS
 10
0.0
 20
0.0
  0
LINE
  8
型材断面
  6
DASHDOT
 10
-69.935405
 20
-67.794
 11
-69.935405
 21
56.66027
  0
LINE
  8
型材断面
  6
DASHDOT
 10
-92.435405
 20
-67.794
 11
-92.435405
 21
56.66027
  0
LINE
  8
型材断面
  6
DASHDOT
 10
-47.435405
 20
-67.794
 11
-47.435405
 21
56.66027
  0
LINE
  8
型材断面
  6
DASHDOT
 10
-92.435405
 20
56.66027
 11
-47.435405
 21
56.66027
  0
LINE
  8
型材断面
  6
DASHDOT
 10
-92.435405
 20
34.16027
 11
-47.435405
 21
34.16027
  0
LINE
  8
型材断面
  6
DASHDOT
 10
-92.435405
 20
11.66027
 11
-47.435405
 21
11.66027
  0
LINE
  8
型材断面
  6
CONTINUOUS
 10
-69.935405
 20
64.684145
 11
-72.17885
 21
68.569905
  0
LINE
  8
型材断面
  6
CONTINUOUS
 10
-69.935405
 20
64.684145
 11
-67.69196
 21
68.569905
  0
LINE
  8
型材断面
  6
CONTINUOUS
 10
-67.69196
 20
68.569905
 11
-72.17885
 21
68.569905
  0
LINE
  8
型材断面
  6
CONTINUOUS
 10
-69.935405
 20
3.636395
 11
-72.17885
 21
-0.249365
  0
LINE
  8
型材断面
  6
CONTINUOUS
 10
-69.935405
 20
3.636395
 11
-67.69196
 21
-0.249365
  0
LINE
  8
型材断面
  6
CONTINUOUS
 10
-67.69196
 20
-0.249365
 11
-72.17885
 21
-0.249365
  0
LINE
  8
型材断面
  6
CONTINUOUS
 10
-39.41153
 20
34.16027
 11
-35.52577
 21
36.403715
  0
LINE
  8
型材断面
  6
CONTINUOUS
 10
-39.41153
 20
34.16027
 11
-35.52577
 21
31.916825
  0
LINE
  8
型材断面
  6
CONTINUOUS
 10
-35.52577
 20
31.916825
 11
-35.52577
 21
36.403715
  0
LINE
  8
型材断面
  6
CONTINUOUS
 10
-100.45928
 20
34.16027
 11
-104.34504
 21
36.403715
  0
LINE
  8
型材断面
  6
CONTINUOUS
 10
-100.45928
 20
34.16027
 11
-104.34504
 21
31.916825
  0
LINE
  8
型材断面
  6
CONTINUOUS
 10
-104.34504
 20
31.916825
 11
-104.34504
 21
36.403715
  0
LINE
  8
型材断面
  6
CONTINUOUS
 10
-7.342083
 20
5.196457
 11
-9.585527
 21
1.310698
  0
LINE
  8
型材断面
  6
CONTINUOUS
 10
-7.342083
 20
5.196457
 11
-5.098638
 21
1.310698
  0
LINE
  8
型材断面
  6
CONTINUOUS
 10
-5.098638
 20
1.310698
 11
-9.585527
 21
1.310698
  0
LINE
  8
型材断面
  6
CONTINUOUS
 10
-16.375962
 20
-0.097195
 11
36.280717
 21
-0.097195
  0
LINE
  8
型材断面
  6
CONTINUOUS
 10
-16.375962
 20
-6.268485
 11
36.280717
 21
-6.268485
  0
LINE
  8
型材断面
  6
CONTINUOUS
 62
    47
 10
-96.935473
 20
-56.579985
 11
-96.935473
 21
-55.82999
  0
LINE
  8
型材断面
  6
CONTINUOUS
 62
    47
 10
-96.935473
 20
-55.82999
 11
-92.535475
 21
-55.084217
  0
LINE
  8
型材断面
  6
CONTINUOUS
 62
    47
 10
-96.185485
 20
-56.579985
 11
-96.185485
 21
-57.329985
  0
LINE
  8
型材断面
  6
CONTINUOUS
 62
    47
 10
-92.535475
 20
-55.084217
 11
-92.535475
 21
-53.779985
  0
LINE
  8
型材断面
  6
CONTINUOUS
 10
-92.535475
 20
-55.084217
 11
-69.935405
 21
-55.084217
  0
LINE
  8
型材断面
  6
CONTINUOUS
 10
-96.935473
 20
-55.82999
 11
-69.935405
 21
-55.82999
  0
LINE
  8
型材断面
  6
CONTINUOUS
 62
    47
 10
-96.935473
 20
-56.579985
 11
-69.935405
 21
-56.579985
  0
LINE
  8
型材断面
  6
CONTINUOUS
 10
-96.185487
 20
-57.329985
 11
-69.935405
 21
-57.329985
  0
LINE
  8
型材断面
  6
CONTINUOUS
 62
    47
 10
-42.935337
 20
-56.579985
 11
-42.935337
 21
-55.82999
  0
LINE
  8
型材断面
  6
CONTINUOUS
 62
    47
 10
-42.935337
 20
-55.82999
 11
-47.335335
 21
-55.084217
  0
LINE
  8
型材断面
  6
CONTINUOUS
 62
    47
 10
-43.685325
 20
-56.579985
 11
-43.685325
 21
-57.329985
  0
LINE
  8
型材断面
  6
CONTINUOUS
 62
    47
 10
-47.335335
 20
-55.084217
 11
-47.335335
 21
-53.779985
  0
LINE
  8
型材断面
  6
CONTINUOUS
 10
-47.335335
 20
-55.084217
 11
-69.935405
 21
-55.084217
  0
LINE
  8
型材断面
  6
CONTINUOUS
 10
-42.935337
 20
-55.82999
 11
-69.935405
 21
-55.82999
  0
LINE
  8
型材断面
  6
CONTINUOUS
 62
    47
 10
-42.935337
 20
-56.579985
 11
-69.935405
 21
-56.579985
  0
LINE
  8
型材断面
  6
CONTINUOUS
 10
-43.685322
 20
-57.329985
 11
-69.935405
 21
-57.329985
  0
LINE
  8
型材断面
  6
CONTINUOUS
 10
-44.335405
 20
8.56027
 11
-42.935337
 21
7.160203
  0
LINE
  8
型材断面
  6
CONTINUOUS
 10
-42.935337
 20
7.160203
 11
-42.935337
 21
34.16027
  0
LINE
  8
型材断面
  6
CONTINUOUS
 10
-42.935337
 20
7.160203
 11
-69.935405
 21
7.160203
  0
LINE
  8
型材断面
  6
CONTINUOUS
 10
-44.335405
 20
59.76027
 11
-42.935337
 21
61.160338
  0
LINE
  8
型材断面
  6
CONTINUOUS
 10
-42.935337
 20
61.160338
 11
-42.935337
 21
34.16027
  0
LINE
  8
型材断面
  6
CONTINUOUS
 10
-42.935337
 20
61.160338
 11
-69.935405
 21
61.160338
  0
LINE
  8
型材断面
  6
CONTINUOUS
 10
-95.535405
 20
8.56027
 11
-96.935473
 21
7.160203
  0
LINE
  8
型材断面
  6
CONTINUOUS
 10
-96.935473
 20
7.160203
 11
-96.935473
 21
34.16027
  0
LINE
  8
型材断面
  6
CONTINUOUS
 10
-96.935473
 20
7.160203
 11
-69.935405
 21
7.160203
  0
LINE
  8
型材断面
  6
CONTINUOUS
 10
-95.535405
 20
59.76027
 11
-96.935473
 21
61.160338
  0
LINE
  8
型材断面
  6
CONTINUOUS
 10
-96.935473
 20
61.160338
 11
-96.935473
 21
34.16027
  0
LINE
  8
型材断面
  6
CONTINUOUS
 10
-96.935473
 20
61.160338
 11
-69.935405
 21
61.160338
  0
LINE
  8
ガラス
  6
CONTINUOUS
 10
123.304785
 20
30.557477
 11
123.304785
 21
74.557477
  0
LINE
  8
ガラス
  6
CONTINUOUS
 10
167.304785
 20
74.557477
 11
123.304785
 21
74.557477
  0
LINE
  8
ガラス
  6
CONTINUOUS
 10
123.304785
 20
30.557477
 11
167.304785
 21
30.557477
  0
LINE
  8
ガラス
  6
CONTINUOUS
 10
167.304785
 20
74.557477
 11
167.304785
 21
30.557477
  0
CIRCLE
  8
ボルト／ビス
  6
CONTINUOUS
 10
-84.935405
 20
10.66027
 40
0.288675
  0
CIRCLE
  8
ボルト／ビス
  6
CONTINUOUS
 10
-84.935405
 20
10.66027
 40
0.455885
  0
CIRCLE
  8
ボルト／ビス
  6
CONTINUOUS
 10
-69.935405
 20
10.66027
 40
0.288675
  0
CIRCLE
  8
ボルト／ビス
  6
CONTINUOUS
 10
-69.935405
 20
10.66027
 40
0.455885
  0
CIRCLE
  8
ボルト／ビス
  6
CONTINUOUS
 10
-93.435405
 20
19.16027
 40
0.288675
  0
CIRCLE
  8
ボルト／ビス
  6
CONTINUOUS
 10
-93.435405
 20
19.16027
 40
0.455885
  0
CIRCLE
  8
ボルト／ビス
  6
CONTINUOUS
 10
-93.435405
 20
34.16027
 40
0.288675
  0
CIRCLE
  8
ボルト／ビス
  6
CONTINUOUS
 10
-93.435405
 20
34.16027
 40
0.455885
  0
CIRCLE
  8
ボルト／ビス
  6
CONTINUOUS
 10
-54.935405
 20
10.66027
 40
0.288675
  0
CIRCLE
  8
ボルト／ビス
  6
CONTINUOUS
 10
-54.935405
 20
10.66027
 40
0.455885
  0
CIRCLE
  8
ボルト／ビス
  6
CONTINUOUS
 10
-46.435405
 20
19.16027
 40
0.288675
  0
CIRCLE
  8
ボルト／ビス
  6
CONTINUOUS
 10
-46.435405
 20
19.16027
 40
0.455885
  0
CIRCLE
  8
ボルト／ビス
  6
CONTINUOUS
 10
-46.435405
 20
34.16027
 40
0.288675
  0
CIRCLE
  8
ボルト／ビス
  6
CONTINUOUS
 10
-46.435405
 20
34.16027
 40
0.455885
  0
CIRCLE
  8
ボルト／ビス
  6
CONTINUOUS
 10
-84.935405
 20
57.66027
 40
0.288675
  0
CIRCLE
  8
ボルト／ビス
  6
CONTINUOUS
 10
-84.935405
 20
57.66027
 40
0.455885
  0
CIRCLE
  8
ボルト／ビス
  6
CONTINUOUS
 10
-69.935405
 20
57.66027
 40
0.288675
  0
CIRCLE
  8
ボルト／ビス
  6
CONTINUOUS
 10
-69.935405
 20
57.66027
 40
0.455885
  0
CIRCLE
  8
ボルト／ビス
  6
CONTINUOUS
 10
-93.435405
 20
49.16027
 40
0.288675
  0
CIRCLE
  8
ボルト／ビス
  6
CONTINUOUS
 10
-93.435405
 20
49.16027
 40
0.455885
  0
CIRCLE
  8
ボルト／ビス
  6
CONTINUOUS
 10
-54.935405
 20
57.66027
 40
0.288675
  0
CIRCLE
  8
ボルト／ビス
  6
CONTINUOUS
 10
-54.935405
 20
57.66027
 40
0.455885
  0
CIRCLE
  8
ボルト／ビス
  6
CONTINUOUS
 10
-46.435405
 20
49.16027
 40
0.288675
  0
CIRCLE
  8
ボルト／ビス
  6
CONTINUOUS
 10
-46.435405
 20
49.16027
 40
0.455885
  0
INSERT
  2
*GRP_0002
  8
文字
  6
CONTINUOUS
 10
0.0
 20
0.0
  0
INSERT
  2
*GRP_0003
  8
文字
  6
CONTINUOUS
 10
0.0
 20
0.0
  0
INSERT
  2
*GRP_0004
  8
文字
  6
CONTINUOUS
 10
0.0
 20
0.0
  0
INSERT
  2
*GRP_0005
  8
文字
  6
CONTINUOUS
 10
0.0
 20
0.0
  0
INSERT
  2
*GRP_0006
  8
文字
  6
CONTINUOUS
 10
0.0
 20
0.0
  0
INSERT
  2
*GRP_0007
  8
文字
  6
CONTINUOUS
 10
0.0
 20
0.0
  0
INSERT
  2
*GRP_0008
  8
文字
  6
CONTINUOUS
 10
0.0
 20
0.0
  0
INSERT
  2
*GRP_0009
  8
文字
  6
CONTINUOUS
 10
0.0
 20
0.0
  0
INSERT
  2
*GRP_0010
  8
文字
  6
CONTINUOUS
 10
0.0
 20
0.0
  0
INSERT
  2
*GRP_0011
  8
文字
  6
CONTINUOUS
 10
0.0
 20
0.0
  0
INSERT
  2
*GRP_0012
  8
文字
  6
CONTINUOUS
 10
0.0
 20
0.0
  0
INSERT
  2
*GRP_0013
  8
文字
  6
CONTINUOUS
 10
0.0
 20
0.0
  0
TEXT
  7
TextStyle03
  8
文字
  6
CONTINUOUS
 10
-3.075
 20
1.625
  1
は排水穴位置を示す
 40
3.0
 72
     5
 11
26.925
 21
1.625
  0
TEXT
  7
TextStyle03
  8
文字
  6
CONTINUOUS
 10
-98.825
 20
79.85
  1
アンカーピッチ
 40
3.0
 72
     5
 11
-75.575
 21
79.85
  0
TEXT
  7
TextStyle03
  8
文字
  6
CONTINUOUS
 10
-122.475
 20
1.75
  1
アンカーピッチ
 40
3.0
 50
90.0
 72
     5
 11
-122.475
 21
25.0
  0
TEXT
  7
TextStyle03
  8
文字
  6
CONTINUOUS
 10
-8.675
 20
-4.9
  1
アンカー数量　６ヶ所
 40
3.0
 72
     5
 11
24.7
 21
-4.9
  0
TEXT
  7
TextStyle03
  8
文字
  6
CONTINUOUS
 10
90.5
 20
99.05
  1
ＮＳコード：ＮＳＫＺ
 40
5.0
 72
     5
 11
146.125
 21
99.05
  0
TEXT
  7
TextStyle03
  8
文字
  6
CONTINUOUS
 10
146.1
 20
38.8
  1
網入り6.8t
 40
3.0
 72
     5
 11
162.7875
 21
38.8
  0
TEXT
  7
TextStyle03
  8
文字
  6
CONTINUOUS
 10
152.725
 20
33.55
  1
×１枚
 40
3.0
 72
     5
 11
162.475
 21
33.55
  0
TEXT
  7
TextStyle03
  8
文字
  6
CONTINUOUS
 10
90.675
 20
120.7
  1
シリーズ：ＴＤ２Ｋ
 40
5.0
 72
     5
 11
140.675
 21
120.7
  0
TEXT
  7
TextStyle03
  8
文字
  6
CONTINUOUS
 10
90.675
 20
115.075
  1
　　　　　（固定）900×900タイプ
 40
5.0
 72
     5
 11
180.05
 21
115.075
  0
TEXT
  7
TextStyle03
  8
文字
  6
CONTINUOUS
 10
90.675
 20
109.45
  1
図面名　：外観姿図
 40
5.0
 72
     5
 11
140.675
 21
109.45
  0
TEXT
  7
TextStyle03
  8
文字
  6
CONTINUOUS
 10
90.675
 20
103.825
  1
　　　　　　
 40
5.0
 72
     5
 11
123.8
 21
103.825
  0
INSERT
  2
*DIM_0014
  8
寸法
  6
CONTINUOUS
 10
0.0
 20
0.0
  0
INSERT
  2
*DIM_0015
  8
寸法
  6
CONTINUOUS
 10
0.0
 20
0.0
  0
INSERT
  2
*DIM_0028
  8
寸法
  6
CONTINUOUS
 10
0.0
 20
0.0
  0
INSERT
  2
*DIM_0029
  8
寸法
  6
CONTINUOUS
 10
0.0
 20
0.0
  0
INSERT
  2
*DIM_0030
  8
寸法
  6
CONTINUOUS
 10
0.0
 20
0.0
  0
INSERT
  2
*DIM_0031
  8
寸法
  6
CONTINUOUS
 10
0.0
 20
0.0
  0
INSERT
  2
*DIM_0032
  8
寸法
  6
CONTINUOUS
 10
0.0
 20
0.0
  0
INSERT
  2
*DIM_0033
  8
寸法
  6
CONTINUOUS
 10
0.0
 20
0.0
  0
CIRCLE
  8
寸法
  6
CONTINUOUS
 10
-111.453763
 20
34.16027
 40
1.73792
  0
INSERT
  2
*DIM_0034
  8
寸法
  6
CONTINUOUS
 10
0.0
 20
0.0
  0
INSERT
  2
*DIM_0035
  8
寸法
  6
CONTINUOUS
 10
0.0
 20
0.0
  0
LINE
  8
別途部材
  6
CONTINUOUS
 10
-95.535405
 20
8.56027
 11
-94.935405
 21
9.16027
  0
LINE
  8
別途部材
  6
CONTINUOUS
 10
-92.435405
 20
11.66027
 11
-80.34652
 21
23.749155
  0
LINE
  8
別途部材
  6
CONTINUOUS
 62
    96
 10
-94.935405
 20
-52.279985
 11
-95.535405
 21
-53.779985
  0
LINE
  8
別途部材
  6
CONTINUOUS
 62
    96
 10
-94.935405
 20
-52.279985
 11
-69.935405
 21
-52.279985
  0
LINE
  8
別途部材
  6
CONTINUOUS
 10
-95.535405
 20
-53.779985
 11
-69.935405
 21
-53.779985
  0
LINE
  8
別途部材
  6
CONTINUOUS
 62
    96
 10
-44.935405
 20
-52.279985
 11
-44.335405
 21
-53.779985
  0
LINE
  8
別途部材
  6
CONTINUOUS
 62
    96
 10
-44.935405
 20
-52.279985
 11
-69.935405
 21
-52.279985
  0
LINE
  8
別途部材
  6
CONTINUOUS
 10
-44.335405
 20
-53.779985
 11
-69.935405
 21
-53.779985
  0
ARC
  8
別途部材
  6
CONTINUOUS
 10
-69.935404
 20
-66.279985
 40
26.5
 50
31.890792
 51
148.109208
  0
LINE
  8
別途部材
  6
CONTINUOUS
 10
-94.935405
 20
9.16027
 11
-69.935405
 21
9.16027
  0
LINE
  8
別途部材
  6
CONTINUOUS
 10
-95.535405
 20
8.56027
 11
-69.935405
 21
8.56027
  0
LINE
  8
別途部材
  6
CONTINUOUS
 10
-95.535405
 20
8.56027
 11
-95.535405
 21
34.16027
  0
LINE
  8
別途部材
  6
CONTINUOUS
 10
-94.935405
 20
9.16027
 11
-94.935405
 21
34.16027
  0
LINE
  8
別途部材
  6
CONTINUOUS
 10
-44.335405
 20
8.56027
 11
-44.935405
 21
9.16027
  0
LINE
  8
別途部材
  6
CONTINUOUS
 10
-47.435405
 20
11.66027
 11
-59.52429
 21
23.749155
  0
LINE
  8
別途部材
  6
CONTINUOUS
 10
-44.935405
 20
9.16027
 11
-69.935405
 21
9.16027
  0
LINE
  8
別途部材
  6
CONTINUOUS
 10
-44.335405
 20
8.56027
 11
-69.935405
 21
8.56027
  0
LINE
  8
別途部材
  6
CONTINUOUS
 10
-44.335405
 20
8.56027
 11
-44.335405
 21
34.16027
  0
LINE
  8
別途部材
  6
CONTINUOUS
 10
-44.935405
 20
9.16027
 11
-44.935405
 21
34.16027
  0
LINE
  8
別途部材
  6
CONTINUOUS
 10
-95.535405
 20
59.76027
 11
-94.935405
 21
59.16027
  0
LINE
  8
別途部材
  6
CONTINUOUS
 10
-92.435405
 20
56.66027
 11
-80.34652
 21
44.571385
  0
LINE
  8
別途部材
  6
CONTINUOUS
 10
-94.935405
 20
59.16027
 11
-69.935405
 21
59.16027
  0
LINE
  8
別途部材
  6
CONTINUOUS
 10
-95.535405
 20
59.76027
 11
-69.935405
 21
59.76027
  0
LINE
  8
別途部材
  6
CONTINUOUS
 10
-95.535405
 20
59.76027
 11
-95.535405
 21
34.16027
  0
LINE
  8
別途部材
  6
CONTINUOUS
 10
-94.935405
 20
59.16027
 11
-94.935405
 21
34.16027
  0
LINE
  8
別途部材
  6
CONTINUOUS
 10
-44.335405
 20
59.76027
 11
-44.935405
 21
59.16027
  0
LINE
  8
別途部材
  6
CONTINUOUS
 10
-47.435405
 20
56.66027
 11
-59.52429
 21
44.571385
  0
LINE
  8
別途部材
  6
CONTINUOUS
 10
-44.935405
 20
59.16027
 11
-69.935405
 21
59.16027
  0
LINE
  8
別途部材
  6
CONTINUOUS
 10
-44.335405
 20
59.76027
 11
-69.935405
 21
59.76027
  0
LINE
  8
別途部材
  6
CONTINUOUS
 10
-44.335405
 20
59.76027
 11
-44.335405
 21
34.16027
  0
LINE
  8
別途部材
  6
CONTINUOUS
 10
-44.935405
 20
59.16027
 11
-44.935405
 21
34.16027
  0
INSERT
  2
*GRP_0036
  8
別途部材
  6
DOT
 10
0.0
 20
0.0
  0
INSERT
  2
*GRP_0037
  8
別途部材
  6
DOT
 10
0.0
 20
0.0
  0
CIRCLE
  8
LAYER010
  6
CONTINUOUS
 62
     7
 10
-96.935473
 20
-55.82999
 40
0.016668
  0
CIRCLE
  8
LAYER010
  6
CONTINUOUS
 62
     7
 10
-96.935473
 20
-55.82999
 40
0.016668
  0
CIRCLE
  8
LAYER010
  6
CONTINUOUS
 62
     7
 10
-42.935337
 20
-55.82999
 40
0.016668
  0
CIRCLE
  8
LAYER010
  6
CONTINUOUS
 62
     7
 10
-42.935337
 20
-55.82999
 40
0.016668
  0
ENDSEC
  0
EOF
