  0
SECTION
  2
HEADER
  9
$EXTMIN
 10
-210.0
 20
-148.5
  9
$EXTMAX
 10
210.0
 20
148.5
  9
$PDMODE
 70
    32
  9
$PDSIZE
 40
1.5
  9
$LTSCALE
 40
10.0
  0
ENDSEC
  0
SECTION
  2
TABLES
  0
TABLE
  2
LTYPE
 70
    15
  0
LTYPE
  2
CONTINUOUS
 70
    64
  3
実線
 72
    65
 73
     0
 40
0.0
  0
LTYPE
  2
DASHED
 70
    64
  3
破線A
 72
    65
 73
     2
 40
0.6
 49
0.4
 49
-0.2
  0
LTYPE
  2
DASHEDX2
 70
    64
  3
破線B
 72
    65
 73
     2
 40
1.3
 49
0.9
 49
-0.4
  0
LTYPE
  2
DASHDOT
 70
    64
  3
１点鎖線A
 72
    65
 73
     4
 40
0.5375
 49
0.375
 49
-0.05
 49
0.0625
 49
-0.05
  0
LTYPE
  2
DASHDOTX2
 70
    64
  3
１点鎖線B
 72
    65
 73
     4
 40
1.075
 49
0.75
 49
-0.1
 49
0.125
 49
-0.1
  0
LTYPE
  2
DIVIDE2
 70
    64
  3
２点鎖線A
 72
    65
 73
     6
 40
0.5125
 49
0.3
 49
-0.0375
 49
0.05
 49
-0.0375
 49
0.05
 49
-0.0375
  0
LTYPE
  2
DIVIDE
 70
    64
  3
２点鎖線B
 72
    65
 73
     6
 40
1.05
 49
0.55
 49
-0.1
 49
0.1
 49
-0.1
 49
0.1
 49
-0.1
  0
LTYPE
  2
DOT
 70
    64
  3
点線A
 72
    65
 73
     2
 40
0.1125
 49
0.0625
 49
-0.05
  0
LTYPE
  2
DOTX2
 70
    64
  3
点線B
 72
    65
 73
     2
 40
0.275
 49
0.15
 49
-0.125
  0
LTYPE
  2
CONTINUOUS
 70
    64
  3
実線
 72
    65
 73
     0
 40
0.0
  0
LTYPE
  2
CONTINUOUS
 70
    64
  3
実線
 72
    65
 73
     0
 40
0.0
  0
LTYPE
  2
CONTINUOUS
 70
    64
  3
実線
 72
    65
 73
     0
 40
0.0
  0
LTYPE
  2
CONTINUOUS
 70
    64
  3
実線
 72
    65
 73
     0
 40
0.0
  0
LTYPE
  2
CONTINUOUS
 70
    64
  3
実線
 72
    65
 73
     0
 40
0.0
  0
LTYPE
  2
CONTINUOUS
 70
    64
  3
実線
 72
    65
 73
     0
 40
0.0
  0
ENDTAB
  0
TABLE
  2
LAYER
 70
    35
  0
LAYER
  2
通り芯
 70
     0
 62
    15
  6
CONTINUOUS
  0
LAYER
  2
補助線
 70
     0
 62
    16
  6
DOT
  0
LAYER
  2
躯体
 70
     0
 62
    31
  6
CONTINUOUS
  0
LAYER
  2
型材
 70
     0
 62
    32
  6
CONTINUOUS
  0
LAYER
  2
型材断面
 70
     0
 62
    47
  6
CONTINUOUS
  0
LAYER
  2
ガラス
 70
     0
 62
    48
  6
CONTINUOUS
  0
LAYER
  2
ゴム等
 70
     0
 62
    63
  6
CONTINUOUS
  0
LAYER
  2
ボルト／ビス
 70
     0
 62
    64
  6
CONTINUOUS
  0
LAYER
  2
文字
 70
     0
 62
    79
  6
CONTINUOUS
  0
LAYER
  2
寸法
 70
     0
 62
    80
  6
CONTINUOUS
  0
LAYER
  2
ﾊｯﾁﾝｸﾞ
 70
     0
 62
    95
  6
CONTINUOUS
  0
LAYER
  2
別途部材
 70
     0
 62
    96
  6
CONTINUOUS
  0
LAYER
  2
曲げ物
 70
     0
 62
   111
  6
CONTINUOUS
  0
LAYER
  2
鉄骨等
 70
     0
 62
   112
  6
CONTINUOUS
  0
LAYER
  2
St
 70
     0
 62
   127
  6
CONTINUOUS
  0
LAYER
  2
その他部品等
 70
     0
 62
   128
  6
CONTINUOUS
  0
LAYER
  2
ｶﾞｽｹｯﾄ
 70
     0
 62
   143
  6
CONTINUOUS
  0
LAYER
  2
ｽｹｯﾁ
 70
     0
 62
    14
  6
CONTINUOUS
  0
LAYER
  2
0
 70
     0
 62
    17
  6
CONTINUOUS
  0
LAYER
  2
1
 70
     0
 62
    30
  6
CONTINUOUS
  0
LAYER
  2
4
 70
     0
 62
    33
  6
CONTINUOUS
  0
LAYER
  2
ﾚｲﾔ3
 70
     0
 62
    46
  6
CONTINUOUS
  0
LAYER
  2
外形線
 70
     0
 62
    49
  6
CONTINUOUS
  0
LAYER
  2
部品
 70
     0
 62
    14
  6
CONTINUOUS
  0
LAYER
  2
サッシ芯
 70
     0
 62
    17
  6
DASHDOTX2
  0
LAYER
  2
寸法線
 70
     0
 62
    62
  6
CONTINUOUS
  0
LAYER
  2
姿図外形線
 70
     0
 62
    65
  6
CONTINUOUS
  0
LAYER
  2
姿補助線
 70
     0
 62
    30
  6
CONTINUOUS
  0
LAYER
  2
透視線
 70
     0
 62
    78
  6
DOT
  0
LAYER
  2
用紙
 70
     0
 62
    81
  6
CONTINUOUS
  0
LAYER
  2
実線図枠
 70
     0
 62
    94
  6
CONTINUOUS
  0
LAYER
  2
補助図枠
 70
     0
 62
    97
  6
CONTINUOUS
  0
LAYER
  2
建具記号
 70
     0
 62
   110
  6
CONTINUOUS
  0
LAYER
  2
補助文字
 70
     0
 62
   113
  6
CONTINUOUS
  0
LAYER
  2
LAYER010
 70
     0
 62
    11
  6
CONTINUOUS
  0
ENDTAB
  0
TABLE
  2
STYLE
 70
    10
  0
STYLE
  2
STANDARD
 70
     0
 40
1.0
 41
1.0
 42
1.0
 50
0.0
 71
     0
  3
TXT
  4
BIGFONT
  0
STYLE
  2
TATE
 70
     4
 40
1.0
 41
1.0
 42
1.0
 50
0.0
 71
     0
  3
TXT
  4
BIGFONT
  0
STYLE
  2
TextStyle03
 70
     0
 40
1.0
 41
1.0
 42
1.0
 50
0.0
 71
     0
  3
MONOTXT
  4
BIGFONT
  0
STYLE
  2
TextStyle04
 70
     0
 40
1.0
 41
1.0
 42
1.0
 50
0.0
 71
     0
  3
MONOTXT
  4
BIGFONT
  0
STYLE
  2
TextStyle05
 70
     0
 40
1.0
 41
1.0
 42
1.0
 50
0.0
 71
     0
  3
MONOTXT
  4
BIGFONT
  0
STYLE
  2
TextStyle06
 70
     0
 40
1.0
 41
1.0
 42
1.0
 50
0.0
 71
     0
  3
MONOTXT
  4
BIGFONT
  0
STYLE
  2
TextStyle07
 70
     0
 40
1.0
 41
1.0
 42
1.0
 50
0.0
 71
     0
  3
MONOTXT
  4
BIGFONT
  0
STYLE
  2
TextStyle08
 70
     0
 40
1.0
 41
1.0
 42
1.0
 50
0.0
 71
     0
  3
MONOTXT
  4
BIGFONT
  0
STYLE
  2
TextStyle09
 70
     0
 40
1.0
 41
1.0
 42
1.0
 50
0.0
 71
     0
  3
MONOTXT
  4
BIGFONT
  0
STYLE
  2
TextStyle10
 70
     0
 40
1.0
 41
1.0
 42
1.0
 50
0.0
 71
     0
  3
MONOTXT
  4
BIGFONT
  0
ENDTAB
  0
ENDSEC
  0
SECTION
  2
BLOCKS
  0
BLOCK
  2
*GRP_0001
 70
    65
 10
0.0
 20
0.0
  0
LINE
  8
型材断面
  6
CONTINUOUS
 10
195.0
 20
133.5
 11
195.0
 21
-133.5
  0
LINE
  8
型材断面
  6
CONTINUOUS
 10
195.0
 20
-133.5
 11
-185.0
 21
-133.5
  0
LINE
  8
型材断面
  6
CONTINUOUS
 10
-185.0
 20
-133.5
 11
-185.0
 21
133.5
  0
LINE
  8
型材断面
  6
CONTINUOUS
 10
195.0
 20
133.5
 11
-185.0
 21
133.5
  0
LINE
  8
型材断面
  6
CONTINUOUS
 10
145.0
 20
-133.5
 11
145.0
 21
-118.5
  0
LINE
  8
型材断面
  6
CONTINUOUS
 10
195.0
 20
-118.5
 11
145.0
 21
-118.5
  0
ENDBLK
  0
BLOCK
  2
*GRP_0002
 70
    65
 10
0.0
 20
0.0
  0
INSERT
  2
*GRP_0012
  8
補助線
  6
CONTINUOUS
 10
0.0
 20
0.0
  0
LINE
  8
ボルト／ビス
  6
CONTINUOUS
 10
-84.935405
 20
0.403315
 11
-84.685405
 21
0.547653
  0
LINE
  8
ボルト／ビス
  6
CONTINUOUS
 10
-84.935405
 20
0.403315
 11
-85.185405
 21
0.547653
  0
LINE
  8
ボルト／ビス
  6
CONTINUOUS
 10
-84.685405
 20
0.836327
 11
-84.935405
 21
0.980665
  0
LINE
  8
ボルト／ビス
  6
CONTINUOUS
 10
-85.185405
 20
0.836327
 11
-84.935405
 21
0.980665
  0
CIRCLE
  8
ボルト／ビス
  6
CONTINUOUS
 10
-84.935405
 20
0.69199
 40
0.25
  0
LINE
  8
ボルト／ビス
  6
CONTINUOUS
 10
-85.185405
 20
0.547653
 11
-85.185405
 21
0.836327
  0
LINE
  8
ボルト／ビス
  6
CONTINUOUS
 10
-84.685405
 20
0.836327
 11
-84.685405
 21
0.547653
  0
ENDBLK
  0
BLOCK
  2
*GRP_0003
 70
    65
 10
0.0
 20
0.0
  0
INSERT
  2
*GRP_0013
  8
補助線
  6
CONTINUOUS
 10
0.0
 20
0.0
  0
LINE
  8
ボルト／ビス
  6
CONTINUOUS
 10
-93.72408
 20
9.19199
 11
-93.579742
 21
9.44199
  0
LINE
  8
ボルト／ビス
  6
CONTINUOUS
 10
-93.72408
 20
9.19199
 11
-93.579742
 21
8.94199
  0
LINE
  8
ボルト／ビス
  6
CONTINUOUS
 10
-93.291068
 20
9.44199
 11
-93.14673
 21
9.19199
  0
LINE
  8
ボルト／ビス
  6
CONTINUOUS
 10
-93.291068
 20
8.94199
 11
-93.14673
 21
9.19199
  0
CIRCLE
  8
ボルト／ビス
  6
CONTINUOUS
 10
-93.435405
 20
9.19199
 40
0.25
  0
LINE
  8
ボルト／ビス
  6
CONTINUOUS
 10
-93.579742
 20
8.94199
 11
-93.291068
 21
8.94199
  0
LINE
  8
ボルト／ビス
  6
CONTINUOUS
 10
-93.291068
 20
9.44199
 11
-93.579742
 21
9.44199
  0
ENDBLK
  0
BLOCK
  2
*GRP_0004
 70
    65
 10
0.0
 20
0.0
  0
INSERT
  2
*GRP_0014
  8
補助線
  6
CONTINUOUS
 10
0.0
 20
0.0
  0
LINE
  8
ボルト／ビス
  6
CONTINUOUS
 10
-69.935405
 20
0.403315
 11
-70.185405
 21
0.547653
  0
LINE
  8
ボルト／ビス
  6
CONTINUOUS
 10
-69.935405
 20
0.403315
 11
-69.685405
 21
0.547653
  0
LINE
  8
ボルト／ビス
  6
CONTINUOUS
 10
-70.185405
 20
0.836327
 11
-69.935405
 21
0.980665
  0
LINE
  8
ボルト／ビス
  6
CONTINUOUS
 10
-69.685405
 20
0.836327
 11
-69.935405
 21
0.980665
  0
CIRCLE
  8
ボルト／ビス
  6
CONTINUOUS
 10
-69.935405
 20
0.69199
 40
0.25
  0
LINE
  8
ボルト／ビス
  6
CONTINUOUS
 10
-69.685405
 20
0.547653
 11
-69.685405
 21
0.836327
  0
LINE
  8
ボルト／ビス
  6
CONTINUOUS
 10
-70.185405
 20
0.836327
 11
-70.185405
 21
0.547653
  0
ENDBLK
  0
BLOCK
  2
*GRP_0005
 70
    65
 10
0.0
 20
0.0
  0
INSERT
  2
*GRP_0015
  8
補助線
  6
CONTINUOUS
 10
0.0
 20
0.0
  0
LINE
  8
ボルト／ビス
  6
CONTINUOUS
 10
-61.14673
 20
9.19199
 11
-61.291068
 21
9.44199
  0
LINE
  8
ボルト／ビス
  6
CONTINUOUS
 10
-61.14673
 20
9.19199
 11
-61.291068
 21
8.94199
  0
LINE
  8
ボルト／ビス
  6
CONTINUOUS
 10
-61.579742
 20
9.44199
 11
-61.72408
 21
9.19199
  0
LINE
  8
ボルト／ビス
  6
CONTINUOUS
 10
-61.579742
 20
8.94199
 11
-61.72408
 21
9.19199
  0
CIRCLE
  8
ボルト／ビス
  6
CONTINUOUS
 10
-61.435405
 20
9.19199
 40
0.25
  0
LINE
  8
ボルト／ビス
  6
CONTINUOUS
 10
-61.291068
 20
8.94199
 11
-61.579742
 21
8.94199
  0
LINE
  8
ボルト／ビス
  6
CONTINUOUS
 10
-61.579742
 20
9.44199
 11
-61.291068
 21
9.44199
  0
ENDBLK
  0
BLOCK
  2
*GRP_0006
 70
    65
 10
0.0
 20
0.0
  0
INSERT
  2
*GRP_0016
  8
補助線
  6
CONTINUOUS
 10
0.0
 20
0.0
  0
LINE
  8
ボルト／ビス
  6
CONTINUOUS
 10
-69.935405
 20
32.980665
 11
-70.185405
 21
32.836327
  0
LINE
  8
ボルト／ビス
  6
CONTINUOUS
 10
-69.935405
 20
32.980665
 11
-69.685405
 21
32.836327
  0
LINE
  8
ボルト／ビス
  6
CONTINUOUS
 10
-70.185405
 20
32.547653
 11
-69.935405
 21
32.403315
  0
LINE
  8
ボルト／ビス
  6
CONTINUOUS
 10
-69.685405
 20
32.547653
 11
-69.935405
 21
32.403315
  0
CIRCLE
  8
ボルト／ビス
  6
CONTINUOUS
 10
-69.935405
 20
32.69199
 40
0.25
  0
LINE
  8
ボルト／ビス
  6
CONTINUOUS
 10
-69.685405
 20
32.836327
 11
-69.685405
 21
32.547653
  0
LINE
  8
ボルト／ビス
  6
CONTINUOUS
 10
-70.185405
 20
32.547653
 11
-70.185405
 21
32.836327
  0
ENDBLK
  0
BLOCK
  2
*GRP_0007
 70
    65
 10
0.0
 20
0.0
  0
INSERT
  2
*GRP_0017
  8
補助線
  6
CONTINUOUS
 10
0.0
 20
0.0
  0
LINE
  8
ボルト／ビス
  6
CONTINUOUS
 10
-61.14673
 20
24.19199
 11
-61.291068
 21
23.94199
  0
LINE
  8
ボルト／ビス
  6
CONTINUOUS
 10
-61.14673
 20
24.19199
 11
-61.291068
 21
24.44199
  0
LINE
  8
ボルト／ビス
  6
CONTINUOUS
 10
-61.579742
 20
23.94199
 11
-61.72408
 21
24.19199
  0
LINE
  8
ボルト／ビス
  6
CONTINUOUS
 10
-61.579742
 20
24.44199
 11
-61.72408
 21
24.19199
  0
CIRCLE
  8
ボルト／ビス
  6
CONTINUOUS
 10
-61.435405
 20
24.19199
 40
0.25
  0
LINE
  8
ボルト／ビス
  6
CONTINUOUS
 10
-61.291068
 20
24.44199
 11
-61.579742
 21
24.44199
  0
LINE
  8
ボルト／ビス
  6
CONTINUOUS
 10
-61.579742
 20
23.94199
 11
-61.291068
 21
23.94199
  0
ENDBLK
  0
BLOCK
  2
*GRP_0008
 70
    65
 10
0.0
 20
0.0
  0
INSERT
  2
*GRP_0018
  8
補助線
  6
CONTINUOUS
 10
0.0
 20
0.0
  0
LINE
  8
ボルト／ビス
  6
CONTINUOUS
 10
-84.935405
 20
32.980665
 11
-84.685405
 21
32.836327
  0
LINE
  8
ボルト／ビス
  6
CONTINUOUS
 10
-84.935405
 20
32.980665
 11
-85.185405
 21
32.836327
  0
LINE
  8
ボルト／ビス
  6
CONTINUOUS
 10
-84.685405
 20
32.547653
 11
-84.935405
 21
32.403315
  0
LINE
  8
ボルト／ビス
  6
CONTINUOUS
 10
-85.185405
 20
32.547653
 11
-84.935405
 21
32.403315
  0
CIRCLE
  8
ボルト／ビス
  6
CONTINUOUS
 10
-84.935405
 20
32.69199
 40
0.25
  0
LINE
  8
ボルト／ビス
  6
CONTINUOUS
 10
-85.185405
 20
32.836327
 11
-85.185405
 21
32.547653
  0
LINE
  8
ボルト／ビス
  6
CONTINUOUS
 10
-84.685405
 20
32.547653
 11
-84.685405
 21
32.836327
  0
ENDBLK
  0
BLOCK
  2
*GRP_0009
 70
    65
 10
0.0
 20
0.0
  0
INSERT
  2
*GRP_0019
  8
補助線
  6
CONTINUOUS
 10
0.0
 20
0.0
  0
LINE
  8
ボルト／ビス
  6
CONTINUOUS
 10
-93.72408
 20
24.19199
 11
-93.579742
 21
23.94199
  0
LINE
  8
ボルト／ビス
  6
CONTINUOUS
 10
-93.72408
 20
24.19199
 11
-93.579742
 21
24.44199
  0
LINE
  8
ボルト／ビス
  6
CONTINUOUS
 10
-93.291068
 20
23.94199
 11
-93.14673
 21
24.19199
  0
LINE
  8
ボルト／ビス
  6
CONTINUOUS
 10
-93.291068
 20
24.44199
 11
-93.14673
 21
24.19199
  0
CIRCLE
  8
ボルト／ビス
  6
CONTINUOUS
 10
-93.435405
 20
24.19199
 40
0.25
  0
LINE
  8
ボルト／ビス
  6
CONTINUOUS
 10
-93.579742
 20
24.44199
 11
-93.291068
 21
24.44199
  0
LINE
  8
ボルト／ビス
  6
CONTINUOUS
 10
-93.291068
 20
23.94199
 11
-93.579742
 21
23.94199
  0
ENDBLK
  0
BLOCK
  2
*DIM_0010
 70
    65
 10
0.0
 20
0.0
  0
LINE
  8
寸法
  6
BYBLOCK
 62
     0
 10
-76.435405
 20
-54.248265
 11
-41.30588
 21
-54.248265
  0
LINE
  8
寸法
  6
BYBLOCK
 62
     0
 10
-41.30588
 20
-62.248265
 11
-41.30588
 21
-54.248265
  0
POINT
  8
寸法
 62
     0
 10
-41.30588
 20
-62.248265
  0
POINT
  8
寸法
 62
     0
 10
-41.30588
 20
-54.248265
  0
TEXT
  7
TextStyle03
  8
寸法
  6
CONTINUOUS
 62
     0
 10
-41.7
 20
-60.6875
  1
160
 40
3.0
 50
90.0
 72
     5
 11
-41.7
 21
-55.8125
  0
ENDBLK
  0
BLOCK
  2
*DIM_0011
 70
    65
 10
0.0
 20
0.0
  0
LINE
  8
寸法
  6
BYBLOCK
 62
     0
 10
-92.435405
 20
-26.094458
 11
-62.435405
 21
-26.094458
  0
POINT
  8
寸法
 62
     0
 10
-92.435405
 20
-26.094458
  0
POINT
  8
寸法
 62
     0
 10
-62.435405
 20
-26.094458
  0
TEXT
  7
TextStyle03
  8
寸法
  6
CONTINUOUS
 62
     0
 10
-88.325
 20
-25.725
  1
呼称寸法　600
 40
3.0
 72
     5
 11
-66.575
 21
-25.725
  0
ENDBLK
  0
BLOCK
  2
*GRP_0012
 70
    65
 10
0.0
 20
0.0
  0
LINE
  8
補助線
  6
BYBLOCK
 62
     0
 10
-85.060405
 20
0.69199
 11
-84.810405
 21
0.69199
  0
LINE
  8
補助線
  6
BYBLOCK
 62
     0
 10
-84.935405
 20
0.56699
 11
-84.935405
 21
0.81699
  0
ENDBLK
  0
BLOCK
  2
*GRP_0013
 70
    65
 10
0.0
 20
0.0
  0
LINE
  8
補助線
  6
BYBLOCK
 62
     0
 10
-93.435405
 20
9.06699
 11
-93.435405
 21
9.31699
  0
LINE
  8
補助線
  6
BYBLOCK
 62
     0
 10
-93.560405
 20
9.19199
 11
-93.310405
 21
9.19199
  0
ENDBLK
  0
BLOCK
  2
*GRP_0014
 70
    65
 10
0.0
 20
0.0
  0
LINE
  8
補助線
  6
BYBLOCK
 62
     0
 10
-69.810405
 20
0.69199
 11
-70.060405
 21
0.69199
  0
LINE
  8
補助線
  6
BYBLOCK
 62
     0
 10
-69.935405
 20
0.56699
 11
-69.935405
 21
0.81699
  0
ENDBLK
  0
BLOCK
  2
*GRP_0015
 70
    65
 10
0.0
 20
0.0
  0
LINE
  8
補助線
  6
BYBLOCK
 62
     0
 10
-61.435405
 20
9.06699
 11
-61.435405
 21
9.31699
  0
LINE
  8
補助線
  6
BYBLOCK
 62
     0
 10
-61.310405
 20
9.19199
 11
-61.560405
 21
9.19199
  0
ENDBLK
  0
BLOCK
  2
*GRP_0016
 70
    65
 10
0.0
 20
0.0
  0
LINE
  8
補助線
  6
BYBLOCK
 62
     0
 10
-69.810405
 20
32.69199
 11
-70.060405
 21
32.69199
  0
LINE
  8
補助線
  6
BYBLOCK
 62
     0
 10
-69.935405
 20
32.81699
 11
-69.935405
 21
32.56699
  0
ENDBLK
  0
BLOCK
  2
*GRP_0017
 70
    65
 10
0.0
 20
0.0
  0
LINE
  8
補助線
  6
BYBLOCK
 62
     0
 10
-61.435405
 20
24.31699
 11
-61.435405
 21
24.06699
  0
LINE
  8
補助線
  6
BYBLOCK
 62
     0
 10
-61.310405
 20
24.19199
 11
-61.560405
 21
24.19199
  0
ENDBLK
  0
BLOCK
  2
*GRP_0018
 70
    65
 10
0.0
 20
0.0
  0
LINE
  8
補助線
  6
BYBLOCK
 62
     0
 10
-85.060405
 20
32.69199
 11
-84.810405
 21
32.69199
  0
LINE
  8
補助線
  6
BYBLOCK
 62
     0
 10
-84.935405
 20
32.81699
 11
-84.935405
 21
32.56699
  0
ENDBLK
  0
BLOCK
  2
*GRP_0019
 70
    65
 10
0.0
 20
0.0
  0
LINE
  8
補助線
  6
BYBLOCK
 62
     0
 10
-93.435405
 20
24.31699
 11
-93.435405
 21
24.06699
  0
LINE
  8
補助線
  6
BYBLOCK
 62
     0
 10
-93.560405
 20
24.19199
 11
-93.310405
 21
24.19199
  0
ENDBLK
  0
BLOCK
  2
*DIM_0020
 70
    65
 10
0.0
 20
0.0
  0
LINE
  8
寸法
  6
BYBLOCK
 62
     0
 10
-87.435402
 20
32.691993
 11
-87.435402
 21
52.281172
  0
LINE
  8
寸法
  6
BYBLOCK
 62
     0
 10
-67.435402
 20
32.691993
 11
-67.435402
 21
52.281172
  0
LINE
  8
寸法
  6
BYBLOCK
 62
     0
 10
-87.435402
 20
52.281172
 11
-67.435402
 21
52.281172
  0
POINT
  8
寸法
 62
     0
 10
-87.435402
 20
52.281172
  0
POINT
  8
寸法
 62
     0
 10
-67.435402
 20
52.281172
  0
TEXT
  7
TextStyle03
  8
寸法
  6
CONTINUOUS
 62
     0
 10
-79.8875
 20
52.675
  1
400
 40
3.0
 72
     5
 11
-75.0125
 21
52.675
  0
ENDBLK
  0
BLOCK
  2
*DIM_0021
 70
    65
 10
0.0
 20
0.0
  0
LINE
  8
寸法
  6
BYBLOCK
 62
     0
 10
-58.935405
 20
-62.248265
 11
-41.30588
 21
-62.248265
  0
LINE
  8
寸法
  6
BYBLOCK
 62
     0
 10
-56.935337
 20
-66.548265
 11
-41.30588
 21
-66.548265
  0
LINE
  8
寸法
  6
BYBLOCK
 62
     0
 10
-41.30588
 20
-62.248265
 11
-41.30588
 21
-66.548265
  0
POINT
  8
寸法
 62
     0
 10
-41.30588
 20
-62.248265
  0
POINT
  8
寸法
 62
     0
 10
-41.30588
 20
-66.548265
  0
TEXT
  7
TextStyle03
  8
寸法
  6
CONTINUOUS
 62
     0
 10
-41.7
 20
-65.99375
  1
86
 40
3.0
 50
90.0
 72
     5
 11
-41.7
 21
-62.80625
  0
ENDBLK
  0
BLOCK
  2
*DIM_0022
 70
    65
 10
0.0
 20
0.0
  0
LINE
  8
寸法
  6
BYBLOCK
 62
     0
 10
-57.935337
 20
-64.79827
 11
-57.935337
 21
-26.094458
  0
LINE
  8
寸法
  6
BYBLOCK
 62
     0
 10
-62.435405
 20
-26.094458
 11
-57.935337
 21
-26.094458
  0
POINT
  8
寸法
 62
     0
 10
-62.435405
 20
-26.094458
  0
POINT
  8
寸法
 62
     0
 10
-57.935337
 20
-26.094458
  0
TEXT
  7
TextStyle03
  8
寸法
  6
CONTINUOUS
 62
     0
 10
-61.79375
 20
-25.725
  1
90
 40
3.0
 72
     5
 11
-58.60625
 21
-25.725
  0
ENDBLK
  0
BLOCK
  2
*DIM_0023
 70
    65
 10
0.0
 20
0.0
  0
LINE
  8
寸法
  6
BYBLOCK
 62
     0
 10
-96.935473
 20
-64.79827
 11
-96.935473
 21
-26.094458
  0
LINE
  8
寸法
  6
BYBLOCK
 62
     0
 10
-92.435405
 20
-26.094458
 11
-96.935473
 21
-26.094458
  0
POINT
  8
寸法
 62
     0
 10
-92.435405
 20
-26.094458
  0
POINT
  8
寸法
 62
     0
 10
-96.935473
 20
-26.094458
  0
TEXT
  7
TextStyle03
  8
寸法
  6
CONTINUOUS
 62
     0
 10
-96.29375
 20
-25.725
  1
90
 40
3.0
 72
     5
 11
-93.10625
 21
-25.725
  0
ENDBLK
  0
BLOCK
  2
*DIM_0024
 70
    65
 10
0.0
 20
0.0
  0
LINE
  8
寸法
  6
BYBLOCK
 62
     0
 10
170.304785
 20
74.557477
 11
179.967098
 21
74.557477
  0
LINE
  8
寸法
  6
BYBLOCK
 62
     0
 10
170.304785
 20
45.557477
 11
179.967098
 21
45.557477
  0
LINE
  8
寸法
  6
BYBLOCK
 62
     0
 10
179.967098
 20
74.557477
 11
179.967098
 21
45.557477
  0
POINT
  8
寸法
 62
     0
 10
179.967098
 20
74.557477
  0
POINT
  8
寸法
 62
     0
 10
179.967098
 20
45.557477
  0
TEXT
  7
TextStyle03
  8
寸法
  6
CONTINUOUS
 62
     0
 10
179.575
 20
57.6125
  1
580
 40
3.0
 50
90.0
 72
     5
 11
179.575
 21
62.4875
  0
ENDBLK
  0
BLOCK
  2
*DIM_0025
 70
    65
 10
0.0
 20
0.0
  0
LINE
  8
寸法
  6
BYBLOCK
 62
     0
 10
138.304785
 20
77.557477
 11
138.304785
 21
85.30483
  0
LINE
  8
寸法
  6
BYBLOCK
 62
     0
 10
167.304785
 20
77.557477
 11
167.304785
 21
85.30483
  0
LINE
  8
寸法
  6
BYBLOCK
 62
     0
 10
138.304785
 20
85.30483
 11
167.304785
 21
85.30483
  0
POINT
  8
寸法
 62
     0
 10
138.304785
 20
85.30483
  0
POINT
  8
寸法
 62
     0
 10
167.304785
 20
85.30483
  0
TEXT
  7
TextStyle03
  8
寸法
  6
CONTINUOUS
 62
     0
 10
150.3625
 20
85.675
  1
580
 40
3.0
 72
     5
 11
155.2375
 21
85.675
  0
ENDBLK
  0
BLOCK
  2
*GRP_0026
 70
    65
 10
0.0
 20
0.0
  0
LINE
  8
ボルト／ビス
  6
CONTINUOUS
 10
-93.435405
 20
-62.248268
 11
-93.435405
 21
-61.548268
  0
LINE
  8
ボルト／ビス
  6
CONTINUOUS
 10
-93.985405
 20
-62.248268
 11
-93.985405
 21
-62.148268
  0
LINE
  8
ボルト／ビス
  6
CONTINUOUS
 10
-93.985405
 20
-62.148268
 11
-92.885405
 21
-62.148268
  0
LINE
  8
ボルト／ビス
  6
CONTINUOUS
 10
-92.885405
 20
-62.148268
 11
-92.885405
 21
-62.248268
  0
LINE
  8
ボルト／ビス
  6
CONTINUOUS
 10
-93.985405
 20
-62.248268
 11
-92.885405
 21
-62.248268
  0
LINE
  8
ボルト／ビス
  6
CONTINUOUS
 10
-93.885405
 20
-62.098268
 11
-93.885405
 21
-62.148268
  0
LINE
  8
ボルト／ビス
  6
CONTINUOUS
 10
-93.885405
 20
-62.098268
 11
-92.985405
 21
-62.098268
  0
LINE
  8
ボルト／ビス
  6
CONTINUOUS
 10
-92.985405
 20
-62.098268
 11
-92.985405
 21
-62.148268
  0
LINE
  8
ボルト／ビス
  6
CONTINUOUS
 62
    64
 10
-93.675968
 20
-61.798268
 11
-93.72408
 21
-61.81578
  0
ARC
  8
ボルト／ビス
  6
CONTINUOUS
 62
    64
 10
-93.651909
 20
-61.955734
 40
0.157468
 50
62.721967
 51
90.0
  0
ARC
  8
ボルト／ビス
  6
CONTINUOUS
 62
    64
 10
-93.435403
 20
-62.40187
 40
0.603603
 50
76.165002
 51
103.834985
  0
LINE
  8
ボルト／ビス
  6
CONTINUOUS
 62
    64
 10
-93.194842
 20
-61.798268
 11
-93.14673
 21
-61.81578
  0
ARC
  8
ボルト／ビス
  6
CONTINUOUS
 62
    64
 10
-93.218896
 20
-61.955734
 40
0.157468
 50
90.0
 51
117.278033
  0
LINE
  8
ボルト／ビス
  6
CONTINUOUS
 62
    64
 10
-93.675968
 20
-61.798268
 11
-93.194842
 21
-61.798268
  0
LINE
  8
ボルト／ビス
  6
CONTINUOUS
 62
    64
 10
-93.14673
 20
-61.81578
 11
-93.14673
 21
-61.998268
  0
LINE
  8
ボルト／ビス
  6
CONTINUOUS
 62
    64
 10
-93.291068
 20
-61.81578
 11
-93.291068
 21
-61.998268
  0
LINE
  8
ボルト／ビス
  6
CONTINUOUS
 62
    64
 10
-93.72408
 20
-61.81578
 11
-93.72408
 21
-61.998268
  0
LINE
  8
ボルト／ビス
  6
CONTINUOUS
 62
    64
 10
-93.579742
 20
-61.81578
 11
-93.579742
 21
-61.998268
  0
LINE
  8
ボルト／ビス
  6
CONTINUOUS
 10
-93.72408
 20
-61.998268
 11
-93.14673
 21
-61.998268
  0
LINE
  8
ボルト／ビス
  6
CONTINUOUS
 10
-93.735405
 20
-61.998268
 11
-93.735405
 21
-62.098268
  0
LINE
  8
ボルト／ビス
  6
CONTINUOUS
 10
-93.735405
 20
-61.998268
 11
-93.135405
 21
-61.998268
  0
LINE
  8
ボルト／ビス
  6
CONTINUOUS
 10
-93.135405
 20
-61.998268
 11
-93.135405
 21
-62.098268
  0
ENDBLK
  0
BLOCK
  2
*GRP_0027
 70
    65
 10
0.0
 20
0.0
  0
LINE
  8
ボルト／ビス
  6
CONTINUOUS
 10
-61.435405
 20
-62.248268
 11
-61.435405
 21
-61.548268
  0
LINE
  8
ボルト／ビス
  6
CONTINUOUS
 10
-61.985405
 20
-62.248268
 11
-61.985405
 21
-62.148268
  0
LINE
  8
ボルト／ビス
  6
CONTINUOUS
 10
-61.985405
 20
-62.148268
 11
-60.885405
 21
-62.148268
  0
LINE
  8
ボルト／ビス
  6
CONTINUOUS
 10
-60.885405
 20
-62.148268
 11
-60.885405
 21
-62.248268
  0
LINE
  8
ボルト／ビス
  6
CONTINUOUS
 10
-61.985405
 20
-62.248268
 11
-60.885405
 21
-62.248268
  0
LINE
  8
ボルト／ビス
  6
CONTINUOUS
 10
-61.885405
 20
-62.098268
 11
-61.885405
 21
-62.148268
  0
LINE
  8
ボルト／ビス
  6
CONTINUOUS
 10
-61.885405
 20
-62.098268
 11
-60.985405
 21
-62.098268
  0
LINE
  8
ボルト／ビス
  6
CONTINUOUS
 10
-60.985405
 20
-62.098268
 11
-60.985405
 21
-62.148268
  0
LINE
  8
ボルト／ビス
  6
CONTINUOUS
 62
    64
 10
-61.675968
 20
-61.798268
 11
-61.72408
 21
-61.81578
  0
ARC
  8
ボルト／ビス
  6
CONTINUOUS
 62
    64
 10
-61.651909
 20
-61.955734
 40
0.157468
 50
62.721967
 51
90.0
  0
ARC
  8
ボルト／ビス
  6
CONTINUOUS
 62
    64
 10
-61.435403
 20
-62.40187
 40
0.603603
 50
76.165002
 51
103.834985
  0
LINE
  8
ボルト／ビス
  6
CONTINUOUS
 62
    64
 10
-61.194842
 20
-61.798268
 11
-61.14673
 21
-61.81578
  0
ARC
  8
ボルト／ビス
  6
CONTINUOUS
 62
    64
 10
-61.218896
 20
-61.955734
 40
0.157468
 50
90.0
 51
117.278033
  0
LINE
  8
ボルト／ビス
  6
CONTINUOUS
 62
    64
 10
-61.675968
 20
-61.798268
 11
-61.194842
 21
-61.798268
  0
LINE
  8
ボルト／ビス
  6
CONTINUOUS
 62
    64
 10
-61.14673
 20
-61.81578
 11
-61.14673
 21
-61.998268
  0
LINE
  8
ボルト／ビス
  6
CONTINUOUS
 62
    64
 10
-61.291068
 20
-61.81578
 11
-61.291068
 21
-61.998268
  0
LINE
  8
ボルト／ビス
  6
CONTINUOUS
 62
    64
 10
-61.72408
 20
-61.81578
 11
-61.72408
 21
-61.998268
  0
LINE
  8
ボルト／ビス
  6
CONTINUOUS
 62
    64
 10
-61.579742
 20
-61.81578
 11
-61.579742
 21
-61.998268
  0
LINE
  8
ボルト／ビス
  6
CONTINUOUS
 10
-61.72408
 20
-61.998268
 11
-61.14673
 21
-61.998268
  0
LINE
  8
ボルト／ビス
  6
CONTINUOUS
 10
-61.735405
 20
-61.998268
 11
-61.735405
 21
-62.098268
  0
LINE
  8
ボルト／ビス
  6
CONTINUOUS
 10
-61.735405
 20
-61.998268
 11
-61.135405
 21
-61.998268
  0
LINE
  8
ボルト／ビス
  6
CONTINUOUS
 10
-61.135405
 20
-61.998268
 11
-61.135405
 21
-62.098268
  0
ENDBLK
  0
ENDSEC
  0
SECTION
  2
ENTITIES
  0
POLYLINE
  8
通り芯
  6
CONTINUOUS
 66
     1
 70
     1
  0
VERTEX
  8
通り芯
 10
-210.0
 20
-148.5
  0
VERTEX
  8
通り芯
 10
210.0
 20
-148.5
  0
VERTEX
  8
通り芯
 10
210.0
 20
148.5
  0
VERTEX
  8
通り芯
 10
-210.0
 20
148.5
  0
SEQEND
  0
INSERT
  2
*GRP_0001
  8
型材断面
  6
CONTINUOUS
 10
0.0
 20
0.0
  0
LINE
  8
型材断面
  6
DASHDOT
 10
-92.435405
 20
1.69199
 11
-62.435405
 21
1.69199
  0
LINE
  8
型材断面
  6
DASHDOT
 10
-92.435405
 20
-77.76228
 11
-92.435405
 21
31.69199
  0
LINE
  8
型材断面
  6
DASHDOT
 10
-77.435405
 20
-77.76228
 11
-77.435405
 21
31.69199
  0
LINE
  8
型材断面
  6
DASHDOT
 10
-62.435405
 20
-77.76228
 11
-62.435405
 21
31.69199
  0
LINE
  8
型材断面
  6
DASHDOT
 10
-92.435405
 20
16.69199
 11
-62.435405
 21
16.69199
  0
LINE
  8
型材断面
  6
DASHDOT
 10
-92.435405
 20
31.69199
 11
-62.435405
 21
31.69199
  0
LINE
  8
型材断面
  6
CONTINUOUS
 10
-100.459278
 20
16.69199
 11
-104.345038
 21
14.448545
  0
LINE
  8
型材断面
  6
CONTINUOUS
 10
-100.459278
 20
16.69199
 11
-104.345038
 21
18.935435
  0
LINE
  8
型材断面
  6
CONTINUOUS
 10
-104.345038
 20
18.935435
 11
-104.345038
 21
14.448545
  0
LINE
  8
型材断面
  6
CONTINUOUS
 10
-54.411528
 20
16.69199
 11
-50.525767
 21
14.448545
  0
LINE
  8
型材断面
  6
CONTINUOUS
 10
-54.411528
 20
16.69199
 11
-50.525767
 21
18.935435
  0
LINE
  8
型材断面
  6
CONTINUOUS
 10
-50.525767
 20
18.935435
 11
-50.525767
 21
14.448545
  0
LINE
  8
型材断面
  6
CONTINUOUS
 10
-77.435405
 20
39.715863
 11
-79.67885
 21
43.601622
  0
LINE
  8
型材断面
  6
CONTINUOUS
 10
-77.435405
 20
39.715863
 11
-75.19196
 21
43.601622
  0
LINE
  8
型材断面
  6
CONTINUOUS
 10
-75.19196
 20
43.601622
 11
-79.67885
 21
43.601622
  0
LINE
  8
型材断面
  6
CONTINUOUS
 10
-77.435405
 20
-6.331887
 11
-79.67885
 21
-10.217648
  0
LINE
  8
型材断面
  6
CONTINUOUS
 10
-77.435405
 20
-6.331887
 11
-75.19196
 21
-10.217648
  0
LINE
  8
型材断面
  6
CONTINUOUS
 10
-75.19196
 20
-10.217648
 11
-79.67885
 21
-10.217648
  0
LINE
  8
型材断面
  6
CONTINUOUS
 10
-35.48472
 20
-6.182028
 11
-37.728165
 21
-10.067788
  0
LINE
  8
型材断面
  6
CONTINUOUS
 10
-35.48472
 20
-6.182028
 11
-33.241275
 21
-10.067788
  0
LINE
  8
型材断面
  6
CONTINUOUS
 10
-33.241275
 20
-10.067788
 11
-37.728165
 21
-10.067788
  0
LINE
  8
型材断面
  6
CONTINUOUS
 10
-44.5186
 20
-11.47568
 11
8.13808
 21
-11.47568
  0
LINE
  8
型材断面
  6
CONTINUOUS
 62
    47
 10
-96.935473
 20
-66.548265
 11
-96.935473
 21
-65.79827
  0
LINE
  8
型材断面
  6
CONTINUOUS
 62
    47
 10
-96.935473
 20
-65.79827
 11
-92.535475
 21
-65.052498
  0
LINE
  8
型材断面
  6
CONTINUOUS
 62
    47
 10
-96.935473
 20
-66.548265
 11
-77.435405
 21
-66.548265
  0
LINE
  8
型材断面
  6
CONTINUOUS
 10
-96.185487
 20
-67.298265
 11
-77.435405
 21
-67.298265
  0
LINE
  8
型材断面
  6
CONTINUOUS
 62
    47
 10
-96.185485
 20
-66.548265
 11
-96.185485
 21
-67.298265
  0
LINE
  8
型材断面
  6
CONTINUOUS
 10
-77.435405
 20
-65.052498
 11
-92.535475
 21
-65.052498
  0
LINE
  8
型材断面
  6
CONTINUOUS
 10
-96.935473
 20
-65.79827
 11
-77.435405
 21
-65.79827
  0
LINE
  8
型材断面
  6
CONTINUOUS
 62
    47
 10
-92.535475
 20
-65.052498
 11
-92.535475
 21
-63.748265
  0
LINE
  8
型材断面
  6
CONTINUOUS
 62
    47
 10
-57.935337
 20
-66.548265
 11
-57.935337
 21
-65.79827
  0
LINE
  8
型材断面
  6
CONTINUOUS
 62
    47
 10
-57.935337
 20
-65.79827
 11
-62.335335
 21
-65.052498
  0
LINE
  8
型材断面
  6
CONTINUOUS
 62
    47
 10
-57.935337
 20
-66.548265
 11
-77.435405
 21
-66.548265
  0
LINE
  8
型材断面
  6
CONTINUOUS
 10
-58.685322
 20
-67.298265
 11
-77.435405
 21
-67.298265
  0
LINE
  8
型材断面
  6
CONTINUOUS
 62
    47
 10
-58.685325
 20
-66.548265
 11
-58.685325
 21
-67.298265
  0
LINE
  8
型材断面
  6
CONTINUOUS
 10
-77.435405
 20
-65.052498
 11
-62.335335
 21
-65.052498
  0
LINE
  8
型材断面
  6
CONTINUOUS
 10
-57.935337
 20
-65.79827
 11
-77.435405
 21
-65.79827
  0
LINE
  8
型材断面
  6
CONTINUOUS
 62
    47
 10
-62.335335
 20
-65.052498
 11
-62.335335
 21
-63.748265
  0
LINE
  8
型材断面
  6
CONTINUOUS
 10
-59.335405
 20
-1.40801
 11
-57.935337
 21
-2.808078
  0
LINE
  8
型材断面
  6
CONTINUOUS
 10
-57.935337
 20
-2.808078
 11
-57.935337
 21
16.69199
  0
LINE
  8
型材断面
  6
CONTINUOUS
 10
-57.935337
 20
-2.808078
 11
-77.435405
 21
-2.808078
  0
LINE
  8
型材断面
  6
CONTINUOUS
 10
-57.935337
 20
36.192058
 11
-57.935337
 21
16.69199
  0
LINE
  8
型材断面
  6
CONTINUOUS
 10
-57.935337
 20
36.192058
 11
-77.435405
 21
36.192058
  0
LINE
  8
型材断面
  6
CONTINUOUS
 10
-95.535405
 20
34.79199
 11
-96.935473
 21
36.192058
  0
LINE
  8
型材断面
  6
CONTINUOUS
 10
-96.935473
 20
36.192058
 11
-96.935473
 21
16.69199
  0
LINE
  8
型材断面
  6
CONTINUOUS
 10
-96.935473
 20
36.192058
 11
-77.435405
 21
36.192058
  0
LINE
  8
型材断面
  6
CONTINUOUS
 10
-95.535405
 20
-1.40801
 11
-96.935473
 21
-2.808078
  0
LINE
  8
型材断面
  6
CONTINUOUS
 10
-96.935473
 20
-2.808078
 11
-96.935473
 21
16.69199
  0
LINE
  8
型材断面
  6
CONTINUOUS
 10
-96.935473
 20
-2.808078
 11
-77.435405
 21
-2.808078
  0
LINE
  8
型材断面
  6
CONTINUOUS
 10
-59.335405
 20
34.79199
 11
-57.935337
 21
36.192058
  0
LINE
  8
型材断面
  6
CONTINUOUS
 10
-44.5186
 20
-18.817118
 11
8.13808
 21
-18.817118
  0
LINE
  8
ガラス
  6
CONTINUOUS
 10
138.304785
 20
45.557477
 11
167.304785
 21
45.557477
  0
LINE
  8
ガラス
  6
CONTINUOUS
 10
167.304785
 20
74.557477
 11
167.304785
 21
45.557477
  0
LINE
  8
ガラス
  6
CONTINUOUS
 10
167.304785
 20
74.557477
 11
138.304785
 21
74.557477
  0
LINE
  8
ガラス
  6
CONTINUOUS
 10
138.304785
 20
45.557477
 11
138.304785
 21
74.557477
  0
CIRCLE
  8
ボルト／ビス
  6
CONTINUOUS
 10
-84.935405
 20
0.69199
 40
0.288675
  0
CIRCLE
  8
ボルト／ビス
  6
CONTINUOUS
 10
-84.935405
 20
0.69199
 40
0.455885
  0
CIRCLE
  8
ボルト／ビス
  6
CONTINUOUS
 10
-93.435405
 20
9.19199
 40
0.288675
  0
CIRCLE
  8
ボルト／ビス
  6
CONTINUOUS
 10
-93.435405
 20
9.19199
 40
0.455885
  0
CIRCLE
  8
ボルト／ビス
  6
CONTINUOUS
 10
-69.935405
 20
0.69199
 40
0.288675
  0
CIRCLE
  8
ボルト／ビス
  6
CONTINUOUS
 10
-69.935405
 20
0.69199
 40
0.455885
  0
CIRCLE
  8
ボルト／ビス
  6
CONTINUOUS
 10
-61.435405
 20
9.19199
 40
0.288675
  0
CIRCLE
  8
ボルト／ビス
  6
CONTINUOUS
 10
-61.435405
 20
9.19199
 40
0.455885
  0
CIRCLE
  8
ボルト／ビス
  6
CONTINUOUS
 10
-69.935405
 20
32.69199
 40
0.288675
  0
CIRCLE
  8
ボルト／ビス
  6
CONTINUOUS
 10
-69.935405
 20
32.69199
 40
0.455885
  0
CIRCLE
  8
ボルト／ビス
  6
CONTINUOUS
 10
-61.435405
 20
24.19199
 40
0.288675
  0
CIRCLE
  8
ボルト／ビス
  6
CONTINUOUS
 10
-61.435405
 20
24.19199
 40
0.455885
  0
CIRCLE
  8
ボルト／ビス
  6
CONTINUOUS
 10
-84.935405
 20
32.69199
 40
0.288675
  0
CIRCLE
  8
ボルト／ビス
  6
CONTINUOUS
 10
-84.935405
 20
32.69199
 40
0.455885
  0
CIRCLE
  8
ボルト／ビス
  6
CONTINUOUS
 10
-93.435405
 20
24.19199
 40
0.288675
  0
CIRCLE
  8
ボルト／ビス
  6
CONTINUOUS
 10
-93.435405
 20
24.19199
 40
0.455885
  0
INSERT
  2
*GRP_0002
  8
文字
  6
CONTINUOUS
 10
0.0
 20
0.0
  0
INSERT
  2
*GRP_0003
  8
文字
  6
CONTINUOUS
 10
0.0
 20
0.0
  0
INSERT
  2
*GRP_0004
  8
文字
  6
CONTINUOUS
 10
0.0
 20
0.0
  0
INSERT
  2
*GRP_0005
  8
文字
  6
CONTINUOUS
 10
0.0
 20
0.0
  0
INSERT
  2
*GRP_0006
  8
文字
  6
CONTINUOUS
 10
0.0
 20
0.0
  0
INSERT
  2
*GRP_0007
  8
文字
  6
CONTINUOUS
 10
0.0
 20
0.0
  0
INSERT
  2
*GRP_0008
  8
文字
  6
CONTINUOUS
 10
0.0
 20
0.0
  0
INSERT
  2
*GRP_0009
  8
文字
  6
CONTINUOUS
 10
0.0
 20
0.0
  0
TEXT
  7
TextStyle03
  8
文字
  6
CONTINUOUS
 10
-31.2
 20
-9.725
  1
は排水穴位置を示す
 40
3.0
 72
     5
 11
-1.2
 21
-9.725
  0
TEXT
  7
TextStyle03
  8
文字
  6
CONTINUOUS
 10
-98.825
 20
58.1
  1
アンカーピッチ
 40
3.0
 72
     5
 11
-75.575
 21
58.1
  0
TEXT
  7
TextStyle03
  8
文字
  6
CONTINUOUS
 10
-36.8
 20
-17.425
  1
アンカー数量　４ヶ所
 40
3.0
 72
     5
 11
-3.425
 21
-17.425
  0
TEXT
  7
TextStyle03
  8
文字
  6
CONTINUOUS
 10
93.65
 20
99.2
  1
ＮＳコード：ＮＳＫＺ
 40
5.0
 72
     5
 11
149.275
 21
99.2
  0
TEXT
  7
TextStyle03
  8
文字
  6
CONTINUOUS
 10
146.1
 20
53.8
  1
網入り6.8t
 40
3.0
 72
     5
 11
162.7875
 21
53.8
  0
TEXT
  7
TextStyle03
  8
文字
  6
CONTINUOUS
 10
152.725
 20
48.55
  1
×１枚
 40
3.0
 72
     5
 11
162.475
 21
48.55
  0
TEXT
  7
TextStyle03
  8
文字
  6
CONTINUOUS
 10
92.975
 20
120.7
  1
シリーズ：ＴＤ２Ｋ
 40
5.0
 72
     5
 11
142.975
 21
120.7
  0
TEXT
  7
TextStyle03
  8
文字
  6
CONTINUOUS
 10
92.975
 20
115.075
  1
　　　　　（固定）600×600タイプ
 40
5.0
 72
     5
 11
182.35
 21
115.075
  0
TEXT
  7
TextStyle03
  8
文字
  6
CONTINUOUS
 10
92.975
 20
109.45
  1
図面名　：外観姿図
 40
5.0
 72
     5
 11
142.975
 21
109.45
  0
TEXT
  7
TextStyle03
  8
文字
  6
CONTINUOUS
 10
92.975
 20
103.825
  1
　　　　　　
 40
5.0
 72
     5
 11
126.1
 21
103.825
  0
INSERT
  2
*DIM_0010
  8
寸法
  6
CONTINUOUS
 10
0.0
 20
0.0
  0
INSERT
  2
*DIM_0011
  8
寸法
  6
CONTINUOUS
 10
0.0
 20
0.0
  0
INSERT
  2
*DIM_0020
  8
寸法
  6
CONTINUOUS
 10
0.0
 20
0.0
  0
INSERT
  2
*DIM_0021
  8
寸法
  6
CONTINUOUS
 10
0.0
 20
0.0
  0
INSERT
  2
*DIM_0022
  8
寸法
  6
CONTINUOUS
 10
0.0
 20
0.0
  0
INSERT
  2
*DIM_0023
  8
寸法
  6
CONTINUOUS
 10
0.0
 20
0.0
  0
INSERT
  2
*DIM_0024
  8
寸法
  6
CONTINUOUS
 10
0.0
 20
0.0
  0
INSERT
  2
*DIM_0025
  8
寸法
  6
CONTINUOUS
 10
0.0
 20
0.0
  0
LINE
  8
別途部材
  6
CONTINUOUS
 10
-95.535405
 20
-1.40801
 11
-94.935405
 21
-0.80801
  0
LINE
  8
別途部材
  6
CONTINUOUS
 62
    96
 10
-94.935405
 20
-62.248265
 11
-95.535405
 21
-63.748265
  0
LINE
  8
別途部材
  6
CONTINUOUS
 62
    96
 10
-94.935405
 20
-62.248265
 11
-77.435405
 21
-62.248265
  0
LINE
  8
別途部材
  6
CONTINUOUS
 10
-95.535405
 20
-63.748265
 11
-77.435405
 21
-63.748265
  0
LINE
  8
別途部材
  6
CONTINUOUS
 62
    96
 10
-59.935405
 20
-62.248265
 11
-59.335405
 21
-63.748265
  0
LINE
  8
別途部材
  6
CONTINUOUS
 62
    96
 10
-59.935405
 20
-62.248265
 11
-77.435405
 21
-62.248265
  0
LINE
  8
別途部材
  6
CONTINUOUS
 10
-59.335405
 20
-63.748265
 11
-77.435405
 21
-63.748265
  0
ARC
  8
別途部材
  6
CONTINUOUS
 10
-77.435405
 20
-72.310764
 40
18.0625
 50
33.855026
 51
146.144974
  0
LINE
  8
別途部材
  6
CONTINUOUS
 10
-95.535405
 20
-1.40801
 11
-95.535405
 21
16.69199
  0
LINE
  8
別途部材
  6
CONTINUOUS
 10
-94.935405
 20
-0.80801
 11
-94.935405
 21
16.69199
  0
LINE
  8
別途部材
  6
CONTINUOUS
 10
-94.935405
 20
-0.80801
 11
-77.435405
 21
-0.80801
  0
LINE
  8
別途部材
  6
CONTINUOUS
 10
-95.535405
 20
-1.40801
 11
-77.435405
 21
-1.40801
  0
LINE
  8
別途部材
  6
CONTINUOUS
 10
-59.335405
 20
-1.40801
 11
-59.935405
 21
-0.80801
  0
LINE
  8
別途部材
  6
CONTINUOUS
 10
-59.335405
 20
-1.40801
 11
-59.335405
 21
16.69199
  0
LINE
  8
別途部材
  6
CONTINUOUS
 10
-59.935405
 20
-0.80801
 11
-59.935405
 21
16.69199
  0
LINE
  8
別途部材
  6
CONTINUOUS
 10
-59.935405
 20
-0.80801
 11
-77.435405
 21
-0.80801
  0
LINE
  8
別途部材
  6
CONTINUOUS
 10
-59.335405
 20
-1.40801
 11
-77.435405
 21
-1.40801
  0
LINE
  8
別途部材
  6
CONTINUOUS
 10
-59.335405
 20
34.79199
 11
-59.935405
 21
34.19199
  0
LINE
  8
別途部材
  6
CONTINUOUS
 10
-59.335405
 20
34.79199
 11
-59.335405
 21
16.69199
  0
LINE
  8
別途部材
  6
CONTINUOUS
 10
-59.935405
 20
34.19199
 11
-59.935405
 21
16.69199
  0
LINE
  8
別途部材
  6
CONTINUOUS
 10
-59.935405
 20
34.19199
 11
-77.435405
 21
34.19199
  0
LINE
  8
別途部材
  6
CONTINUOUS
 10
-59.335405
 20
34.79199
 11
-77.435405
 21
34.79199
  0
LINE
  8
別途部材
  6
CONTINUOUS
 10
-95.535405
 20
34.79199
 11
-94.935405
 21
34.19199
  0
LINE
  8
別途部材
  6
CONTINUOUS
 10
-95.535405
 20
34.79199
 11
-95.535405
 21
16.69199
  0
LINE
  8
別途部材
  6
CONTINUOUS
 10
-94.935405
 20
34.19199
 11
-94.935405
 21
16.69199
  0
LINE
  8
別途部材
  6
CONTINUOUS
 10
-94.935405
 20
34.19199
 11
-77.435405
 21
34.19199
  0
LINE
  8
別途部材
  6
CONTINUOUS
 10
-95.535405
 20
34.79199
 11
-77.435405
 21
34.79199
  0
LINE
  8
別途部材
  6
CONTINUOUS
 10
-92.435405
 20
1.69199
 11
-88.025072
 21
6.102323
  0
LINE
  8
別途部材
  6
CONTINUOUS
 10
-62.435405
 20
1.69199
 11
-66.845737
 21
6.102323
  0
LINE
  8
別途部材
  6
CONTINUOUS
 10
-92.435405
 20
31.69199
 11
-88.025072
 21
27.281658
  0
LINE
  8
別途部材
  6
CONTINUOUS
 10
-62.435405
 20
31.69199
 11
-66.845737
 21
27.281658
  0
INSERT
  2
*GRP_0026
  8
別途部材
  6
DOT
 10
0.0
 20
0.0
  0
INSERT
  2
*GRP_0027
  8
別途部材
  6
DOT
 10
0.0
 20
0.0
  0
CIRCLE
  8
LAYER010
  6
CONTINUOUS
 62
     7
 10
-96.935473
 20
-65.79827
 40
0.016668
  0
CIRCLE
  8
LAYER010
  6
CONTINUOUS
 62
     7
 10
-96.935473
 20
-65.79827
 40
0.016668
  0
CIRCLE
  8
LAYER010
  6
CONTINUOUS
 62
     7
 10
-57.935337
 20
-65.79827
 40
0.016668
  0
CIRCLE
  8
LAYER010
  6
CONTINUOUS
 62
     7
 10
-57.935337
 20
-65.79827
 40
0.016668
  0
ENDSEC
  0
EOF
