  0
SECTION
  2
HEADER
  9
$EXTMIN
 10
-210.0
 20
-148.5
  9
$EXTMAX
 10
210.0
 20
148.5
  9
$PDMODE
 70
    32
  9
$PDSIZE
 40
1.5
  9
$LTSCALE
 40
10.0
  0
ENDSEC
  0
SECTION
  2
TABLES
  0
TABLE
  2
LTYPE
 70
    15
  0
LTYPE
  2
CONTINUOUS
 70
    64
  3
実線
 72
    65
 73
     0
 40
0.0
  0
LTYPE
  2
DASHED
 70
    64
  3
破線A
 72
    65
 73
     2
 40
0.6
 49
0.4
 49
-0.2
  0
LTYPE
  2
DASHEDX2
 70
    64
  3
破線B
 72
    65
 73
     2
 40
1.3
 49
0.9
 49
-0.4
  0
LTYPE
  2
DASHDOT
 70
    64
  3
１点鎖線A
 72
    65
 73
     4
 40
0.5375
 49
0.375
 49
-0.05
 49
0.0625
 49
-0.05
  0
LTYPE
  2
DASHDOTX2
 70
    64
  3
１点鎖線B
 72
    65
 73
     4
 40
1.075
 49
0.75
 49
-0.1
 49
0.125
 49
-0.1
  0
LTYPE
  2
DIVIDE2
 70
    64
  3
２点鎖線A
 72
    65
 73
     6
 40
0.5125
 49
0.3
 49
-0.0375
 49
0.05
 49
-0.0375
 49
0.05
 49
-0.0375
  0
LTYPE
  2
DIVIDE
 70
    64
  3
２点鎖線B
 72
    65
 73
     6
 40
1.05
 49
0.55
 49
-0.1
 49
0.1
 49
-0.1
 49
0.1
 49
-0.1
  0
LTYPE
  2
DOT
 70
    64
  3
点線A
 72
    65
 73
     2
 40
0.1125
 49
0.0625
 49
-0.05
  0
LTYPE
  2
DOTX2
 70
    64
  3
点線B
 72
    65
 73
     2
 40
0.275
 49
0.15
 49
-0.125
  0
LTYPE
  2
CONTINUOUS
 70
    64
  3
実線
 72
    65
 73
     0
 40
0.0
  0
LTYPE
  2
CONTINUOUS
 70
    64
  3
実線
 72
    65
 73
     0
 40
0.0
  0
LTYPE
  2
CONTINUOUS
 70
    64
  3
実線
 72
    65
 73
     0
 40
0.0
  0
LTYPE
  2
CONTINUOUS
 70
    64
  3
実線
 72
    65
 73
     0
 40
0.0
  0
LTYPE
  2
CONTINUOUS
 70
    64
  3
実線
 72
    65
 73
     0
 40
0.0
  0
LTYPE
  2
CONTINUOUS
 70
    64
  3
実線
 72
    65
 73
     0
 40
0.0
  0
ENDTAB
  0
TABLE
  2
LAYER
 70
    35
  0
LAYER
  2
通り芯
 70
     0
 62
    15
  6
CONTINUOUS
  0
LAYER
  2
補助線
 70
     0
 62
    16
  6
DOT
  0
LAYER
  2
躯体
 70
     0
 62
    31
  6
CONTINUOUS
  0
LAYER
  2
型材
 70
     0
 62
    32
  6
CONTINUOUS
  0
LAYER
  2
型材断面
 70
     0
 62
    47
  6
CONTINUOUS
  0
LAYER
  2
ガラス
 70
     0
 62
    48
  6
CONTINUOUS
  0
LAYER
  2
ゴム等
 70
     0
 62
    63
  6
CONTINUOUS
  0
LAYER
  2
ボルト／ビス
 70
     0
 62
    64
  6
CONTINUOUS
  0
LAYER
  2
文字
 70
     0
 62
    79
  6
CONTINUOUS
  0
LAYER
  2
寸法
 70
     0
 62
    80
  6
CONTINUOUS
  0
LAYER
  2
ﾊｯﾁﾝｸﾞ
 70
     0
 62
    95
  6
CONTINUOUS
  0
LAYER
  2
別途部材
 70
     0
 62
    96
  6
CONTINUOUS
  0
LAYER
  2
曲げ物
 70
     0
 62
   111
  6
CONTINUOUS
  0
LAYER
  2
鉄骨等
 70
     0
 62
   112
  6
CONTINUOUS
  0
LAYER
  2
St
 70
     0
 62
   127
  6
CONTINUOUS
  0
LAYER
  2
その他部品等
 70
     0
 62
   128
  6
CONTINUOUS
  0
LAYER
  2
ｶﾞｽｹｯﾄ
 70
     0
 62
   143
  6
CONTINUOUS
  0
LAYER
  2
ｽｹｯﾁ
 70
     0
 62
    14
  6
CONTINUOUS
  0
LAYER
  2
0
 70
     0
 62
    17
  6
CONTINUOUS
  0
LAYER
  2
1
 70
     0
 62
    30
  6
CONTINUOUS
  0
LAYER
  2
4
 70
     0
 62
    33
  6
CONTINUOUS
  0
LAYER
  2
ﾚｲﾔ3
 70
     0
 62
    46
  6
CONTINUOUS
  0
LAYER
  2
外形線
 70
     0
 62
    49
  6
CONTINUOUS
  0
LAYER
  2
部品
 70
     0
 62
    14
  6
CONTINUOUS
  0
LAYER
  2
サッシ芯
 70
     0
 62
    17
  6
DASHDOTX2
  0
LAYER
  2
寸法線
 70
     0
 62
    62
  6
CONTINUOUS
  0
LAYER
  2
姿図外形線
 70
     0
 62
    65
  6
CONTINUOUS
  0
LAYER
  2
姿補助線
 70
     0
 62
    30
  6
CONTINUOUS
  0
LAYER
  2
透視線
 70
     0
 62
    78
  6
DOT
  0
LAYER
  2
用紙
 70
     0
 62
    81
  6
CONTINUOUS
  0
LAYER
  2
実線図枠
 70
     0
 62
    94
  6
CONTINUOUS
  0
LAYER
  2
補助図枠
 70
     0
 62
    97
  6
CONTINUOUS
  0
LAYER
  2
建具記号
 70
     0
 62
   110
  6
CONTINUOUS
  0
LAYER
  2
補助文字
 70
     0
 62
   113
  6
CONTINUOUS
  0
LAYER
  2
LAYER010
 70
     0
 62
    11
  6
CONTINUOUS
  0
ENDTAB
  0
TABLE
  2
STYLE
 70
    10
  0
STYLE
  2
STANDARD
 70
     0
 40
1.0
 41
1.0
 42
1.0
 50
0.0
 71
     0
  3
TXT
  4
BIGFONT
  0
STYLE
  2
TATE
 70
     4
 40
1.0
 41
1.0
 42
1.0
 50
0.0
 71
     0
  3
TXT
  4
BIGFONT
  0
STYLE
  2
TextStyle03
 70
     0
 40
1.0
 41
1.0
 42
1.0
 50
0.0
 71
     0
  3
MONOTXT
  4
BIGFONT
  0
STYLE
  2
TextStyle04
 70
     0
 40
1.0
 41
1.0
 42
1.0
 50
0.0
 71
     0
  3
MONOTXT
  4
BIGFONT
  0
STYLE
  2
TextStyle05
 70
     0
 40
1.0
 41
1.0
 42
1.0
 50
0.0
 71
     0
  3
MONOTXT
  4
BIGFONT
  0
STYLE
  2
TextStyle06
 70
     0
 40
1.0
 41
1.0
 42
1.0
 50
0.0
 71
     0
  3
MONOTXT
  4
BIGFONT
  0
STYLE
  2
TextStyle07
 70
     0
 40
1.0
 41
1.0
 42
1.0
 50
0.0
 71
     0
  3
MONOTXT
  4
BIGFONT
  0
STYLE
  2
TextStyle08
 70
     0
 40
1.0
 41
1.0
 42
1.0
 50
0.0
 71
     0
  3
MONOTXT
  4
BIGFONT
  0
STYLE
  2
TextStyle09
 70
     0
 40
1.0
 41
1.0
 42
1.0
 50
0.0
 71
     0
  3
MONOTXT
  4
BIGFONT
  0
STYLE
  2
TextStyle10
 70
     0
 40
1.0
 41
1.0
 42
1.0
 50
0.0
 71
     0
  3
MONOTXT
  4
BIGFONT
  0
ENDTAB
  0
ENDSEC
  0
SECTION
  2
BLOCKS
  0
BLOCK
  2
*GRP_0001
 70
    65
 10
0.0
 20
0.0
  0
LINE
  8
型材断面
  6
CONTINUOUS
 10
195.0
 20
133.5
 11
195.0
 21
-133.5
  0
LINE
  8
型材断面
  6
CONTINUOUS
 10
195.0
 20
-133.5
 11
-185.0
 21
-133.5
  0
LINE
  8
型材断面
  6
CONTINUOUS
 10
-185.0
 20
-133.5
 11
-185.0
 21
133.5
  0
LINE
  8
型材断面
  6
CONTINUOUS
 10
195.0
 20
133.5
 11
-185.0
 21
133.5
  0
LINE
  8
型材断面
  6
CONTINUOUS
 10
145.0
 20
-133.5
 11
145.0
 21
-118.5
  0
LINE
  8
型材断面
  6
CONTINUOUS
 10
195.0
 20
-118.5
 11
145.0
 21
-118.5
  0
ENDBLK
  0
BLOCK
  2
*GRP_0002
 70
    65
 10
0.0
 20
0.0
  0
INSERT
  2
*GRP_0024
  8
補助線
  6
CONTINUOUS
 10
0.0
 20
0.0
  0
LINE
  8
ボルト／ビス
  6
CONTINUOUS
 10
-55.755937
 20
-8.107235
 11
-55.505937
 21
-7.962897
  0
LINE
  8
ボルト／ビス
  6
CONTINUOUS
 10
-55.755937
 20
-8.107235
 11
-56.005937
 21
-7.962897
  0
LINE
  8
ボルト／ビス
  6
CONTINUOUS
 10
-55.505937
 20
-7.674222
 11
-55.755937
 21
-7.529885
  0
LINE
  8
ボルト／ビス
  6
CONTINUOUS
 10
-56.005937
 20
-7.674222
 11
-55.755937
 21
-7.529885
  0
CIRCLE
  8
ボルト／ビス
  6
CONTINUOUS
 10
-55.755937
 20
-7.81856
 40
0.25
  0
LINE
  8
ボルト／ビス
  6
CONTINUOUS
 10
-56.005937
 20
-7.962897
 11
-56.005937
 21
-7.674222
  0
LINE
  8
ボルト／ビス
  6
CONTINUOUS
 10
-55.505937
 20
-7.674222
 11
-55.505937
 21
-7.962897
  0
ENDBLK
  0
BLOCK
  2
*GRP_0003
 70
    65
 10
0.0
 20
0.0
  0
INSERT
  2
*GRP_0025
  8
補助線
  6
CONTINUOUS
 10
0.0
 20
0.0
  0
LINE
  8
ボルト／ビス
  6
CONTINUOUS
 10
-70.755937
 20
-8.107235
 11
-70.505937
 21
-7.962897
  0
LINE
  8
ボルト／ビス
  6
CONTINUOUS
 10
-70.755937
 20
-8.107235
 11
-71.005937
 21
-7.962897
  0
LINE
  8
ボルト／ビス
  6
CONTINUOUS
 10
-70.505937
 20
-7.674222
 11
-70.755937
 21
-7.529885
  0
LINE
  8
ボルト／ビス
  6
CONTINUOUS
 10
-71.005937
 20
-7.674222
 11
-70.755937
 21
-7.529885
  0
CIRCLE
  8
ボルト／ビス
  6
CONTINUOUS
 10
-70.755937
 20
-7.81856
 40
0.25
  0
LINE
  8
ボルト／ビス
  6
CONTINUOUS
 10
-71.005937
 20
-7.962897
 11
-71.005937
 21
-7.674222
  0
LINE
  8
ボルト／ビス
  6
CONTINUOUS
 10
-70.505937
 20
-7.674222
 11
-70.505937
 21
-7.962897
  0
ENDBLK
  0
BLOCK
  2
*GRP_0004
 70
    65
 10
0.0
 20
0.0
  0
INSERT
  2
*GRP_0026
  8
補助線
  6
CONTINUOUS
 10
0.0
 20
0.0
  0
LINE
  8
ボルト／ビス
  6
CONTINUOUS
 10
-85.755937
 20
-8.107235
 11
-85.505937
 21
-7.962897
  0
LINE
  8
ボルト／ビス
  6
CONTINUOUS
 10
-85.755937
 20
-8.107235
 11
-86.005937
 21
-7.962897
  0
LINE
  8
ボルト／ビス
  6
CONTINUOUS
 10
-85.505937
 20
-7.674222
 11
-85.755937
 21
-7.529885
  0
LINE
  8
ボルト／ビス
  6
CONTINUOUS
 10
-86.005937
 20
-7.674222
 11
-85.755937
 21
-7.529885
  0
CIRCLE
  8
ボルト／ビス
  6
CONTINUOUS
 10
-85.755937
 20
-7.81856
 40
0.25
  0
LINE
  8
ボルト／ビス
  6
CONTINUOUS
 10
-86.005937
 20
-7.962897
 11
-86.005937
 21
-7.674222
  0
LINE
  8
ボルト／ビス
  6
CONTINUOUS
 10
-85.505937
 20
-7.674222
 11
-85.505937
 21
-7.962897
  0
ENDBLK
  0
BLOCK
  2
*GRP_0005
 70
    65
 10
0.0
 20
0.0
  0
INSERT
  2
*GRP_0027
  8
補助線
  6
CONTINUOUS
 10
0.0
 20
0.0
  0
LINE
  8
ボルト／ビス
  6
CONTINUOUS
 10
-97.044613
 20
33.18144
 11
-96.900275
 21
33.43144
  0
LINE
  8
ボルト／ビス
  6
CONTINUOUS
 10
-97.044613
 20
33.18144
 11
-96.900275
 21
32.93144
  0
LINE
  8
ボルト／ビス
  6
CONTINUOUS
 10
-96.6116
 20
33.43144
 11
-96.467263
 21
33.18144
  0
LINE
  8
ボルト／ビス
  6
CONTINUOUS
 10
-96.6116
 20
32.93144
 11
-96.467263
 21
33.18144
  0
CIRCLE
  8
ボルト／ビス
  6
CONTINUOUS
 10
-96.755937
 20
33.18144
 40
0.25
  0
LINE
  8
ボルト／ビス
  6
CONTINUOUS
 10
-96.900275
 20
32.93144
 11
-96.6116
 21
32.93144
  0
LINE
  8
ボルト／ビス
  6
CONTINUOUS
 10
-96.6116
 20
33.43144
 11
-96.900275
 21
33.43144
  0
ENDBLK
  0
BLOCK
  2
*GRP_0006
 70
    65
 10
0.0
 20
0.0
  0
INSERT
  2
*GRP_0028
  8
補助線
  6
CONTINUOUS
 10
0.0
 20
0.0
  0
LINE
  8
ボルト／ビス
  6
CONTINUOUS
 10
-97.044613
 20
18.18144
 11
-96.900275
 21
18.43144
  0
LINE
  8
ボルト／ビス
  6
CONTINUOUS
 10
-97.044613
 20
18.18144
 11
-96.900275
 21
17.93144
  0
LINE
  8
ボルト／ビス
  6
CONTINUOUS
 10
-96.6116
 20
18.43144
 11
-96.467263
 21
18.18144
  0
LINE
  8
ボルト／ビス
  6
CONTINUOUS
 10
-96.6116
 20
17.93144
 11
-96.467263
 21
18.18144
  0
CIRCLE
  8
ボルト／ビス
  6
CONTINUOUS
 10
-96.755937
 20
18.18144
 40
0.25
  0
LINE
  8
ボルト／ビス
  6
CONTINUOUS
 10
-96.900275
 20
17.93144
 11
-96.6116
 21
17.93144
  0
LINE
  8
ボルト／ビス
  6
CONTINUOUS
 10
-96.6116
 20
18.43144
 11
-96.900275
 21
18.43144
  0
ENDBLK
  0
BLOCK
  2
*GRP_0007
 70
    65
 10
0.0
 20
0.0
  0
INSERT
  2
*GRP_0029
  8
補助線
  6
CONTINUOUS
 10
0.0
 20
0.0
  0
LINE
  8
ボルト／ビス
  6
CONTINUOUS
 10
-97.044613
 20
3.18144
 11
-96.900275
 21
3.43144
  0
LINE
  8
ボルト／ビス
  6
CONTINUOUS
 10
-97.044613
 20
3.18144
 11
-96.900275
 21
2.93144
  0
LINE
  8
ボルト／ビス
  6
CONTINUOUS
 10
-96.6116
 20
3.43144
 11
-96.467263
 21
3.18144
  0
LINE
  8
ボルト／ビス
  6
CONTINUOUS
 10
-96.6116
 20
2.93144
 11
-96.467263
 21
3.18144
  0
CIRCLE
  8
ボルト／ビス
  6
CONTINUOUS
 10
-96.755937
 20
3.18144
 40
0.25
  0
LINE
  8
ボルト／ビス
  6
CONTINUOUS
 10
-96.900275
 20
2.93144
 11
-96.6116
 21
2.93144
  0
LINE
  8
ボルト／ビス
  6
CONTINUOUS
 10
-96.6116
 20
3.43144
 11
-96.900275
 21
3.43144
  0
ENDBLK
  0
BLOCK
  2
*GRP_0008
 70
    65
 10
0.0
 20
0.0
  0
INSERT
  2
*GRP_0030
  8
補助線
  6
CONTINUOUS
 10
0.0
 20
0.0
  0
LINE
  8
ボルト／ビス
  6
CONTINUOUS
 10
-70.755937
 20
74.470115
 11
-70.505937
 21
74.325778
  0
LINE
  8
ボルト／ビス
  6
CONTINUOUS
 10
-70.755937
 20
74.470115
 11
-71.005937
 21
74.325778
  0
LINE
  8
ボルト／ビス
  6
CONTINUOUS
 10
-70.505937
 20
74.037103
 11
-70.755937
 21
73.892765
  0
LINE
  8
ボルト／ビス
  6
CONTINUOUS
 10
-71.005937
 20
74.037103
 11
-70.755937
 21
73.892765
  0
CIRCLE
  8
ボルト／ビス
  6
CONTINUOUS
 10
-70.755937
 20
74.18144
 40
0.25
  0
LINE
  8
ボルト／ビス
  6
CONTINUOUS
 10
-71.005937
 20
74.325778
 11
-71.005937
 21
74.037103
  0
LINE
  8
ボルト／ビス
  6
CONTINUOUS
 10
-70.505937
 20
74.037103
 11
-70.505937
 21
74.325778
  0
ENDBLK
  0
BLOCK
  2
*GRP_0009
 70
    65
 10
0.0
 20
0.0
  0
INSERT
  2
*GRP_0031
  8
補助線
  6
CONTINUOUS
 10
0.0
 20
0.0
  0
LINE
  8
ボルト／ビス
  6
CONTINUOUS
 10
-85.755937
 20
74.470115
 11
-85.505937
 21
74.325778
  0
LINE
  8
ボルト／ビス
  6
CONTINUOUS
 10
-85.755937
 20
74.470115
 11
-86.005937
 21
74.325778
  0
LINE
  8
ボルト／ビス
  6
CONTINUOUS
 10
-85.505937
 20
74.037103
 11
-85.755937
 21
73.892765
  0
LINE
  8
ボルト／ビス
  6
CONTINUOUS
 10
-86.005937
 20
74.037103
 11
-85.755937
 21
73.892765
  0
CIRCLE
  8
ボルト／ビス
  6
CONTINUOUS
 10
-85.755937
 20
74.18144
 40
0.25
  0
LINE
  8
ボルト／ビス
  6
CONTINUOUS
 10
-86.005937
 20
74.325778
 11
-86.005937
 21
74.037103
  0
LINE
  8
ボルト／ビス
  6
CONTINUOUS
 10
-85.505937
 20
74.037103
 11
-85.505937
 21
74.325778
  0
ENDBLK
  0
BLOCK
  2
*GRP_0010
 70
    65
 10
0.0
 20
0.0
  0
INSERT
  2
*GRP_0032
  8
補助線
  6
CONTINUOUS
 10
0.0
 20
0.0
  0
LINE
  8
ボルト／ビス
  6
CONTINUOUS
 10
-97.044613
 20
48.18144
 11
-96.900275
 21
47.93144
  0
LINE
  8
ボルト／ビス
  6
CONTINUOUS
 10
-97.044613
 20
48.18144
 11
-96.900275
 21
48.43144
  0
LINE
  8
ボルト／ビス
  6
CONTINUOUS
 10
-96.6116
 20
47.93144
 11
-96.467263
 21
48.18144
  0
LINE
  8
ボルト／ビス
  6
CONTINUOUS
 10
-96.6116
 20
48.43144
 11
-96.467263
 21
48.18144
  0
CIRCLE
  8
ボルト／ビス
  6
CONTINUOUS
 10
-96.755937
 20
48.18144
 40
0.25
  0
LINE
  8
ボルト／ビス
  6
CONTINUOUS
 10
-96.900275
 20
48.43144
 11
-96.6116
 21
48.43144
  0
LINE
  8
ボルト／ビス
  6
CONTINUOUS
 10
-96.6116
 20
47.93144
 11
-96.900275
 21
47.93144
  0
ENDBLK
  0
BLOCK
  2
*GRP_0011
 70
    65
 10
0.0
 20
0.0
  0
INSERT
  2
*GRP_0033
  8
補助線
  6
CONTINUOUS
 10
0.0
 20
0.0
  0
LINE
  8
ボルト／ビス
  6
CONTINUOUS
 10
-97.044613
 20
63.18144
 11
-96.900275
 21
62.93144
  0
LINE
  8
ボルト／ビス
  6
CONTINUOUS
 10
-97.044613
 20
63.18144
 11
-96.900275
 21
63.43144
  0
LINE
  8
ボルト／ビス
  6
CONTINUOUS
 10
-96.6116
 20
62.93144
 11
-96.467263
 21
63.18144
  0
LINE
  8
ボルト／ビス
  6
CONTINUOUS
 10
-96.6116
 20
63.43144
 11
-96.467263
 21
63.18144
  0
CIRCLE
  8
ボルト／ビス
  6
CONTINUOUS
 10
-96.755937
 20
63.18144
 40
0.25
  0
LINE
  8
ボルト／ビス
  6
CONTINUOUS
 10
-96.900275
 20
63.43144
 11
-96.6116
 21
63.43144
  0
LINE
  8
ボルト／ビス
  6
CONTINUOUS
 10
-96.6116
 20
62.93144
 11
-96.900275
 21
62.93144
  0
ENDBLK
  0
BLOCK
  2
*GRP_0012
 70
    65
 10
0.0
 20
0.0
  0
INSERT
  2
*GRP_0034
  8
補助線
  6
CONTINUOUS
 10
0.0
 20
0.0
  0
LINE
  8
ボルト／ビス
  6
CONTINUOUS
 10
-40.755937
 20
-8.107235
 11
-41.005937
 21
-7.962897
  0
LINE
  8
ボルト／ビス
  6
CONTINUOUS
 10
-40.755937
 20
-8.107235
 11
-40.505937
 21
-7.962897
  0
LINE
  8
ボルト／ビス
  6
CONTINUOUS
 10
-41.005937
 20
-7.674222
 11
-40.755937
 21
-7.529885
  0
LINE
  8
ボルト／ビス
  6
CONTINUOUS
 10
-40.505937
 20
-7.674222
 11
-40.755937
 21
-7.529885
  0
CIRCLE
  8
ボルト／ビス
  6
CONTINUOUS
 10
-40.755937
 20
-7.81856
 40
0.25
  0
LINE
  8
ボルト／ビス
  6
CONTINUOUS
 10
-40.505937
 20
-7.962897
 11
-40.505937
 21
-7.674222
  0
LINE
  8
ボルト／ビス
  6
CONTINUOUS
 10
-41.005937
 20
-7.674222
 11
-41.005937
 21
-7.962897
  0
ENDBLK
  0
BLOCK
  2
*GRP_0013
 70
    65
 10
0.0
 20
0.0
  0
INSERT
  2
*GRP_0035
  8
補助線
  6
CONTINUOUS
 10
0.0
 20
0.0
  0
LINE
  8
ボルト／ビス
  6
CONTINUOUS
 10
-25.755937
 20
-8.107235
 11
-26.005937
 21
-7.962897
  0
LINE
  8
ボルト／ビス
  6
CONTINUOUS
 10
-25.755937
 20
-8.107235
 11
-25.505937
 21
-7.962897
  0
LINE
  8
ボルト／ビス
  6
CONTINUOUS
 10
-26.005937
 20
-7.674222
 11
-25.755937
 21
-7.529885
  0
LINE
  8
ボルト／ビス
  6
CONTINUOUS
 10
-25.505937
 20
-7.674222
 11
-25.755937
 21
-7.529885
  0
CIRCLE
  8
ボルト／ビス
  6
CONTINUOUS
 10
-25.755937
 20
-7.81856
 40
0.25
  0
LINE
  8
ボルト／ビス
  6
CONTINUOUS
 10
-25.505937
 20
-7.962897
 11
-25.505937
 21
-7.674222
  0
LINE
  8
ボルト／ビス
  6
CONTINUOUS
 10
-26.005937
 20
-7.674222
 11
-26.005937
 21
-7.962897
  0
ENDBLK
  0
BLOCK
  2
*GRP_0014
 70
    65
 10
0.0
 20
0.0
  0
INSERT
  2
*GRP_0036
  8
補助線
  6
CONTINUOUS
 10
0.0
 20
0.0
  0
LINE
  8
ボルト／ビス
  6
CONTINUOUS
 10
-14.467263
 20
18.18144
 11
-14.6116
 21
18.43144
  0
LINE
  8
ボルト／ビス
  6
CONTINUOUS
 10
-14.467263
 20
18.18144
 11
-14.6116
 21
17.93144
  0
LINE
  8
ボルト／ビス
  6
CONTINUOUS
 10
-14.900275
 20
18.43144
 11
-15.044613
 21
18.18144
  0
LINE
  8
ボルト／ビス
  6
CONTINUOUS
 10
-14.900275
 20
17.93144
 11
-15.044613
 21
18.18144
  0
CIRCLE
  8
ボルト／ビス
  6
CONTINUOUS
 10
-14.755937
 20
18.18144
 40
0.25
  0
LINE
  8
ボルト／ビス
  6
CONTINUOUS
 10
-14.6116
 20
17.93144
 11
-14.900275
 21
17.93144
  0
LINE
  8
ボルト／ビス
  6
CONTINUOUS
 10
-14.900275
 20
18.43144
 11
-14.6116
 21
18.43144
  0
ENDBLK
  0
BLOCK
  2
*GRP_0015
 70
    65
 10
0.0
 20
0.0
  0
INSERT
  2
*GRP_0037
  8
補助線
  6
CONTINUOUS
 10
0.0
 20
0.0
  0
LINE
  8
ボルト／ビス
  6
CONTINUOUS
 10
-14.467263
 20
3.18144
 11
-14.6116
 21
3.43144
  0
LINE
  8
ボルト／ビス
  6
CONTINUOUS
 10
-14.467263
 20
3.18144
 11
-14.6116
 21
2.93144
  0
LINE
  8
ボルト／ビス
  6
CONTINUOUS
 10
-14.900275
 20
3.43144
 11
-15.044613
 21
3.18144
  0
LINE
  8
ボルト／ビス
  6
CONTINUOUS
 10
-14.900275
 20
2.93144
 11
-15.044613
 21
3.18144
  0
CIRCLE
  8
ボルト／ビス
  6
CONTINUOUS
 10
-14.755937
 20
3.18144
 40
0.25
  0
LINE
  8
ボルト／ビス
  6
CONTINUOUS
 10
-14.6116
 20
2.93144
 11
-14.900275
 21
2.93144
  0
LINE
  8
ボルト／ビス
  6
CONTINUOUS
 10
-14.900275
 20
3.43144
 11
-14.6116
 21
3.43144
  0
ENDBLK
  0
BLOCK
  2
*GRP_0016
 70
    65
 10
0.0
 20
0.0
  0
INSERT
  2
*GRP_0038
  8
補助線
  6
CONTINUOUS
 10
0.0
 20
0.0
  0
LINE
  8
ボルト／ビス
  6
CONTINUOUS
 10
-40.755937
 20
74.470115
 11
-41.005937
 21
74.325778
  0
LINE
  8
ボルト／ビス
  6
CONTINUOUS
 10
-40.755937
 20
74.470115
 11
-40.505937
 21
74.325778
  0
LINE
  8
ボルト／ビス
  6
CONTINUOUS
 10
-41.005937
 20
74.037103
 11
-40.755937
 21
73.892765
  0
LINE
  8
ボルト／ビス
  6
CONTINUOUS
 10
-40.505937
 20
74.037103
 11
-40.755937
 21
73.892765
  0
CIRCLE
  8
ボルト／ビス
  6
CONTINUOUS
 10
-40.755937
 20
74.18144
 40
0.25
  0
LINE
  8
ボルト／ビス
  6
CONTINUOUS
 10
-40.505937
 20
74.325778
 11
-40.505937
 21
74.037103
  0
LINE
  8
ボルト／ビス
  6
CONTINUOUS
 10
-41.005937
 20
74.037103
 11
-41.005937
 21
74.325778
  0
ENDBLK
  0
BLOCK
  2
*GRP_0017
 70
    65
 10
0.0
 20
0.0
  0
INSERT
  2
*GRP_0039
  8
補助線
  6
CONTINUOUS
 10
0.0
 20
0.0
  0
LINE
  8
ボルト／ビス
  6
CONTINUOUS
 10
-25.755937
 20
74.470115
 11
-26.005937
 21
74.325778
  0
LINE
  8
ボルト／ビス
  6
CONTINUOUS
 10
-25.755937
 20
74.470115
 11
-25.505937
 21
74.325778
  0
LINE
  8
ボルト／ビス
  6
CONTINUOUS
 10
-26.005937
 20
74.037103
 11
-25.755937
 21
73.892765
  0
LINE
  8
ボルト／ビス
  6
CONTINUOUS
 10
-25.505937
 20
74.037103
 11
-25.755937
 21
73.892765
  0
CIRCLE
  8
ボルト／ビス
  6
CONTINUOUS
 10
-25.755937
 20
74.18144
 40
0.25
  0
LINE
  8
ボルト／ビス
  6
CONTINUOUS
 10
-25.505937
 20
74.325778
 11
-25.505937
 21
74.037103
  0
LINE
  8
ボルト／ビス
  6
CONTINUOUS
 10
-26.005937
 20
74.037103
 11
-26.005937
 21
74.325778
  0
ENDBLK
  0
BLOCK
  2
*GRP_0018
 70
    65
 10
0.0
 20
0.0
  0
INSERT
  2
*GRP_0040
  8
補助線
  6
CONTINUOUS
 10
0.0
 20
0.0
  0
LINE
  8
ボルト／ビス
  6
CONTINUOUS
 10
-14.467263
 20
48.18144
 11
-14.6116
 21
47.93144
  0
LINE
  8
ボルト／ビス
  6
CONTINUOUS
 10
-14.467263
 20
48.18144
 11
-14.6116
 21
48.43144
  0
LINE
  8
ボルト／ビス
  6
CONTINUOUS
 10
-14.900275
 20
47.93144
 11
-15.044613
 21
48.18144
  0
LINE
  8
ボルト／ビス
  6
CONTINUOUS
 10
-14.900275
 20
48.43144
 11
-15.044613
 21
48.18144
  0
CIRCLE
  8
ボルト／ビス
  6
CONTINUOUS
 10
-14.755937
 20
48.18144
 40
0.25
  0
LINE
  8
ボルト／ビス
  6
CONTINUOUS
 10
-14.6116
 20
48.43144
 11
-14.900275
 21
48.43144
  0
LINE
  8
ボルト／ビス
  6
CONTINUOUS
 10
-14.900275
 20
47.93144
 11
-14.6116
 21
47.93144
  0
ENDBLK
  0
BLOCK
  2
*GRP_0019
 70
    65
 10
0.0
 20
0.0
  0
INSERT
  2
*GRP_0041
  8
補助線
  6
CONTINUOUS
 10
0.0
 20
0.0
  0
LINE
  8
ボルト／ビス
  6
CONTINUOUS
 10
-14.467263
 20
63.18144
 11
-14.6116
 21
62.93144
  0
LINE
  8
ボルト／ビス
  6
CONTINUOUS
 10
-14.467263
 20
63.18144
 11
-14.6116
 21
63.43144
  0
LINE
  8
ボルト／ビス
  6
CONTINUOUS
 10
-14.900275
 20
62.93144
 11
-15.044613
 21
63.18144
  0
LINE
  8
ボルト／ビス
  6
CONTINUOUS
 10
-14.900275
 20
63.43144
 11
-15.044613
 21
63.18144
  0
CIRCLE
  8
ボルト／ビス
  6
CONTINUOUS
 10
-14.755937
 20
63.18144
 40
0.25
  0
LINE
  8
ボルト／ビス
  6
CONTINUOUS
 10
-14.6116
 20
63.43144
 11
-14.900275
 21
63.43144
  0
LINE
  8
ボルト／ビス
  6
CONTINUOUS
 10
-14.900275
 20
62.93144
 11
-14.6116
 21
62.93144
  0
ENDBLK
  0
BLOCK
  2
*GRP_0020
 70
    65
 10
0.0
 20
0.0
  0
INSERT
  2
*GRP_0042
  8
補助線
  6
CONTINUOUS
 10
0.0
 20
0.0
  0
LINE
  8
ボルト／ビス
  6
CONTINUOUS
 10
-14.467263
 20
33.18144
 11
-14.6116
 21
33.43144
  0
LINE
  8
ボルト／ビス
  6
CONTINUOUS
 10
-14.467263
 20
33.18144
 11
-14.6116
 21
32.93144
  0
LINE
  8
ボルト／ビス
  6
CONTINUOUS
 10
-14.900275
 20
33.43144
 11
-15.044613
 21
33.18144
  0
LINE
  8
ボルト／ビス
  6
CONTINUOUS
 10
-14.900275
 20
32.93144
 11
-15.044613
 21
33.18144
  0
CIRCLE
  8
ボルト／ビス
  6
CONTINUOUS
 10
-14.755937
 20
33.18144
 40
0.25
  0
LINE
  8
ボルト／ビス
  6
CONTINUOUS
 10
-14.6116
 20
32.93144
 11
-14.900275
 21
32.93144
  0
LINE
  8
ボルト／ビス
  6
CONTINUOUS
 10
-14.900275
 20
33.43144
 11
-14.6116
 21
33.43144
  0
ENDBLK
  0
BLOCK
  2
*GRP_0021
 70
    65
 10
0.0
 20
0.0
  0
INSERT
  2
*GRP_0043
  8
補助線
  6
CONTINUOUS
 10
0.0
 20
0.0
  0
LINE
  8
ボルト／ビス
  6
CONTINUOUS
 10
-55.755937
 20
74.470115
 11
-55.505937
 21
74.325778
  0
LINE
  8
ボルト／ビス
  6
CONTINUOUS
 10
-55.755937
 20
74.470115
 11
-56.005937
 21
74.325778
  0
LINE
  8
ボルト／ビス
  6
CONTINUOUS
 10
-55.505937
 20
74.037103
 11
-55.755937
 21
73.892765
  0
LINE
  8
ボルト／ビス
  6
CONTINUOUS
 10
-56.005937
 20
74.037103
 11
-55.755937
 21
73.892765
  0
CIRCLE
  8
ボルト／ビス
  6
CONTINUOUS
 10
-55.755937
 20
74.18144
 40
0.25
  0
LINE
  8
ボルト／ビス
  6
CONTINUOUS
 10
-56.005937
 20
74.325778
 11
-56.005937
 21
74.037103
  0
LINE
  8
ボルト／ビス
  6
CONTINUOUS
 10
-55.505937
 20
74.037103
 11
-55.505937
 21
74.325778
  0
ENDBLK
  0
BLOCK
  2
*DIM_0022
 70
    65
 10
0.0
 20
0.0
  0
LINE
  8
寸法
  6
BYBLOCK
 62
     0
 10
-95.755937
 20
-34.605008
 11
-15.755937
 21
-34.605008
  0
POINT
  8
寸法
 62
     0
 10
-95.755937
 20
-34.605008
  0
POINT
  8
寸法
 62
     0
 10
-15.755937
 20
-34.605008
  0
TEXT
  7
TextStyle03
  8
寸法
  6
CONTINUOUS
 62
     0
 10
-67.49375
 20
-34.25
  1
呼称寸法　1600
 40
3.0
 72
     5
 11
-44.05625
 21
-34.25
  0
ENDBLK
  0
BLOCK
  2
*DIM_0023
 70
    65
 10
0.0
 20
0.0
  0
LINE
  8
寸法
  6
BYBLOCK
 62
     0
 10
-54.755937
 20
-48.258815
 11
6.907452
 21
-48.258815
  0
LINE
  8
寸法
  6
BYBLOCK
 62
     0
 10
6.907452
 20
-70.758815
 11
6.907452
 21
-48.258815
  0
POINT
  8
寸法
 62
     0
 10
6.907452
 20
-70.758815
  0
POINT
  8
寸法
 62
     0
 10
6.907452
 20
-48.258815
  0
TEXT
  7
TextStyle03
  8
寸法
  6
CONTINUOUS
 62
     0
 10
6.525
 20
-61.9625
  1
450
 40
3.0
 50
90.0
 72
     5
 11
6.525
 21
-57.0875
  0
ENDBLK
  0
BLOCK
  2
*GRP_0024
 70
    65
 10
0.0
 20
0.0
  0
LINE
  8
補助線
  6
BYBLOCK
 62
     0
 10
-55.880937
 20
-7.81856
 11
-55.630937
 21
-7.81856
  0
LINE
  8
補助線
  6
BYBLOCK
 62
     0
 10
-55.755937
 20
-7.94356
 11
-55.755937
 21
-7.69356
  0
ENDBLK
  0
BLOCK
  2
*GRP_0025
 70
    65
 10
0.0
 20
0.0
  0
LINE
  8
補助線
  6
BYBLOCK
 62
     0
 10
-70.880937
 20
-7.81856
 11
-70.630937
 21
-7.81856
  0
LINE
  8
補助線
  6
BYBLOCK
 62
     0
 10
-70.755937
 20
-7.94356
 11
-70.755937
 21
-7.69356
  0
ENDBLK
  0
BLOCK
  2
*GRP_0026
 70
    65
 10
0.0
 20
0.0
  0
LINE
  8
補助線
  6
BYBLOCK
 62
     0
 10
-85.880937
 20
-7.81856
 11
-85.630937
 21
-7.81856
  0
LINE
  8
補助線
  6
BYBLOCK
 62
     0
 10
-85.755937
 20
-7.94356
 11
-85.755937
 21
-7.69356
  0
ENDBLK
  0
BLOCK
  2
*GRP_0027
 70
    65
 10
0.0
 20
0.0
  0
LINE
  8
補助線
  6
BYBLOCK
 62
     0
 10
-96.755937
 20
33.05644
 11
-96.755937
 21
33.30644
  0
LINE
  8
補助線
  6
BYBLOCK
 62
     0
 10
-96.880937
 20
33.18144
 11
-96.630937
 21
33.18144
  0
ENDBLK
  0
BLOCK
  2
*GRP_0028
 70
    65
 10
0.0
 20
0.0
  0
LINE
  8
補助線
  6
BYBLOCK
 62
     0
 10
-96.755937
 20
18.05644
 11
-96.755937
 21
18.30644
  0
LINE
  8
補助線
  6
BYBLOCK
 62
     0
 10
-96.880937
 20
18.18144
 11
-96.630937
 21
18.18144
  0
ENDBLK
  0
BLOCK
  2
*GRP_0029
 70
    65
 10
0.0
 20
0.0
  0
LINE
  8
補助線
  6
BYBLOCK
 62
     0
 10
-96.755937
 20
3.05644
 11
-96.755937
 21
3.30644
  0
LINE
  8
補助線
  6
BYBLOCK
 62
     0
 10
-96.880937
 20
3.18144
 11
-96.630937
 21
3.18144
  0
ENDBLK
  0
BLOCK
  2
*GRP_0030
 70
    65
 10
0.0
 20
0.0
  0
LINE
  8
補助線
  6
BYBLOCK
 62
     0
 10
-70.880937
 20
74.18144
 11
-70.630937
 21
74.18144
  0
LINE
  8
補助線
  6
BYBLOCK
 62
     0
 10
-70.755937
 20
74.30644
 11
-70.755937
 21
74.05644
  0
ENDBLK
  0
BLOCK
  2
*GRP_0031
 70
    65
 10
0.0
 20
0.0
  0
LINE
  8
補助線
  6
BYBLOCK
 62
     0
 10
-85.880937
 20
74.18144
 11
-85.630937
 21
74.18144
  0
LINE
  8
補助線
  6
BYBLOCK
 62
     0
 10
-85.755937
 20
74.30644
 11
-85.755937
 21
74.05644
  0
ENDBLK
  0
BLOCK
  2
*GRP_0032
 70
    65
 10
0.0
 20
0.0
  0
LINE
  8
補助線
  6
BYBLOCK
 62
     0
 10
-96.755937
 20
48.30644
 11
-96.755937
 21
48.05644
  0
LINE
  8
補助線
  6
BYBLOCK
 62
     0
 10
-96.880937
 20
48.18144
 11
-96.630937
 21
48.18144
  0
ENDBLK
  0
BLOCK
  2
*GRP_0033
 70
    65
 10
0.0
 20
0.0
  0
LINE
  8
補助線
  6
BYBLOCK
 62
     0
 10
-96.755937
 20
63.30644
 11
-96.755937
 21
63.05644
  0
LINE
  8
補助線
  6
BYBLOCK
 62
     0
 10
-96.880937
 20
63.18144
 11
-96.630937
 21
63.18144
  0
ENDBLK
  0
BLOCK
  2
*GRP_0034
 70
    65
 10
0.0
 20
0.0
  0
LINE
  8
補助線
  6
BYBLOCK
 62
     0
 10
-40.630937
 20
-7.81856
 11
-40.880937
 21
-7.81856
  0
LINE
  8
補助線
  6
BYBLOCK
 62
     0
 10
-40.755937
 20
-7.94356
 11
-40.755937
 21
-7.69356
  0
ENDBLK
  0
BLOCK
  2
*GRP_0035
 70
    65
 10
0.0
 20
0.0
  0
LINE
  8
補助線
  6
BYBLOCK
 62
     0
 10
-25.630937
 20
-7.81856
 11
-25.880937
 21
-7.81856
  0
LINE
  8
補助線
  6
BYBLOCK
 62
     0
 10
-25.755937
 20
-7.94356
 11
-25.755937
 21
-7.69356
  0
ENDBLK
  0
BLOCK
  2
*GRP_0036
 70
    65
 10
0.0
 20
0.0
  0
LINE
  8
補助線
  6
BYBLOCK
 62
     0
 10
-14.755937
 20
18.05644
 11
-14.755937
 21
18.30644
  0
LINE
  8
補助線
  6
BYBLOCK
 62
     0
 10
-14.630937
 20
18.18144
 11
-14.880937
 21
18.18144
  0
ENDBLK
  0
BLOCK
  2
*GRP_0037
 70
    65
 10
0.0
 20
0.0
  0
LINE
  8
補助線
  6
BYBLOCK
 62
     0
 10
-14.755937
 20
3.05644
 11
-14.755937
 21
3.30644
  0
LINE
  8
補助線
  6
BYBLOCK
 62
     0
 10
-14.630937
 20
3.18144
 11
-14.880937
 21
3.18144
  0
ENDBLK
  0
BLOCK
  2
*GRP_0038
 70
    65
 10
0.0
 20
0.0
  0
LINE
  8
補助線
  6
BYBLOCK
 62
     0
 10
-40.630937
 20
74.18144
 11
-40.880937
 21
74.18144
  0
LINE
  8
補助線
  6
BYBLOCK
 62
     0
 10
-40.755937
 20
74.30644
 11
-40.755937
 21
74.05644
  0
ENDBLK
  0
BLOCK
  2
*GRP_0039
 70
    65
 10
0.0
 20
0.0
  0
LINE
  8
補助線
  6
BYBLOCK
 62
     0
 10
-25.630937
 20
74.18144
 11
-25.880937
 21
74.18144
  0
LINE
  8
補助線
  6
BYBLOCK
 62
     0
 10
-25.755937
 20
74.30644
 11
-25.755937
 21
74.05644
  0
ENDBLK
  0
BLOCK
  2
*GRP_0040
 70
    65
 10
0.0
 20
0.0
  0
LINE
  8
補助線
  6
BYBLOCK
 62
     0
 10
-14.755937
 20
48.30644
 11
-14.755937
 21
48.05644
  0
LINE
  8
補助線
  6
BYBLOCK
 62
     0
 10
-14.630937
 20
48.18144
 11
-14.880937
 21
48.18144
  0
ENDBLK
  0
BLOCK
  2
*GRP_0041
 70
    65
 10
0.0
 20
0.0
  0
LINE
  8
補助線
  6
BYBLOCK
 62
     0
 10
-14.755937
 20
63.30644
 11
-14.755937
 21
63.05644
  0
LINE
  8
補助線
  6
BYBLOCK
 62
     0
 10
-14.630937
 20
63.18144
 11
-14.880937
 21
63.18144
  0
ENDBLK
  0
BLOCK
  2
*GRP_0042
 70
    65
 10
0.0
 20
0.0
  0
LINE
  8
補助線
  6
BYBLOCK
 62
     0
 10
-14.755937
 20
33.05644
 11
-14.755937
 21
33.30644
  0
LINE
  8
補助線
  6
BYBLOCK
 62
     0
 10
-14.630937
 20
33.18144
 11
-14.880937
 21
33.18144
  0
ENDBLK
  0
BLOCK
  2
*GRP_0043
 70
    65
 10
0.0
 20
0.0
  0
LINE
  8
補助線
  6
BYBLOCK
 62
     0
 10
-55.880937
 20
74.18144
 11
-55.630937
 21
74.18144
  0
LINE
  8
補助線
  6
BYBLOCK
 62
     0
 10
-55.755937
 20
74.30644
 11
-55.755937
 21
74.05644
  0
ENDBLK
  0
BLOCK
  2
*DIM_0044
 70
    65
 10
0.0
 20
0.0
  0
LINE
  8
寸法
  6
BYBLOCK
 62
     0
 10
38.66375
 20
73.68144
 11
38.66375
 21
84.35632
  0
LINE
  8
寸法
  6
BYBLOCK
 62
     0
 10
117.66375
 20
73.68144
 11
117.66375
 21
84.35632
  0
LINE
  8
寸法
  6
BYBLOCK
 62
     0
 10
38.66375
 20
84.35632
 11
117.66375
 21
84.35632
  0
POINT
  8
寸法
 62
     0
 10
38.66375
 20
84.35632
  0
POINT
  8
寸法
 62
     0
 10
117.66375
 20
84.35632
  0
TEXT
  7
TextStyle03
  8
寸法
  6
CONTINUOUS
 62
     0
 10
74.86875
 20
84.725
  1
1580
 40
3.0
 72
     5
 11
81.43125
 21
84.725
  0
ENDBLK
  0
BLOCK
  2
*DIM_0045
 70
    65
 10
0.0
 20
0.0
  0
LINE
  8
寸法
  6
BYBLOCK
 62
     0
 10
118.66375
 20
72.68144
 11
130.651087
 21
72.68144
  0
LINE
  8
寸法
  6
BYBLOCK
 62
     0
 10
118.66375
 20
33.98144
 11
130.651087
 21
33.98144
  0
LINE
  8
寸法
  6
BYBLOCK
 62
     0
 10
130.651087
 20
72.68144
 11
130.651087
 21
33.98144
  0
POINT
  8
寸法
 62
     0
 10
130.651087
 20
72.68144
  0
POINT
  8
寸法
 62
     0
 10
130.651087
 20
33.98144
  0
TEXT
  7
TextStyle03
  8
寸法
  6
CONTINUOUS
 62
     0
 10
130.275
 20
50.8875
  1
774
 40
3.0
 50
90.0
 72
     5
 11
130.275
 21
55.7625
  0
ENDBLK
  0
BLOCK
  2
*DIM_0046
 70
    65
 10
0.0
 20
0.0
  0
LINE
  8
寸法
  6
BYBLOCK
 62
     0
 10
-12.255937
 20
-70.758815
 11
6.907452
 21
-70.758815
  0
LINE
  8
寸法
  6
BYBLOCK
 62
     0
 10
-10.25587
 20
-75.058815
 11
6.907452
 21
-75.058815
  0
LINE
  8
寸法
  6
BYBLOCK
 62
     0
 10
6.907452
 20
-70.758815
 11
6.907452
 21
-75.058815
  0
POINT
  8
寸法
 62
     0
 10
6.907452
 20
-70.758815
  0
POINT
  8
寸法
 62
     0
 10
6.907452
 20
-75.058815
  0
TEXT
  7
TextStyle03
  8
寸法
  6
CONTINUOUS
 62
     0
 10
6.525
 20
-74.51875
  1
86
 40
3.0
 50
90.0
 72
     5
 11
6.525
 21
-71.33125
  0
ENDBLK
  0
BLOCK
  2
*DIM_0047
 70
    65
 10
0.0
 20
0.0
  0
LINE
  8
寸法
  6
BYBLOCK
 62
     0
 10
-11.25587
 20
-73.30882
 11
-11.25587
 21
-34.605008
  0
LINE
  8
寸法
  6
BYBLOCK
 62
     0
 10
-15.755937
 20
-34.605008
 11
-11.25587
 21
-34.605008
  0
POINT
  8
寸法
 62
     0
 10
-15.755937
 20
-34.605008
  0
POINT
  8
寸法
 62
     0
 10
-11.25587
 20
-34.605008
  0
TEXT
  7
TextStyle03
  8
寸法
  6
CONTINUOUS
 62
     0
 10
-15.11875
 20
-34.25
  1
90
 40
3.0
 72
     5
 11
-11.93125
 21
-34.25
  0
ENDBLK
  0
BLOCK
  2
*DIM_0048
 70
    65
 10
0.0
 20
0.0
  0
LINE
  8
寸法
  6
BYBLOCK
 62
     0
 10
-100.256005
 20
-73.30882
 11
-100.256005
 21
-34.605008
  0
LINE
  8
寸法
  6
BYBLOCK
 62
     0
 10
-95.755937
 20
-34.605008
 11
-100.256005
 21
-34.605008
  0
POINT
  8
寸法
 62
     0
 10
-95.755937
 20
-34.605008
  0
POINT
  8
寸法
 62
     0
 10
-100.256005
 20
-34.605008
  0
TEXT
  7
TextStyle03
  8
寸法
  6
CONTINUOUS
 62
     0
 10
-99.61875
 20
-34.25
  1
90
 40
3.0
 72
     5
 11
-96.43125
 21
-34.25
  0
ENDBLK
  0
BLOCK
  2
*DIM_0049
 70
    65
 10
0.0
 20
0.0
  0
LINE
  8
寸法
  6
BYBLOCK
 62
     0
 10
-120.350937
 20
50.68144
 11
-131.174237
 21
50.68144
  0
LINE
  8
寸法
  6
BYBLOCK
 62
     0
 10
-120.350937
 20
15.68144
 11
-131.174237
 21
15.68144
  0
LINE
  8
寸法
  6
BYBLOCK
 62
     0
 10
-131.174237
 20
50.68144
 11
-131.174237
 21
15.68144
  0
POINT
  8
寸法
 62
     0
 10
-131.174237
 20
50.68144
  0
POINT
  8
寸法
 62
     0
 10
-131.174237
 20
15.68144
  0
TEXT
  7
TextStyle03
  8
寸法
  6
CONTINUOUS
 62
     0
 10
-131.5
 20
30.7375
  1
700
 40
3.0
 50
90.0
 72
     5
 11
-131.5
 21
35.6125
  0
ENDBLK
  0
BLOCK
  2
*DIM_0050
 70
    65
 10
0.0
 20
0.0
  0
LINE
  8
寸法
  6
BYBLOCK
 62
     0
 10
-85.755937
 20
102.283265
 11
-85.755937
 21
110.058775
  0
LINE
  8
寸法
  6
BYBLOCK
 62
     0
 10
-55.755937
 20
102.283265
 11
-55.755937
 21
110.058775
  0
LINE
  8
寸法
  6
BYBLOCK
 62
     0
 10
-85.755937
 20
110.058775
 11
-55.755937
 21
110.058775
  0
POINT
  8
寸法
 62
     0
 10
-85.755937
 20
110.058775
  0
POINT
  8
寸法
 62
     0
 10
-55.755937
 20
110.058775
  0
TEXT
  7
TextStyle03
  8
寸法
  6
CONTINUOUS
 62
     0
 10
-73.2125
 20
110.425
  1
600
 40
3.0
 72
     5
 11
-68.3375
 21
110.425
  0
ENDBLK
  0
BLOCK
  2
*DIM_0051
 70
    65
 10
0.0
 20
0.0
  0
LINE
  8
寸法
  6
BYBLOCK
 62
     0
 10
-25.755937
 20
102.283265
 11
-25.755937
 21
110.058775
  0
LINE
  8
寸法
  6
BYBLOCK
 62
     0
 10
-55.755937
 20
110.058775
 11
-25.755937
 21
110.058775
  0
POINT
  8
寸法
 62
     0
 10
-25.755937
 20
110.058775
  0
TEXT
  7
TextStyle03
  8
寸法
  6
CONTINUOUS
 62
     0
 10
-43.2125
 20
110.425
  1
600
 40
3.0
 72
     5
 11
-38.3375
 21
110.425
  0
ENDBLK
  0
BLOCK
  2
*GRP_0052
 70
    65
 10
0.0
 20
0.0
  0
LINE
  8
ボルト／ビス
  6
CONTINUOUS
 10
-96.755937
 20
-70.758817
 11
-96.755937
 21
-70.058817
  0
LINE
  8
ボルト／ビス
  6
CONTINUOUS
 10
-97.305937
 20
-70.758817
 11
-97.305937
 21
-70.658817
  0
LINE
  8
ボルト／ビス
  6
CONTINUOUS
 10
-97.305937
 20
-70.658817
 11
-96.205937
 21
-70.658817
  0
LINE
  8
ボルト／ビス
  6
CONTINUOUS
 10
-96.205937
 20
-70.658817
 11
-96.205937
 21
-70.758817
  0
LINE
  8
ボルト／ビス
  6
CONTINUOUS
 10
-97.305937
 20
-70.758817
 11
-96.205937
 21
-70.758817
  0
LINE
  8
ボルト／ビス
  6
CONTINUOUS
 10
-97.205937
 20
-70.608817
 11
-97.205937
 21
-70.658817
  0
LINE
  8
ボルト／ビス
  6
CONTINUOUS
 10
-97.205937
 20
-70.608817
 11
-96.305937
 21
-70.608817
  0
LINE
  8
ボルト／ビス
  6
CONTINUOUS
 10
-96.305937
 20
-70.608817
 11
-96.305937
 21
-70.658817
  0
LINE
  8
ボルト／ビス
  6
CONTINUOUS
 62
    64
 10
-96.9965
 20
-70.308817
 11
-97.044613
 21
-70.32633
  0
ARC
  8
ボルト／ビス
  6
CONTINUOUS
 62
    64
 10
-96.972442
 20
-70.466284
 40
0.157468
 50
62.721967
 51
90.0
  0
ARC
  8
ボルト／ビス
  6
CONTINUOUS
 62
    64
 10
-96.755936
 20
-70.91242
 40
0.603603
 50
76.165002
 51
103.834985
  0
LINE
  8
ボルト／ビス
  6
CONTINUOUS
 62
    64
 10
-96.515375
 20
-70.308817
 11
-96.467263
 21
-70.32633
  0
ARC
  8
ボルト／ビス
  6
CONTINUOUS
 62
    64
 10
-96.53943
 20
-70.466284
 40
0.157468
 50
90.0
 51
117.278033
  0
LINE
  8
ボルト／ビス
  6
CONTINUOUS
 62
    64
 10
-96.9965
 20
-70.308817
 11
-96.515375
 21
-70.308817
  0
LINE
  8
ボルト／ビス
  6
CONTINUOUS
 62
    64
 10
-96.467263
 20
-70.32633
 11
-96.467263
 21
-70.508817
  0
LINE
  8
ボルト／ビス
  6
CONTINUOUS
 62
    64
 10
-96.6116
 20
-70.32633
 11
-96.6116
 21
-70.508817
  0
LINE
  8
ボルト／ビス
  6
CONTINUOUS
 62
    64
 10
-97.044613
 20
-70.32633
 11
-97.044613
 21
-70.508817
  0
LINE
  8
ボルト／ビス
  6
CONTINUOUS
 62
    64
 10
-96.900275
 20
-70.32633
 11
-96.900275
 21
-70.508817
  0
LINE
  8
ボルト／ビス
  6
CONTINUOUS
 10
-97.044613
 20
-70.508817
 11
-96.467263
 21
-70.508817
  0
LINE
  8
ボルト／ビス
  6
CONTINUOUS
 10
-97.055937
 20
-70.508817
 11
-97.055937
 21
-70.608817
  0
LINE
  8
ボルト／ビス
  6
CONTINUOUS
 10
-97.055937
 20
-70.508817
 11
-96.455937
 21
-70.508817
  0
LINE
  8
ボルト／ビス
  6
CONTINUOUS
 10
-96.455937
 20
-70.508817
 11
-96.455937
 21
-70.608817
  0
ENDBLK
  0
BLOCK
  2
*GRP_0053
 70
    65
 10
0.0
 20
0.0
  0
LINE
  8
ボルト／ビス
  6
CONTINUOUS
 10
-14.755937
 20
-70.758817
 11
-14.755937
 21
-70.058817
  0
LINE
  8
ボルト／ビス
  6
CONTINUOUS
 10
-15.305937
 20
-70.758817
 11
-15.305937
 21
-70.658817
  0
LINE
  8
ボルト／ビス
  6
CONTINUOUS
 10
-15.305937
 20
-70.658817
 11
-14.205937
 21
-70.658817
  0
LINE
  8
ボルト／ビス
  6
CONTINUOUS
 10
-14.205937
 20
-70.658817
 11
-14.205937
 21
-70.758817
  0
LINE
  8
ボルト／ビス
  6
CONTINUOUS
 10
-15.305937
 20
-70.758817
 11
-14.205937
 21
-70.758817
  0
LINE
  8
ボルト／ビス
  6
CONTINUOUS
 10
-15.205937
 20
-70.608817
 11
-15.205937
 21
-70.658817
  0
LINE
  8
ボルト／ビス
  6
CONTINUOUS
 10
-15.205937
 20
-70.608817
 11
-14.305937
 21
-70.608817
  0
LINE
  8
ボルト／ビス
  6
CONTINUOUS
 10
-14.305937
 20
-70.608817
 11
-14.305937
 21
-70.658817
  0
LINE
  8
ボルト／ビス
  6
CONTINUOUS
 62
    64
 10
-14.9965
 20
-70.308817
 11
-15.044613
 21
-70.32633
  0
ARC
  8
ボルト／ビス
  6
CONTINUOUS
 62
    64
 10
-14.972442
 20
-70.466284
 40
0.157468
 50
62.721967
 51
90.0
  0
ARC
  8
ボルト／ビス
  6
CONTINUOUS
 62
    64
 10
-14.755936
 20
-70.91242
 40
0.603603
 50
76.165002
 51
103.834985
  0
LINE
  8
ボルト／ビス
  6
CONTINUOUS
 62
    64
 10
-14.515375
 20
-70.308817
 11
-14.467263
 21
-70.32633
  0
ARC
  8
ボルト／ビス
  6
CONTINUOUS
 62
    64
 10
-14.53943
 20
-70.466284
 40
0.157468
 50
90.0
 51
117.278033
  0
LINE
  8
ボルト／ビス
  6
CONTINUOUS
 62
    64
 10
-14.9965
 20
-70.308817
 11
-14.515375
 21
-70.308817
  0
LINE
  8
ボルト／ビス
  6
CONTINUOUS
 62
    64
 10
-14.467263
 20
-70.32633
 11
-14.467263
 21
-70.508817
  0
LINE
  8
ボルト／ビス
  6
CONTINUOUS
 62
    64
 10
-14.6116
 20
-70.32633
 11
-14.6116
 21
-70.508817
  0
LINE
  8
ボルト／ビス
  6
CONTINUOUS
 62
    64
 10
-15.044613
 20
-70.32633
 11
-15.044613
 21
-70.508817
  0
LINE
  8
ボルト／ビス
  6
CONTINUOUS
 62
    64
 10
-14.900275
 20
-70.32633
 11
-14.900275
 21
-70.508817
  0
LINE
  8
ボルト／ビス
  6
CONTINUOUS
 10
-15.044613
 20
-70.508817
 11
-14.467263
 21
-70.508817
  0
LINE
  8
ボルト／ビス
  6
CONTINUOUS
 10
-15.055937
 20
-70.508817
 11
-15.055937
 21
-70.608817
  0
LINE
  8
ボルト／ビス
  6
CONTINUOUS
 10
-15.055937
 20
-70.508817
 11
-14.455937
 21
-70.508817
  0
LINE
  8
ボルト／ビス
  6
CONTINUOUS
 10
-14.455937
 20
-70.508817
 11
-14.455937
 21
-70.608817
  0
ENDBLK
  0
ENDSEC
  0
SECTION
  2
ENTITIES
  0
POLYLINE
  8
通り芯
  6
CONTINUOUS
 66
     1
 70
     1
  0
VERTEX
  8
通り芯
 10
-210.0
 20
-148.5
  0
VERTEX
  8
通り芯
 10
210.0
 20
-148.5
  0
VERTEX
  8
通り芯
 10
210.0
 20
148.5
  0
VERTEX
  8
通り芯
 10
-210.0
 20
148.5
  0
SEQEND
  0
INSERT
  2
*GRP_0001
  8
型材断面
  6
CONTINUOUS
 10
0.0
 20
0.0
  0
LINE
  8
型材断面
  6
DASHDOT
 10
-95.755937
 20
-6.81856
 11
-15.755937
 21
-6.81856
  0
LINE
  8
型材断面
  6
DASHDOT
 10
-95.755937
 20
-86.27283
 11
-95.755937
 21
73.18144
  0
LINE
  8
型材断面
  6
DASHDOT
 10
-55.755937
 20
-86.27283
 11
-55.755937
 21
73.18144
  0
LINE
  8
型材断面
  6
DASHDOT
 10
-15.755937
 20
-86.27283
 11
-15.755937
 21
73.18144
  0
LINE
  8
型材断面
  6
DASHDOT
 10
-95.755937
 20
33.18144
 11
-15.755937
 21
33.18144
  0
LINE
  8
型材断面
  6
DASHDOT
 10
-95.755937
 20
73.18144
 11
-15.755937
 21
73.18144
  0
LINE
  8
型材断面
  6
CONTINUOUS
 10
-55.755937
 20
-14.842437
 11
-57.999382
 21
-18.728197
  0
LINE
  8
型材断面
  6
CONTINUOUS
 10
-55.755937
 20
-14.842437
 11
-53.512493
 21
-18.728197
  0
LINE
  8
型材断面
  6
CONTINUOUS
 10
-53.512493
 20
-18.728197
 11
-57.999382
 21
-18.728197
  0
LINE
  8
型材断面
  6
CONTINUOUS
 10
-7.73206
 20
33.181443
 11
-3.8463
 21
30.937997
  0
LINE
  8
型材断面
  6
CONTINUOUS
 10
-7.73206
 20
33.181443
 11
-3.8463
 21
35.424887
  0
LINE
  8
型材断面
  6
CONTINUOUS
 10
-3.8463
 20
35.424887
 11
-3.8463
 21
30.937997
  0
LINE
  8
型材断面
  6
CONTINUOUS
 10
-103.779815
 20
33.181443
 11
-107.665575
 21
30.937997
  0
LINE
  8
型材断面
  6
CONTINUOUS
 10
-103.779815
 20
33.181443
 11
-107.665575
 21
35.424887
  0
LINE
  8
型材断面
  6
CONTINUOUS
 10
-107.665575
 20
35.424887
 11
-107.665575
 21
30.937997
  0
LINE
  8
型材断面
  6
CONTINUOUS
 10
17.977383
 20
-12.60436
 11
15.733937
 21
-16.49012
  0
LINE
  8
型材断面
  6
CONTINUOUS
 10
17.977383
 20
-12.60436
 11
20.220828
 21
-16.49012
  0
LINE
  8
型材断面
  6
CONTINUOUS
 10
20.220828
 20
-16.49012
 11
15.733937
 21
-16.49012
  0
LINE
  8
型材断面
  6
CONTINUOUS
 10
8.943503
 20
-17.898013
 11
61.600182
 21
-17.898013
  0
LINE
  8
型材断面
  6
CONTINUOUS
 10
-55.755937
 20
81.205317
 11
-57.999382
 21
85.091078
  0
LINE
  8
型材断面
  6
CONTINUOUS
 10
-55.755937
 20
81.205317
 11
-53.512493
 21
85.091078
  0
LINE
  8
型材断面
  6
CONTINUOUS
 10
-53.512493
 20
85.091078
 11
-57.999382
 21
85.091078
  0
LINE
  8
型材断面
  6
CONTINUOUS
 10
8.943503
 20
-26.07527
 11
61.600182
 21
-26.07527
  0
LINE
  8
型材断面
  6
CONTINUOUS
 62
    47
 10
-100.256005
 20
-75.058815
 11
-100.256005
 21
-74.30882
  0
LINE
  8
型材断面
  6
CONTINUOUS
 62
    47
 10
-100.256005
 20
-74.30882
 11
-95.856008
 21
-73.563047
  0
LINE
  8
型材断面
  6
CONTINUOUS
 62
    47
 10
-99.506017
 20
-75.058815
 11
-99.506017
 21
-75.808815
  0
LINE
  8
型材断面
  6
CONTINUOUS
 62
    47
 10
-95.856008
 20
-73.563047
 11
-95.856008
 21
-72.258815
  0
LINE
  8
型材断面
  6
CONTINUOUS
 10
-95.856008
 20
-73.563047
 11
-55.755937
 21
-73.563047
  0
LINE
  8
型材断面
  6
CONTINUOUS
 10
-99.50602
 20
-75.808815
 11
-55.755937
 21
-75.808815
  0
LINE
  8
型材断面
  6
CONTINUOUS
 10
-100.256005
 20
-74.30882
 11
-55.755937
 21
-74.30882
  0
LINE
  8
型材断面
  6
CONTINUOUS
 62
    47
 10
-100.256005
 20
-75.058815
 11
-55.755937
 21
-75.058815
  0
LINE
  8
型材断面
  6
CONTINUOUS
 62
    47
 10
-11.25587
 20
-75.058815
 11
-11.25587
 21
-74.30882
  0
LINE
  8
型材断面
  6
CONTINUOUS
 62
    47
 10
-11.25587
 20
-74.30882
 11
-15.655868
 21
-73.563047
  0
LINE
  8
型材断面
  6
CONTINUOUS
 62
    47
 10
-12.005858
 20
-75.058815
 11
-12.005858
 21
-75.808815
  0
LINE
  8
型材断面
  6
CONTINUOUS
 62
    47
 10
-15.655868
 20
-73.563047
 11
-15.655868
 21
-72.258815
  0
LINE
  8
型材断面
  6
CONTINUOUS
 10
-15.655868
 20
-73.563047
 11
-55.755937
 21
-73.563047
  0
LINE
  8
型材断面
  6
CONTINUOUS
 10
-12.005855
 20
-75.808815
 11
-55.755937
 21
-75.808815
  0
LINE
  8
型材断面
  6
CONTINUOUS
 10
-11.25587
 20
-74.30882
 11
-55.755937
 21
-74.30882
  0
LINE
  8
型材断面
  6
CONTINUOUS
 62
    47
 10
-11.25587
 20
-75.058815
 11
-55.755937
 21
-75.058815
  0
LINE
  8
型材断面
  6
CONTINUOUS
 10
-12.655937
 20
-9.91856
 11
-11.25587
 21
-11.318628
  0
LINE
  8
型材断面
  6
CONTINUOUS
 10
-11.25587
 20
-11.318628
 11
-55.755937
 21
-11.318628
  0
LINE
  8
型材断面
  6
CONTINUOUS
 10
-11.25587
 20
-11.318628
 11
-11.25587
 21
33.18144
  0
LINE
  8
型材断面
  6
CONTINUOUS
 10
-98.855937
 20
-9.91856
 11
-100.256005
 21
-11.318628
  0
LINE
  8
型材断面
  6
CONTINUOUS
 10
-100.256005
 20
-11.318628
 11
-55.755937
 21
-11.318628
  0
LINE
  8
型材断面
  6
CONTINUOUS
 10
-100.256005
 20
-11.318628
 11
-100.256005
 21
33.18144
  0
LINE
  8
型材断面
  6
CONTINUOUS
 10
-98.855937
 20
76.28144
 11
-100.256005
 21
77.681508
  0
LINE
  8
型材断面
  6
CONTINUOUS
 10
-100.256005
 20
77.681508
 11
-55.755937
 21
77.681508
  0
LINE
  8
型材断面
  6
CONTINUOUS
 10
-100.256005
 20
77.681508
 11
-100.256005
 21
33.18144
  0
LINE
  8
型材断面
  6
CONTINUOUS
 10
-12.655937
 20
76.28144
 11
-11.25587
 21
77.681508
  0
LINE
  8
型材断面
  6
CONTINUOUS
 10
-11.25587
 20
77.681508
 11
-55.755937
 21
77.681508
  0
LINE
  8
型材断面
  6
CONTINUOUS
 10
-11.25587
 20
77.681508
 11
-11.25587
 21
33.18144
  0
LINE
  8
型材断面
  6
DOT
 10
-57.630937
 20
-6.81856
 11
-57.630937
 21
73.18144
  0
LINE
  8
型材断面
  6
DOT
 10
-53.880937
 20
-6.81856
 11
-53.880937
 21
73.18144
  0
LINE
  8
ガラス
  6
CONTINUOUS
 10
117.66375
 20
33.98144
 11
117.66375
 21
72.68144
  0
LINE
  8
ガラス
  6
CONTINUOUS
 10
117.66375
 20
72.68144
 11
38.66375
 21
72.68144
  0
LINE
  8
ガラス
  6
CONTINUOUS
 10
38.66375
 20
72.68144
 11
38.66375
 21
33.98144
  0
LINE
  8
ガラス
  6
CONTINUOUS
 10
117.66375
 20
33.98144
 11
38.66375
 21
33.98144
  0
CIRCLE
  8
ボルト／ビス
  6
CONTINUOUS
 10
-55.755937
 20
-7.81856
 40
0.288675
  0
CIRCLE
  8
ボルト／ビス
  6
CONTINUOUS
 10
-55.755937
 20
-7.81856
 40
0.455885
  0
CIRCLE
  8
ボルト／ビス
  6
CONTINUOUS
 10
-70.755937
 20
-7.81856
 40
0.288675
  0
CIRCLE
  8
ボルト／ビス
  6
CONTINUOUS
 10
-70.755937
 20
-7.81856
 40
0.455885
  0
CIRCLE
  8
ボルト／ビス
  6
CONTINUOUS
 10
-85.755937
 20
-7.81856
 40
0.288675
  0
CIRCLE
  8
ボルト／ビス
  6
CONTINUOUS
 10
-85.755937
 20
-7.81856
 40
0.455885
  0
CIRCLE
  8
ボルト／ビス
  6
CONTINUOUS
 10
-96.755937
 20
33.18144
 40
0.288675
  0
CIRCLE
  8
ボルト／ビス
  6
CONTINUOUS
 10
-96.755937
 20
33.18144
 40
0.455885
  0
CIRCLE
  8
ボルト／ビス
  6
CONTINUOUS
 10
-96.755937
 20
18.18144
 40
0.288675
  0
CIRCLE
  8
ボルト／ビス
  6
CONTINUOUS
 10
-96.755937
 20
18.18144
 40
0.455885
  0
CIRCLE
  8
ボルト／ビス
  6
CONTINUOUS
 10
-96.755937
 20
3.18144
 40
0.288675
  0
CIRCLE
  8
ボルト／ビス
  6
CONTINUOUS
 10
-96.755937
 20
3.18144
 40
0.455885
  0
CIRCLE
  8
ボルト／ビス
  6
CONTINUOUS
 10
-70.755937
 20
74.18144
 40
0.288675
  0
CIRCLE
  8
ボルト／ビス
  6
CONTINUOUS
 10
-70.755937
 20
74.18144
 40
0.455885
  0
CIRCLE
  8
ボルト／ビス
  6
CONTINUOUS
 10
-85.755937
 20
74.18144
 40
0.288675
  0
CIRCLE
  8
ボルト／ビス
  6
CONTINUOUS
 10
-85.755937
 20
74.18144
 40
0.455885
  0
CIRCLE
  8
ボルト／ビス
  6
CONTINUOUS
 10
-96.755937
 20
48.18144
 40
0.288675
  0
CIRCLE
  8
ボルト／ビス
  6
CONTINUOUS
 10
-96.755937
 20
48.18144
 40
0.455885
  0
CIRCLE
  8
ボルト／ビス
  6
CONTINUOUS
 10
-96.755937
 20
63.18144
 40
0.288675
  0
CIRCLE
  8
ボルト／ビス
  6
CONTINUOUS
 10
-96.755937
 20
63.18144
 40
0.455885
  0
CIRCLE
  8
ボルト／ビス
  6
CONTINUOUS
 10
-40.755937
 20
-7.81856
 40
0.288675
  0
CIRCLE
  8
ボルト／ビス
  6
CONTINUOUS
 10
-40.755937
 20
-7.81856
 40
0.455885
  0
CIRCLE
  8
ボルト／ビス
  6
CONTINUOUS
 10
-25.755937
 20
-7.81856
 40
0.288675
  0
CIRCLE
  8
ボルト／ビス
  6
CONTINUOUS
 10
-25.755937
 20
-7.81856
 40
0.455885
  0
CIRCLE
  8
ボルト／ビス
  6
CONTINUOUS
 10
-14.755937
 20
18.18144
 40
0.288675
  0
CIRCLE
  8
ボルト／ビス
  6
CONTINUOUS
 10
-14.755937
 20
18.18144
 40
0.455885
  0
CIRCLE
  8
ボルト／ビス
  6
CONTINUOUS
 10
-14.755937
 20
3.18144
 40
0.288675
  0
CIRCLE
  8
ボルト／ビス
  6
CONTINUOUS
 10
-14.755937
 20
3.18144
 40
0.455885
  0
CIRCLE
  8
ボルト／ビス
  6
CONTINUOUS
 10
-40.755937
 20
74.18144
 40
0.288675
  0
CIRCLE
  8
ボルト／ビス
  6
CONTINUOUS
 10
-40.755937
 20
74.18144
 40
0.455885
  0
CIRCLE
  8
ボルト／ビス
  6
CONTINUOUS
 10
-25.755937
 20
74.18144
 40
0.288675
  0
CIRCLE
  8
ボルト／ビス
  6
CONTINUOUS
 10
-25.755937
 20
74.18144
 40
0.455885
  0
CIRCLE
  8
ボルト／ビス
  6
CONTINUOUS
 10
-14.755937
 20
48.18144
 40
0.288675
  0
CIRCLE
  8
ボルト／ビス
  6
CONTINUOUS
 10
-14.755937
 20
48.18144
 40
0.455885
  0
CIRCLE
  8
ボルト／ビス
  6
CONTINUOUS
 10
-14.755937
 20
63.18144
 40
0.288675
  0
CIRCLE
  8
ボルト／ビス
  6
CONTINUOUS
 10
-14.755937
 20
63.18144
 40
0.455885
  0
CIRCLE
  8
ボルト／ビス
  6
CONTINUOUS
 10
-14.755937
 20
33.18144
 40
0.288675
  0
CIRCLE
  8
ボルト／ビス
  6
CONTINUOUS
 10
-14.755937
 20
33.18144
 40
0.455885
  0
CIRCLE
  8
ボルト／ビス
  6
CONTINUOUS
 10
-55.755937
 20
74.18144
 40
0.288675
  0
CIRCLE
  8
ボルト／ビス
  6
CONTINUOUS
 10
-55.755937
 20
74.18144
 40
0.455885
  0
INSERT
  2
*GRP_0002
  8
文字
  6
CONTINUOUS
 10
0.0
 20
0.0
  0
INSERT
  2
*GRP_0003
  8
文字
  6
CONTINUOUS
 10
0.0
 20
0.0
  0
INSERT
  2
*GRP_0004
  8
文字
  6
CONTINUOUS
 10
0.0
 20
0.0
  0
INSERT
  2
*GRP_0005
  8
文字
  6
CONTINUOUS
 10
0.0
 20
0.0
  0
INSERT
  2
*GRP_0006
  8
文字
  6
CONTINUOUS
 10
0.0
 20
0.0
  0
INSERT
  2
*GRP_0007
  8
文字
  6
CONTINUOUS
 10
0.0
 20
0.0
  0
INSERT
  2
*GRP_0008
  8
文字
  6
CONTINUOUS
 10
0.0
 20
0.0
  0
INSERT
  2
*GRP_0009
  8
文字
  6
CONTINUOUS
 10
0.0
 20
0.0
  0
INSERT
  2
*GRP_0010
  8
文字
  6
CONTINUOUS
 10
0.0
 20
0.0
  0
INSERT
  2
*GRP_0011
  8
文字
  6
CONTINUOUS
 10
0.0
 20
0.0
  0
INSERT
  2
*GRP_0012
  8
文字
  6
CONTINUOUS
 10
0.0
 20
0.0
  0
INSERT
  2
*GRP_0013
  8
文字
  6
CONTINUOUS
 10
0.0
 20
0.0
  0
INSERT
  2
*GRP_0014
  8
文字
  6
CONTINUOUS
 10
0.0
 20
0.0
  0
INSERT
  2
*GRP_0015
  8
文字
  6
CONTINUOUS
 10
0.0
 20
0.0
  0
INSERT
  2
*GRP_0016
  8
文字
  6
CONTINUOUS
 10
0.0
 20
0.0
  0
INSERT
  2
*GRP_0017
  8
文字
  6
CONTINUOUS
 10
0.0
 20
0.0
  0
INSERT
  2
*GRP_0018
  8
文字
  6
CONTINUOUS
 10
0.0
 20
0.0
  0
INSERT
  2
*GRP_0019
  8
文字
  6
CONTINUOUS
 10
0.0
 20
0.0
  0
INSERT
  2
*GRP_0020
  8
文字
  6
CONTINUOUS
 10
0.0
 20
0.0
  0
INSERT
  2
*GRP_0021
  8
文字
  6
CONTINUOUS
 10
0.0
 20
0.0
  0
TEXT
  7
TextStyle03
  8
文字
  6
CONTINUOUS
 10
22.25
 20
-16.15
  1
は排水穴位置を示す
 40
3.0
 72
     5
 11
52.25
 21
-16.15
  0
TEXT
  7
TextStyle03
  8
文字
  6
CONTINUOUS
 10
95.65
 20
40.65
  1
×２枚
 40
3.0
 72
     5
 11
105.4
 21
40.65
  0
TEXT
  7
TextStyle03
  8
文字
  6
CONTINUOUS
 10
88.5
 20
44.675
  1
網入り6.8t
 40
3.0
 72
     5
 11
105.1875
 21
44.675
  0
TEXT
  7
TextStyle03
  8
文字
  6
CONTINUOUS
 10
88.1
 20
98.8
  1
ＮＳコード：ＮＳＫＺ
 40
5.0
 72
     5
 11
143.725
 21
98.8
  0
TEXT
  7
TextStyle03
  8
文字
  6
CONTINUOUS
 10
-116.0
 20
106.125
  1
アンカーピッチ
 40
3.0
 72
     5
 11
-92.75
 21
106.125
  0
TEXT
  7
TextStyle03
  8
文字
  6
CONTINUOUS
 10
-128.0
 20
-9.9
  1
アンカーピッチ
 40
3.0
 50
90.0
 72
     5
 11
-128.0
 21
13.35
  0
TEXT
  7
TextStyle03
  8
文字
  6
CONTINUOUS
 10
16.65
 20
-24.675
  1
アンカー数量　１０ヶ所
 40
3.0
 72
     5
 11
53.4
 21
-24.675
  0
TEXT
  7
TextStyle03
  8
文字
  6
CONTINUOUS
 10
88.625
 20
120.7
  1
シリーズ：ＴＤ２Ｋ
 40
5.0
 72
     5
 11
138.625
 21
120.7
  0
TEXT
  7
TextStyle03
  8
文字
  6
CONTINUOUS
 10
88.625
 20
115.075
  1
　　　　　（固定）1600×1600タイプ
 40
5.0
 72
     5
 11
183.625
 21
115.075
  0
TEXT
  7
TextStyle03
  8
文字
  6
CONTINUOUS
 10
88.625
 20
109.45
  1
図面名　：外観姿図
 40
5.0
 72
     5
 11
138.625
 21
109.45
  0
TEXT
  7
TextStyle03
  8
文字
  6
CONTINUOUS
 10
88.625
 20
103.825
  1
　　　　　　
 40
5.0
 72
     5
 11
121.75
 21
103.825
  0
TEXT
  7
TextStyle03
  8
文字
  6
CONTINUOUS
 10
-58.1
 20
13.475
  1
中桟
 40
3.0
 50
90.0
 72
     5
 11
-58.1
 21
19.85
  0
INSERT
  2
*DIM_0022
  8
寸法
  6
CONTINUOUS
 10
0.0
 20
0.0
  0
INSERT
  2
*DIM_0023
  8
寸法
  6
CONTINUOUS
 10
0.0
 20
0.0
  0
INSERT
  2
*DIM_0044
  8
寸法
  6
CONTINUOUS
 10
0.0
 20
0.0
  0
INSERT
  2
*DIM_0045
  8
寸法
  6
CONTINUOUS
 10
0.0
 20
0.0
  0
INSERT
  2
*DIM_0046
  8
寸法
  6
CONTINUOUS
 10
0.0
 20
0.0
  0
INSERT
  2
*DIM_0047
  8
寸法
  6
CONTINUOUS
 10
0.0
 20
0.0
  0
INSERT
  2
*DIM_0048
  8
寸法
  6
CONTINUOUS
 10
0.0
 20
0.0
  0
INSERT
  2
*DIM_0049
  8
寸法
  6
CONTINUOUS
 10
0.0
 20
0.0
  0
INSERT
  2
*DIM_0050
  8
寸法
  6
CONTINUOUS
 10
0.0
 20
0.0
  0
INSERT
  2
*DIM_0051
  8
寸法
  6
CONTINUOUS
 10
0.0
 20
0.0
  0
LINE
  8
別途部材
  6
CONTINUOUS
 10
-98.855937
 20
-9.91856
 11
-98.255937
 21
-9.31856
  0
LINE
  8
別途部材
  6
CONTINUOUS
 10
-95.755937
 20
-6.81856
 11
-83.667053
 21
5.270325
  0
LINE
  8
別途部材
  6
CONTINUOUS
 62
    96
 10
-98.255937
 20
-70.758815
 11
-98.855937
 21
-72.258815
  0
LINE
  8
別途部材
  6
CONTINUOUS
 62
    96
 10
-98.255937
 20
-70.758815
 11
-55.755937
 21
-70.758815
  0
LINE
  8
別途部材
  6
CONTINUOUS
 10
-98.855937
 20
-72.258815
 11
-55.755937
 21
-72.258815
  0
LINE
  8
別途部材
  6
CONTINUOUS
 62
    96
 10
-13.255937
 20
-70.758815
 11
-12.655937
 21
-72.258815
  0
LINE
  8
別途部材
  6
CONTINUOUS
 62
    96
 10
-13.255937
 20
-70.758815
 11
-55.755937
 21
-70.758815
  0
LINE
  8
別途部材
  6
CONTINUOUS
 10
-12.655937
 20
-72.258815
 11
-55.755937
 21
-72.258815
  0
ARC
  8
別途部材
  6
CONTINUOUS
 10
-55.755937
 20
-95.064371
 40
46.805555
 50
31.284493
 51
148.715507
  0
LINE
  8
別途部材
  6
CONTINUOUS
 10
-98.255937
 20
-9.31856
 11
-55.755937
 21
-9.31856
  0
LINE
  8
別途部材
  6
CONTINUOUS
 10
-98.855937
 20
-9.91856
 11
-55.755937
 21
-9.91856
  0
LINE
  8
別途部材
  6
CONTINUOUS
 10
-98.855937
 20
-9.91856
 11
-98.855937
 21
33.18144
  0
LINE
  8
別途部材
  6
CONTINUOUS
 10
-98.255937
 20
-9.31856
 11
-98.255937
 21
33.18144
  0
LINE
  8
別途部材
  6
CONTINUOUS
 10
-98.855937
 20
76.28144
 11
-98.255937
 21
75.68144
  0
LINE
  8
別途部材
  6
CONTINUOUS
 10
-95.755937
 20
73.18144
 11
-83.667053
 21
61.092555
  0
LINE
  8
別途部材
  6
CONTINUOUS
 10
-98.255937
 20
75.68144
 11
-55.755937
 21
75.68144
  0
LINE
  8
別途部材
  6
CONTINUOUS
 10
-98.855937
 20
76.28144
 11
-55.755937
 21
76.28144
  0
LINE
  8
別途部材
  6
CONTINUOUS
 10
-98.855937
 20
76.28144
 11
-98.855937
 21
33.18144
  0
LINE
  8
別途部材
  6
CONTINUOUS
 10
-98.255937
 20
75.68144
 11
-98.255937
 21
33.18144
  0
LINE
  8
別途部材
  6
CONTINUOUS
 10
-12.655937
 20
-9.91856
 11
-13.255937
 21
-9.31856
  0
LINE
  8
別途部材
  6
CONTINUOUS
 10
-15.755937
 20
-6.81856
 11
-27.844823
 21
5.270325
  0
LINE
  8
別途部材
  6
CONTINUOUS
 10
-13.255937
 20
-9.31856
 11
-55.755937
 21
-9.31856
  0
LINE
  8
別途部材
  6
CONTINUOUS
 10
-12.655937
 20
-9.91856
 11
-55.755937
 21
-9.91856
  0
LINE
  8
別途部材
  6
CONTINUOUS
 10
-12.655937
 20
-9.91856
 11
-12.655937
 21
33.18144
  0
LINE
  8
別途部材
  6
CONTINUOUS
 10
-13.255937
 20
-9.31856
 11
-13.255937
 21
33.18144
  0
LINE
  8
別途部材
  6
CONTINUOUS
 10
-12.655937
 20
76.28144
 11
-13.255937
 21
75.68144
  0
LINE
  8
別途部材
  6
CONTINUOUS
 10
-15.755937
 20
73.18144
 11
-27.844823
 21
61.092555
  0
LINE
  8
別途部材
  6
CONTINUOUS
 10
-13.255937
 20
75.68144
 11
-55.755937
 21
75.68144
  0
LINE
  8
別途部材
  6
CONTINUOUS
 10
-12.655937
 20
76.28144
 11
-55.755937
 21
76.28144
  0
LINE
  8
別途部材
  6
CONTINUOUS
 10
-12.655937
 20
76.28144
 11
-12.655937
 21
33.18144
  0
LINE
  8
別途部材
  6
CONTINUOUS
 10
-13.255937
 20
75.68144
 11
-13.255937
 21
33.18144
  0
INSERT
  2
*GRP_0052
  8
別途部材
  6
DOT
 10
0.0
 20
0.0
  0
INSERT
  2
*GRP_0053
  8
別途部材
  6
DOT
 10
0.0
 20
0.0
  0
CIRCLE
  8
LAYER010
  6
CONTINUOUS
 62
     7
 10
-100.256005
 20
-74.30882
 40
0.016668
  0
CIRCLE
  8
LAYER010
  6
CONTINUOUS
 62
     7
 10
-100.256005
 20
-74.30882
 40
0.016668
  0
CIRCLE
  8
LAYER010
  6
CONTINUOUS
 62
     7
 10
-11.25587
 20
-74.30882
 40
0.016668
  0
CIRCLE
  8
LAYER010
  6
CONTINUOUS
 62
     7
 10
-11.25587
 20
-74.30882
 40
0.016668
  0
ENDSEC
  0
EOF
