  0
SECTION
  2
HEADER
  9
$ACADVER
  1
AC1018
  9
$ACADMAINTVER
 70
     0
  9
$DWGCODEPAGE
  3
ANSI_932
  9
$INSBASE
 10
0.0
 20
0.0
 30
0.0
  9
$EXTMIN
 10
-210.0
 20
-148.5
 30
0.0
  9
$EXTMAX
 10
210.0
 20
148.5
 30
0.0
  9
$LIMMIN
 10
0.0
 20
0.0
  9
$LIMMAX
 10
12.0
 20
9.0
  9
$ORTHOMODE
 70
     0
  9
$REGENMODE
 70
     1
  9
$FILLMODE
 70
     1
  9
$QTEXTMODE
 70
     0
  9
$MIRRTEXT
 70
     1
  9
$LTSCALE
 40
10.0
  9
$ATTMODE
 70
     1
  9
$TEXTSIZE
 40
0.2
  9
$TRACEWID
 40
0.05
  9
$TEXTSTYLE
  7
STANDARD
  9
$CLAYER
  8
0
  9
$CELTYPE
  6
ByBlock
  9
$CECOLOR
 62
   256
  9
$CELTSCALE
 40
1.0
  9
$DISPSILH
 70
     0
  9
$DIMSCALE
 40
1.0
  9
$DIMASZ
 40
0.18
  9
$DIMEXO
 40
0.0625
  9
$DIMDLI
 40
0.38
  9
$DIMRND
 40
0.0
  9
$DIMDLE
 40
0.0
  9
$DIMEXE
 40
0.18
  9
$DIMTP
 40
0.0
  9
$DIMTM
 40
0.0
  9
$DIMTXT
 40
0.18
  9
$DIMCEN
 40
0.09
  9
$DIMTSZ
 40
0.0
  9
$DIMTOL
 70
     0
  9
$DIMLIM
 70
     0
  9
$DIMTIH
 70
     1
  9
$DIMTOH
 70
     1
  9
$DIMSE1
 70
     0
  9
$DIMSE2
 70
     0
  9
$DIMTAD
 70
     0
  9
$DIMZIN
 70
     0
  9
$DIMBLK
  1

  9
$DIMASO
 70
     1
  9
$DIMSHO
 70
     1
  9
$DIMPOST
  1

  9
$DIMAPOST
  1

  9
$DIMALT
 70
     0
  9
$DIMALTD
 70
     2
  9
$DIMALTF
 40
25.4
  9
$DIMLFAC
 40
1.0
  9
$DIMTOFL
 70
     0
  9
$DIMTVP
 40
0.0
  9
$DIMTIX
 70
     0
  9
$DIMSOXD
 70
     0
  9
$DIMSAH
 70
     0
  9
$DIMBLK1
  1

  9
$DIMBLK2
  1

  9
$DIMSTYLE
  2
Standard
  9
$DIMCLRD
 70
     0
  9
$DIMCLRE
 70
     0
  9
$DIMCLRT
 70
     0
  9
$DIMTFAC
 40
1.0
  9
$DIMGAP
 40
0.09
  9
$DIMJUST
 70
     0
  9
$DIMSD1
 70
     0
  9
$DIMSD2
 70
     0
  9
$DIMTOLJ
 70
     1
  9
$DIMTZIN
 70
     0
  9
$DIMALTZ
 70
     0
  9
$DIMALTTZ
 70
     0
  9
$DIMUPT
 70
     0
  9
$DIMDEC
 70
     4
  9
$DIMTDEC
 70
     4
  9
$DIMALTU
 70
     2
  9
$DIMALTTD
 70
     2
  9
$DIMTXSTY
  7
STANDARD
  9
$DIMAUNIT
 70
     0
  9
$DIMADEC
 70
     0
  9
$DIMALTRND
 40
0.0
  9
$DIMAZIN
 70
     0
  9
$DIMDSEP
 70
    46
  9
$DIMATFIT
 70
     3
  9
$DIMFRAC
 70
     0
  9
$DIMLDRBLK
  1

  9
$DIMLUNIT
 70
     2
  9
$DIMLWD
 70
    -2
  9
$DIMLWE
 70
    -2
  9
$DIMTMOVE
 70
     0
  9
$LUNITS
 70
     2
  9
$LUPREC
 70
     4
  9
$SKETCHINC
 40
0.1
  9
$FILLETRAD
 40
0.5
  9
$AUNITS
 70
     0
  9
$AUPREC
 70
     0
  9
$MENU
  1
.
  9
$ELEVATION
 40
0.0
  9
$PELEVATION
 40
0.0
  9
$THICKNESS
 40
0.0
  9
$LIMCHECK
 70
     0
  9
$CHAMFERA
 40
0.5
  9
$CHAMFERB
 40
0.5
  9
$CHAMFERC
 40
1.0
  9
$CHAMFERD
 40
0.0
  9
$SKPOLY
 70
     0
  9
$TDCREATE
 40
2460242.409780579
  9
$TDUCREATE
 40
2460242.034780579
  9
$TDUPDATE
 40
2460242.40978059
  9
$TDUUPDATE
 40
2460242.03478059
  9
$TDINDWG
 40
0.0000000116
  9
$TDUSRTIMER
 40
0.0000000116
  9
$USRTIMER
 70
     1
  9
$ANGBASE
 50
0.0
  9
$ANGDIR
 70
     0
  9
$PDMODE
 70
    32
  9
$PDSIZE
 40
1.5
  9
$PLINEWID
 40
0.0
  9
$SPLFRAME
 70
     0
  9
$SPLINETYPE
 70
     6
  9
$SPLINESEGS
 70
     8
  9
$HANDSEED
  5
2E9
  9
$SURFTAB1
 70
     6
  9
$SURFTAB2
 70
     6
  9
$SURFTYPE
 70
     6
  9
$SURFU
 70
     6
  9
$SURFV
 70
     6
  9
$UCSBASE
  2

  9
$UCSNAME
  2

  9
$UCSORG
 10
0.0
 20
0.0
 30
0.0
  9
$UCSXDIR
 10
1.0
 20
0.0
 30
0.0
  9
$UCSYDIR
 10
0.0
 20
1.0
 30
0.0
  9
$UCSORTHOREF
  2

  9
$UCSORTHOVIEW
 70
     0
  9
$UCSORGTOP
 10
0.0
 20
0.0
 30
0.0
  9
$UCSORGBOTTOM
 10
0.0
 20
0.0
 30
0.0
  9
$UCSORGLEFT
 10
0.0
 20
0.0
 30
0.0
  9
$UCSORGRIGHT
 10
0.0
 20
0.0
 30
0.0
  9
$UCSORGFRONT
 10
0.0
 20
0.0
 30
0.0
  9
$UCSORGBACK
 10
0.0
 20
0.0
 30
0.0
  9
$PUCSBASE
  2

  9
$PUCSNAME
  2

  9
$PUCSORG
 10
0.0
 20
0.0
 30
0.0
  9
$PUCSXDIR
 10
1.0
 20
0.0
 30
0.0
  9
$PUCSYDIR
 10
0.0
 20
1.0
 30
0.0
  9
$PUCSORTHOREF
  2

  9
$PUCSORTHOVIEW
 70
     0
  9
$PUCSORGTOP
 10
0.0
 20
0.0
 30
0.0
  9
$PUCSORGBOTTOM
 10
0.0
 20
0.0
 30
0.0
  9
$PUCSORGLEFT
 10
0.0
 20
0.0
 30
0.0
  9
$PUCSORGRIGHT
 10
0.0
 20
0.0
 30
0.0
  9
$PUCSORGFRONT
 10
0.0
 20
0.0
 30
0.0
  9
$PUCSORGBACK
 10
0.0
 20
0.0
 30
0.0
  9
$USERI1
 70
     0
  9
$USERI2
 70
     0
  9
$USERI3
 70
     0
  9
$USERI4
 70
     0
  9
$USERI5
 70
     0
  9
$USERR1
 40
0.0
  9
$USERR2
 40
0.0
  9
$USERR3
 40
0.0
  9
$USERR4
 40
0.0
  9
$USERR5
 40
0.0
  9
$WORLDVIEW
 70
     1
  9
$SHADEDGE
 70
     3
  9
$SHADEDIF
 70
    70
  9
$TILEMODE
 70
     1
  9
$MAXACTVP
 70
    64
  9
$PINSBASE
 10
0.0
 20
0.0
 30
0.0
  9
$PLIMCHECK
 70
     0
  9
$PEXTMIN
 10
1.000000000000000E+20
 20
1.000000000000000E+20
 30
1.000000000000000E+20
  9
$PEXTMAX
 10
-1.000000000000000E+20
 20
-1.000000000000000E+20
 30
-1.000000000000000E+20
  9
$PLIMMIN
 10
0.0
 20
0.0
  9
$PLIMMAX
 10
12.0
 20
9.0
  9
$UNITMODE
 70
     0
  9
$VISRETAIN
 70
     1
  9
$PLINEGEN
 70
     0
  9
$PSLTSCALE
 70
     1
  9
$TREEDEPTH
 70
  3020
  9
$CMLSTYLE
  2
Standard
  9
$CMLJUST
 70
     0
  9
$CMLSCALE
 40
1.0
  9
$PROXYGRAPHICS
 70
     1
  9
$MEASUREMENT
 70
     0
  9
$CELWEIGHT
370
    -1
  9
$ENDCAPS
280
     0
  9
$JOINSTYLE
280
     0
  9
$LWDISPLAY
290
     0
  9
$INSUNITS
 70
     0
  9
$HYPERLINKBASE
  1

  9
$STYLESHEET
  1

  9
$XEDIT
290
     1
  9
$CEPSNTYPE
380
     0
  9
$PSTYLEMODE
290
     1
  9
$FINGERPRINTGUID
  2
{350DA140-B3B1-4D63-803C-DA91C7035561}
  9
$VERSIONGUID
  2
{FAEB1C32-E019-11D5-929B-00C0DF256EC4}
  9
$EXTNAMES
290
     1
  9
$PSVPSCALE
 40
0.0
  9
$OLESTARTUP
290
     0
  9
$SORTENTS
280
   127
  9
$INDEXCTL
280
     0
  9
$HIDETEXT
280
     1
  9
$XCLIPFRAME
290
     0
  9
$HALOGAP
280
     0
  9
$OBSCOLOR
 70
   257
  9
$OBSLTYPE
280
     0
  9
$INTERSECTIONDISPLAY
280
     0
  9
$INTERSECTIONCOLOR
 70
   257
  9
$DIMASSOC
280
     2
  9
$PROJECTNAME
  1

  0
ENDSEC
  0
SECTION
  2
CLASSES
  0
CLASS
  1
ACDBDICTIONARYWDFLT
  2
AcDbDictionaryWithDefault
  3
ObjectDBX Classes
 90
        0
 91
        3
280
     0
281
     0
  0
ENDSEC
  0
SECTION
  2
TABLES
  0
TABLE
  2
VPORT
  5
8
330
0
100
AcDbSymbolTable
 70
     1
  0
VPORT
  5
2E4
330
8
100
AcDbSymbolTableRecord
100
AcDbViewportTableRecord
  2
*Active
 70
     0
 10
0.0
 20
0.0
 11
1.0
 21
1.0
 12
10.42990654205607
 22
4.5
 13
0.0
 23
0.0
 14
0.5
 24
0.5
 15
0.5
 25
0.5
 16
0.0
 26
0.0
 36
1.0
 17
0.0
 27
0.0
 37
0.0
 40
9.0
 41
1.972972972850329
 42
50.0
 43
0.0
 44
0.0
 50
0.0
 51
0.0
 71
     0
 72
   100
 73
     1
 74
     3
 75
     0
 76
     0
 77
     0
 78
     0
281
     0
 65
     1
110
0.0
120
0.0
130
0.0
111
1.0
121
0.0
131
0.0
112
0.0
122
1.0
132
0.0
 79
     0
146
0.0
  0
ENDTAB
  0
TABLE
  2
LTYPE
  5
5
330
0
100
AcDbSymbolTable
 70
     9
  0
LTYPE
  5
14
330
5
100
AcDbSymbolTableRecord
100
AcDbLinetypeTableRecord
  2
ByBlock
 70
     0
  3

 72
    65
 73
     0
 40
0.0
  0
LTYPE
  5
15
330
5
100
AcDbSymbolTableRecord
100
AcDbLinetypeTableRecord
  2
ByLayer
 70
     0
  3

 72
    65
 73
     0
 40
0.0
  0
LTYPE
  5
16
330
5
100
AcDbSymbolTableRecord
100
AcDbLinetypeTableRecord
  2
CONTINUOUS
 70
     0
  3
実線
 72
    65
 73
     0
 40
0.0
  0
LTYPE
  5
21
330
5
100
AcDbSymbolTableRecord
100
AcDbLinetypeTableRecord
  2
DASHED
 70
     0
  3
破線A
 72
    65
 73
     2
 40
0.6000000000000001
 49
0.4
 74
     0
 49
-0.2
 74
     0
  0
LTYPE
  5
22
330
5
100
AcDbSymbolTableRecord
100
AcDbLinetypeTableRecord
  2
DASHEDX2
 70
     0
  3
破線B
 72
    65
 73
     2
 40
1.3
 49
0.9
 74
     0
 49
-0.4
 74
     0
  0
LTYPE
  5
23
330
5
100
AcDbSymbolTableRecord
100
AcDbLinetypeTableRecord
  2
DASHDOT
 70
     0
  3
１点鎖線A
 72
    65
 73
     4
 40
0.5375
 49
0.375
 74
     0
 49
-0.05
 74
     0
 49
0.0625
 74
     0
 49
-0.05
 74
     0
  0
LTYPE
  5
24
330
5
100
AcDbSymbolTableRecord
100
AcDbLinetypeTableRecord
  2
DASHDOTX2
 70
     0
  3
１点鎖線B
 72
    65
 73
     4
 40
1.075
 49
0.75
 74
     0
 49
-0.1
 74
     0
 49
0.125
 74
     0
 49
-0.1
 74
     0
  0
LTYPE
  5
25
330
5
100
AcDbSymbolTableRecord
100
AcDbLinetypeTableRecord
  2
DIVIDE2
 70
     0
  3
２点鎖線A
 72
    65
 73
     6
 40
0.5125
 49
0.3
 74
     0
 49
-0.0375
 74
     0
 49
0.05
 74
     0
 49
-0.0375
 74
     0
 49
0.05
 74
     0
 49
-0.0375
 74
     0
  0
LTYPE
  5
26
330
5
100
AcDbSymbolTableRecord
100
AcDbLinetypeTableRecord
  2
DIVIDE
 70
     0
  3
２点鎖線B
 72
    65
 73
     6
 40
1.05
 49
0.55
 74
     0
 49
-0.1
 74
     0
 49
0.1
 74
     0
 49
-0.1
 74
     0
 49
0.1
 74
     0
 49
-0.1
 74
     0
  0
LTYPE
  5
27
330
5
100
AcDbSymbolTableRecord
100
AcDbLinetypeTableRecord
  2
DOT
 70
     0
  3
点線A
 72
    65
 73
     2
 40
0.1125
 49
0.0625
 74
     0
 49
-0.05
 74
     0
  0
LTYPE
  5
28
330
5
100
AcDbSymbolTableRecord
100
AcDbLinetypeTableRecord
  2
DOTX2
 70
     0
  3
点線B
 72
    65
 73
     2
 40
0.275
 49
0.15
 74
     0
 49
-0.125
 74
     0
  0
ENDTAB
  0
TABLE
  2
LAYER
  5
2
330
0
100
AcDbSymbolTable
 70
    34
  0
LAYER
  5
10
330
2
100
AcDbSymbolTableRecord
100
AcDbLayerTableRecord
  2
0
 70
     0
 62
    17
  6
CONTINUOUS
370
    -3
390
F
  0
LAYER
  5
2F
330
2
100
AcDbSymbolTableRecord
100
AcDbLayerTableRecord
  2
通り芯
 70
     0
 62
    15
  6
CONTINUOUS
370
    -3
390
F
  0
LAYER
  5
30
330
2
100
AcDbSymbolTableRecord
100
AcDbLayerTableRecord
  2
補助線
 70
     0
 62
    16
  6
DOT
370
    -3
390
F
  0
LAYER
  5
31
330
2
100
AcDbSymbolTableRecord
100
AcDbLayerTableRecord
  2
躯体
 70
     0
 62
    31
  6
CONTINUOUS
370
    -3
390
F
  0
LAYER
  5
32
330
2
100
AcDbSymbolTableRecord
100
AcDbLayerTableRecord
  2
型材
 70
     0
 62
    32
  6
CONTINUOUS
370
    -3
390
F
  0
LAYER
  5
33
330
2
100
AcDbSymbolTableRecord
100
AcDbLayerTableRecord
  2
型材断面
 70
     0
 62
    47
  6
CONTINUOUS
370
    -3
390
F
  0
LAYER
  5
34
330
2
100
AcDbSymbolTableRecord
100
AcDbLayerTableRecord
  2
ガラス
 70
     0
 62
    48
  6
CONTINUOUS
370
    -3
390
F
  0
LAYER
  5
35
330
2
100
AcDbSymbolTableRecord
100
AcDbLayerTableRecord
  2
ゴム等
 70
     0
 62
    63
  6
CONTINUOUS
370
    -3
390
F
  0
LAYER
  5
36
330
2
100
AcDbSymbolTableRecord
100
AcDbLayerTableRecord
  2
ボルト／ビス
 70
     0
 62
    64
  6
CONTINUOUS
370
    -3
390
F
  0
LAYER
  5
37
330
2
100
AcDbSymbolTableRecord
100
AcDbLayerTableRecord
  2
文字
 70
     0
 62
    79
  6
CONTINUOUS
370
    -3
390
F
  0
LAYER
  5
38
330
2
100
AcDbSymbolTableRecord
100
AcDbLayerTableRecord
  2
寸法
 70
     0
 62
    80
  6
CONTINUOUS
370
    -3
390
F
  0
LAYER
  5
39
330
2
100
AcDbSymbolTableRecord
100
AcDbLayerTableRecord
  2
ﾊｯﾁﾝｸﾞ
 70
     0
 62
    95
  6
CONTINUOUS
370
    -3
390
F
  0
LAYER
  5
3A
330
2
100
AcDbSymbolTableRecord
100
AcDbLayerTableRecord
  2
別途部材
 70
     0
 62
    96
  6
CONTINUOUS
370
    -3
390
F
  0
LAYER
  5
3B
330
2
100
AcDbSymbolTableRecord
100
AcDbLayerTableRecord
  2
曲げ物
 70
     0
 62
   111
  6
CONTINUOUS
370
    -3
390
F
  0
LAYER
  5
3C
330
2
100
AcDbSymbolTableRecord
100
AcDbLayerTableRecord
  2
鉄骨等
 70
     0
 62
   112
  6
CONTINUOUS
370
    -3
390
F
  0
LAYER
  5
3D
330
2
100
AcDbSymbolTableRecord
100
AcDbLayerTableRecord
  2
St
 70
     0
 62
   127
  6
CONTINUOUS
370
    -3
390
F
  0
LAYER
  5
3E
330
2
100
AcDbSymbolTableRecord
100
AcDbLayerTableRecord
  2
その他部品等
 70
     0
 62
   128
  6
CONTINUOUS
370
    -3
390
F
  0
LAYER
  5
3F
330
2
100
AcDbSymbolTableRecord
100
AcDbLayerTableRecord
  2
ｶﾞｽｹｯﾄ
 70
     0
 62
   143
  6
CONTINUOUS
370
    -3
390
F
  0
LAYER
  5
40
330
2
100
AcDbSymbolTableRecord
100
AcDbLayerTableRecord
  2
ｽｹｯﾁ
 70
     0
 62
    14
  6
CONTINUOUS
370
    -3
390
F
  0
LAYER
  5
42
330
2
100
AcDbSymbolTableRecord
100
AcDbLayerTableRecord
  2
1
 70
     0
 62
    30
  6
CONTINUOUS
370
    -3
390
F
  0
LAYER
  5
43
330
2
100
AcDbSymbolTableRecord
100
AcDbLayerTableRecord
  2
4
 70
     0
 62
    33
  6
CONTINUOUS
370
    -3
390
F
  0
LAYER
  5
44
330
2
100
AcDbSymbolTableRecord
100
AcDbLayerTableRecord
  2
ﾚｲﾔ3
 70
     0
 62
    46
  6
CONTINUOUS
370
    -3
390
F
  0
LAYER
  5
45
330
2
100
AcDbSymbolTableRecord
100
AcDbLayerTableRecord
  2
外形線
 70
     0
 62
    49
  6
CONTINUOUS
370
    -3
390
F
  0
LAYER
  5
46
330
2
100
AcDbSymbolTableRecord
100
AcDbLayerTableRecord
  2
部品
 70
     0
 62
    14
  6
CONTINUOUS
370
    -3
390
F
  0
LAYER
  5
47
330
2
100
AcDbSymbolTableRecord
100
AcDbLayerTableRecord
  2
サッシ芯
 70
     0
 62
    17
  6
DASHDOTX2
370
    -3
390
F
  0
LAYER
  5
48
330
2
100
AcDbSymbolTableRecord
100
AcDbLayerTableRecord
  2
寸法線
 70
     0
 62
    62
  6
CONTINUOUS
370
    -3
390
F
  0
LAYER
  5
49
330
2
100
AcDbSymbolTableRecord
100
AcDbLayerTableRecord
  2
姿図外形線
 70
     0
 62
    65
  6
CONTINUOUS
370
    -3
390
F
  0
LAYER
  5
4A
330
2
100
AcDbSymbolTableRecord
100
AcDbLayerTableRecord
  2
姿補助線
 70
     0
 62
    30
  6
CONTINUOUS
370
    -3
390
F
  0
LAYER
  5
4B
330
2
100
AcDbSymbolTableRecord
100
AcDbLayerTableRecord
  2
透視線
 70
     0
 62
    78
  6
DOT
370
    -3
390
F
  0
LAYER
  5
4C
330
2
100
AcDbSymbolTableRecord
100
AcDbLayerTableRecord
  2
用紙
 70
     0
 62
    81
  6
CONTINUOUS
370
    -3
390
F
  0
LAYER
  5
4D
330
2
100
AcDbSymbolTableRecord
100
AcDbLayerTableRecord
  2
実線図枠
 70
     0
 62
    94
  6
CONTINUOUS
370
    -3
390
F
  0
LAYER
  5
4E
330
2
100
AcDbSymbolTableRecord
100
AcDbLayerTableRecord
  2
補助図枠
 70
     0
 62
    97
  6
CONTINUOUS
370
    -3
390
F
  0
LAYER
  5
4F
330
2
100
AcDbSymbolTableRecord
100
AcDbLayerTableRecord
  2
建具記号
 70
     0
 62
   110
  6
CONTINUOUS
370
    -3
390
F
  0
LAYER
  5
50
330
2
100
AcDbSymbolTableRecord
100
AcDbLayerTableRecord
  2
補助文字
 70
     0
 62
   113
  6
CONTINUOUS
370
    -3
390
F
  0
ENDTAB
  0
TABLE
  2
STYLE
  5
3
330
0
100
AcDbSymbolTable
 70
    10
  0
STYLE
  5
11
330
3
100
AcDbSymbolTableRecord
100
AcDbTextStyleTableRecord
  2
STANDARD
 70
     0
 40
1.0
 41
1.0
 50
0.0
 71
     0
 42
1.0
  3
TXT
  4
BIGFONT
  0
STYLE
  5
52
330
3
100
AcDbSymbolTableRecord
100
AcDbTextStyleTableRecord
  2
TATE
 70
     4
 40
1.0
 41
1.0
 50
0.0
 71
     0
 42
1.0
  3
TXT
  4
BIGFONT
  0
STYLE
  5
53
330
3
100
AcDbSymbolTableRecord
100
AcDbTextStyleTableRecord
  2
TextStyle03
 70
     0
 40
1.0
 41
1.0
 50
0.0
 71
     0
 42
1.0
  3
MONOTXT
  4
BIGFONT
  0
STYLE
  5
54
330
3
100
AcDbSymbolTableRecord
100
AcDbTextStyleTableRecord
  2
TextStyle04
 70
     0
 40
1.0
 41
1.0
 50
0.0
 71
     0
 42
1.0
  3
MONOTXT
  4
BIGFONT
  0
STYLE
  5
55
330
3
100
AcDbSymbolTableRecord
100
AcDbTextStyleTableRecord
  2
TextStyle05
 70
     0
 40
1.0
 41
1.0
 50
0.0
 71
     0
 42
1.0
  3
MONOTXT
  4
BIGFONT
  0
STYLE
  5
56
330
3
100
AcDbSymbolTableRecord
100
AcDbTextStyleTableRecord
  2
TextStyle06
 70
     0
 40
1.0
 41
1.0
 50
0.0
 71
     0
 42
1.0
  3
MONOTXT
  4
BIGFONT
  0
STYLE
  5
57
330
3
100
AcDbSymbolTableRecord
100
AcDbTextStyleTableRecord
  2
TextStyle07
 70
     0
 40
1.0
 41
1.0
 50
0.0
 71
     0
 42
1.0
  3
MONOTXT
  4
BIGFONT
  0
STYLE
  5
58
330
3
100
AcDbSymbolTableRecord
100
AcDbTextStyleTableRecord
  2
TextStyle08
 70
     0
 40
1.0
 41
1.0
 50
0.0
 71
     0
 42
1.0
  3
MONOTXT
  4
BIGFONT
  0
STYLE
  5
59
330
3
100
AcDbSymbolTableRecord
100
AcDbTextStyleTableRecord
  2
TextStyle09
 70
     0
 40
1.0
 41
1.0
 50
0.0
 71
     0
 42
1.0
  3
MONOTXT
  4
BIGFONT
  0
STYLE
  5
5A
330
3
100
AcDbSymbolTableRecord
100
AcDbTextStyleTableRecord
  2
TextStyle10
 70
     0
 40
1.0
 41
1.0
 50
0.0
 71
     0
 42
1.0
  3
MONOTXT
  4
BIGFONT
  0
ENDTAB
  0
TABLE
  2
VIEW
  5
6
330
0
100
AcDbSymbolTable
 70
     0
  0
ENDTAB
  0
TABLE
  2
UCS
  5
7
330
0
100
AcDbSymbolTable
 70
     0
  0
ENDTAB
  0
TABLE
  2
APPID
  5
9
330
0
100
AcDbSymbolTable
 70
     1
  0
APPID
  5
12
330
9
100
AcDbSymbolTableRecord
100
AcDbRegAppTableRecord
  2
ACAD
 70
     0
  0
ENDTAB
  0
TABLE
  2
DIMSTYLE
  5
A
330
0
100
AcDbSymbolTable
 70
     1
100
AcDbDimStyleTable
  0
DIMSTYLE
105
5B
330
A
100
AcDbSymbolTableRecord
100
AcDbDimStyleTableRecord
  2
Standard
 70
     0
340
11
  0
ENDTAB
  0
TABLE
  2
BLOCK_RECORD
  5
1
330
0
100
AcDbSymbolTable
 70
    25
  0
BLOCK_RECORD
  5
1D
330
1
100
AcDbSymbolTableRecord
100
AcDbBlockTableRecord
  2
*Model_Space
340
1E
  0
BLOCK_RECORD
  5
1B
330
1
100
AcDbSymbolTableRecord
100
AcDbBlockTableRecord
  2
*Paper_Space
340
1C
  0
BLOCK_RECORD
  5
5D
330
1
100
AcDbSymbolTableRecord
100
AcDbBlockTableRecord
  2
*U0
340
0
102
{BLKREFS
331
23E
102
}
  0
BLOCK_RECORD
  5
66
330
1
100
AcDbSymbolTableRecord
100
AcDbBlockTableRecord
  2
*U1
340
0
102
{BLKREFS
331
2A9
102
}
  0
BLOCK_RECORD
  5
6E
330
1
100
AcDbSymbolTableRecord
100
AcDbBlockTableRecord
  2
*U2
340
0
102
{BLKREFS
331
2AA
102
}
  0
BLOCK_RECORD
  5
77
330
1
100
AcDbSymbolTableRecord
100
AcDbBlockTableRecord
  2
*U3
340
0
102
{BLKREFS
331
2DB
102
}
  0
BLOCK_RECORD
  5
14C
330
1
100
AcDbSymbolTableRecord
100
AcDbBlockTableRecord
  2
*U4
340
0
102
{BLKREFS
331
2AB
102
}
  0
BLOCK_RECORD
  5
154
330
1
100
AcDbSymbolTableRecord
100
AcDbBlockTableRecord
  2
*U5
340
0
102
{BLKREFS
331
2AC
102
}
  0
BLOCK_RECORD
  5
15B
330
1
100
AcDbSymbolTableRecord
100
AcDbBlockTableRecord
  2
*U6
340
0
102
{BLKREFS
331
2AD
102
}
  0
BLOCK_RECORD
  5
164
330
1
100
AcDbSymbolTableRecord
100
AcDbBlockTableRecord
  2
*U7
340
0
102
{BLKREFS
331
2AE
102
}
  0
BLOCK_RECORD
  5
16C
330
1
100
AcDbSymbolTableRecord
100
AcDbBlockTableRecord
  2
*U8
340
0
102
{BLKREFS
331
2AF
102
}
  0
BLOCK_RECORD
  5
175
330
1
100
AcDbSymbolTableRecord
100
AcDbBlockTableRecord
  2
*U9
340
0
102
{BLKREFS
331
2B0
102
}
  0
BLOCK_RECORD
  5
17E
330
1
100
AcDbSymbolTableRecord
100
AcDbBlockTableRecord
  2
*U10
340
0
102
{BLKREFS
331
2B1
102
}
  0
BLOCK_RECORD
  5
187
330
1
100
AcDbSymbolTableRecord
100
AcDbBlockTableRecord
  2
*U11
340
0
102
{BLKREFS
331
2B2
102
}
  0
BLOCK_RECORD
  5
18E
330
1
100
AcDbSymbolTableRecord
100
AcDbBlockTableRecord
  2
*U12
340
0
102
{BLKREFS
331
2B3
102
}
  0
BLOCK_RECORD
  5
195
330
1
100
AcDbSymbolTableRecord
100
AcDbBlockTableRecord
  2
*U13
340
0
102
{BLKREFS
331
2B4
102
}
  0
BLOCK_RECORD
  5
19C
330
1
100
AcDbSymbolTableRecord
100
AcDbBlockTableRecord
  2
*U14
340
0
102
{BLKREFS
331
2B5
102
}
  0
BLOCK_RECORD
  5
1A3
330
1
100
AcDbSymbolTableRecord
100
AcDbBlockTableRecord
  2
*U15
340
0
102
{BLKREFS
331
2B6
102
}
  0
BLOCK_RECORD
  5
1AB
330
1
100
AcDbSymbolTableRecord
100
AcDbBlockTableRecord
  2
*U16
340
0
102
{BLKREFS
331
2B7
102
}
  0
BLOCK_RECORD
  5
1B3
330
1
100
AcDbSymbolTableRecord
100
AcDbBlockTableRecord
  2
*U17
340
0
102
{BLKREFS
331
2B8
102
}
  0
BLOCK_RECORD
  5
1BB
330
1
100
AcDbSymbolTableRecord
100
AcDbBlockTableRecord
  2
*U18
340
0
102
{BLKREFS
331
2B9
102
}
  0
BLOCK_RECORD
  5
1C4
330
1
100
AcDbSymbolTableRecord
100
AcDbBlockTableRecord
  2
*U19
340
0
102
{BLKREFS
331
2BA
102
}
  0
BLOCK_RECORD
  5
1CD
330
1
100
AcDbSymbolTableRecord
100
AcDbBlockTableRecord
  2
*U20
340
0
102
{BLKREFS
331
2BB
102
}
  0
BLOCK_RECORD
  5
1D5
330
1
100
AcDbSymbolTableRecord
100
AcDbBlockTableRecord
  2
*U21
340
0
102
{BLKREFS
331
2DC
102
}
  0
BLOCK_RECORD
  5
1EE
330
1
100
AcDbSymbolTableRecord
100
AcDbBlockTableRecord
  2
*U22
340
0
102
{BLKREFS
331
2DD
102
}
  0
BLOCK_RECORD
  5
207
330
1
100
AcDbSymbolTableRecord
100
AcDbBlockTableRecord
  2
*U23
340
0
102
{BLKREFS
331
2DE
102
}
  0
BLOCK_RECORD
  5
220
330
1
100
AcDbSymbolTableRecord
100
AcDbBlockTableRecord
  2
*U24
340
0
102
{BLKREFS
331
2DF
102
}
  0
ENDTAB
  0
ENDSEC
  0
SECTION
  2
BLOCKS
  0
BLOCK
  5
2E5
330
1D
100
AcDbEntity
  8
0
100
AcDbBlockBegin
  2
*Model_Space
 70
     0
 71
     0
 10
0.0
 20
0.0
 30
0.0
  3
*Model_Space
  1

  0
ENDBLK
  5
2E6
330
1D
100
AcDbEntity
  8
0
100
AcDbBlockEnd
  0
BLOCK
  5
2E7
330
1B
100
AcDbEntity
 67
     1
  8
0
100
AcDbBlockBegin
  2
*Paper_Space
 70
     0
 71
     0
 10
0.0
 20
0.0
 30
0.0
  3
*Paper_Space
  1

  0
ENDBLK
  5
2E8
330
1B
100
AcDbEntity
 67
     1
  8
0
100
AcDbBlockEnd
  0
BLOCK
  5
5C
330
5D
100
AcDbEntity
  8
0
100
AcDbBlockBegin
  2
*U0
 70
     1
 71
     0
 10
0.0
 20
0.0
 30
0.0
  3
*U0
  1

  0
LINE
  5
5E
330
5D
100
AcDbEntity
  8
型材断面
  6
Continuous
100
AcDbLine
 10
195.0
 20
133.5
 30
0.0
 11
195.0
 21
-133.5
 31
0.0
  0
LINE
  5
5F
330
5D
100
AcDbEntity
  8
型材断面
  6
Continuous
100
AcDbLine
 10
195.0
 20
-133.5
 30
0.0
 11
-185.0
 21
-133.5
 31
0.0
  0
LINE
  5
60
330
5D
100
AcDbEntity
  8
型材断面
  6
Continuous
100
AcDbLine
 10
-185.0
 20
-133.5
 30
0.0
 11
-185.0
 21
133.5
 31
0.0
  0
LINE
  5
61
330
5D
100
AcDbEntity
  8
型材断面
  6
Continuous
100
AcDbLine
 10
195.0
 20
133.5
 30
0.0
 11
-185.0
 21
133.5
 31
0.0
  0
LINE
  5
62
330
5D
100
AcDbEntity
  8
型材断面
  6
Continuous
100
AcDbLine
 10
145.0
 20
-133.5
 30
0.0
 11
145.0
 21
-118.5
 31
0.0
  0
LINE
  5
63
330
5D
100
AcDbEntity
  8
型材断面
  6
Continuous
100
AcDbLine
 10
195.0
 20
-118.5
 30
0.0
 11
145.0
 21
-118.5
 31
0.0
  0
ENDBLK
  5
64
330
5D
100
AcDbEntity
  8
0
100
AcDbBlockEnd
  0
BLOCK
  5
65
330
66
100
AcDbEntity
  8
0
100
AcDbBlockBegin
  2
*U1
 70
     1
 71
     0
 10
0.0
 20
0.0
 30
0.0
  3
*U1
  1

  0
LINE
  5
67
330
66
100
AcDbEntity
  8
寸法
  6
ByBlock
 62
     0
100
AcDbLine
 10
-75.342895
 20
-13.511205
 30
0.0
 11
-75.342895
 21
-13.121378
 31
0.0
  0
LINE
  5
68
330
66
100
AcDbEntity
  8
寸法
  6
ByBlock
 62
     0
100
AcDbLine
 10
57.990438
 20
-13.121378
 30
0.0
 11
-75.342895
 21
-13.121378
 31
0.0
  0
POINT
  5
69
330
66
100
AcDbEntity
  8
寸法
 62
     0
100
AcDbPoint
 10
57.990438
 20
-13.121378
 30
0.0
  0
POINT
  5
6A
330
66
100
AcDbEntity
  8
寸法
 62
     0
100
AcDbPoint
 10
-75.342895
 20
-13.121378
 30
0.0
  0
TEXT
  5
6B
330
66
100
AcDbEntity
  8
寸法
  6
Continuous
 62
     0
100
AcDbText
 10
-20.41875
 20
-12.75
 30
0.0
 40
3.0
  1
呼称寸法　4000
  7
TextStyle03
 72
     5
 11
3.01875
 21
-12.75
 31
0.0
100
AcDbText
  0
ENDBLK
  5
6C
330
66
100
AcDbEntity
  8
0
100
AcDbBlockEnd
  0
BLOCK
  5
6D
330
6E
100
AcDbEntity
  8
0
100
AcDbBlockBegin
  2
*U2
 70
     1
 71
     0
 10
0.0
 20
0.0
 30
0.0
  3
*U2
  1

  0
LINE
  5
6F
330
6E
100
AcDbEntity
  8
寸法
  6
ByBlock
 62
     0
100
AcDbLine
 10
-58.676228
 20
19.183902
 30
0.0
 11
-58.676228
 21
14.132895
 31
0.0
  0
LINE
  5
70
330
6E
100
AcDbEntity
  8
寸法
  6
ByBlock
 62
     0
100
AcDbLine
 10
41.323768
 20
19.183902
 30
0.0
 11
41.323768
 21
14.132895
 31
0.0
  0
LINE
  5
71
330
6E
100
AcDbEntity
  8
寸法
  6
ByBlock
 62
     0
100
AcDbLine
 10
-58.676228
 20
14.132895
 30
0.0
 11
41.323768
 21
14.132895
 31
0.0
  0
POINT
  5
72
330
6E
100
AcDbEntity
  8
寸法
 62
     0
100
AcDbPoint
 10
-58.676228
 20
14.132895
 30
0.0
  0
POINT
  5
73
330
6E
100
AcDbEntity
  8
寸法
 62
     0
100
AcDbPoint
 10
41.323768
 20
14.132895
 30
0.0
  0
TEXT
  5
74
330
6E
100
AcDbEntity
  8
寸法
  6
Continuous
 62
     0
100
AcDbText
 10
-11.98125
 20
14.5
 30
0.0
 40
3.0
  1
3000
  7
TextStyle03
 72
     5
 11
-5.41875
 21
14.5
 31
0.0
100
AcDbText
  0
ENDBLK
  5
75
330
6E
100
AcDbEntity
  8
0
100
AcDbBlockEnd
  0
BLOCK
  5
76
330
77
100
AcDbEntity
  8
0
100
AcDbBlockBegin
  2
*U3
 70
     1
 71
     0
 10
0.0
 20
0.0
 30
0.0
  3
*U3
  1

  0
LINE
  5
78
330
77
100
AcDbEntity
  8
別途部材
  6
Continuous
 62
    96
100
AcDbLine
 10
-77.009562
 20
-70.209613
 30
0.0
 11
-77.40956199999999
 21
-71.209613
 31
0.0
  0
ARC
  5
79
330
77
100
AcDbEntity
  8
別途部材
  6
Continuous
100
AcDbCircle
 10
-60.342897
 20
-79.542947
 30
0.0
 40
17.666667
100
AcDbArc
 50
90.0
 51
148.109204
  0
LINE
  5
7A
330
77
100
AcDbEntity
  8
別途部材
  6
Continuous
 62
    96
100
AcDbLine
 10
-77.009562
 20
-70.209613
 30
0.0
 11
-8.676228
 21
-70.209613
 31
0.0
  0
LINE
  5
7B
330
77
100
AcDbEntity
  8
別途部材
  6
Continuous
100
AcDbLine
 10
-77.40956199999999
 20
-71.209613
 30
0.0
 11
-8.676228
 21
-71.209613
 31
0.0
  0
LINE
  5
7C
330
77
100
AcDbEntity
  8
別途部材
  6
Continuous
100
AcDbLine
 10
-9.176228
 20
-60.87628
 30
0.0
 11
-10.176228
 21
-61.87628
 31
0.0
  0
LINE
  5
7D
330
77
100
AcDbEntity
  8
別途部材
  6
Continuous
100
AcDbLine
 10
-11.176228
 20
-61.87628
 30
0.0
 11
-12.176228
 21
-60.87628
 31
0.0
  0
LINE
  5
7E
330
77
100
AcDbEntity
  8
別途部材
  6
Continuous
100
AcDbLine
 10
-13.176228
 20
-60.87628
 30
0.0
 11
-14.176228
 21
-61.87628
 31
0.0
  0
LINE
  5
7F
330
77
100
AcDbEntity
  8
別途部材
  6
Continuous
100
AcDbLine
 10
-12.176228
 20
-60.87628
 30
0.0
 11
-13.176228
 21
-60.87628
 31
0.0
  0
LINE
  5
80
330
77
100
AcDbEntity
  8
別途部材
  6
Continuous
100
AcDbLine
 10
-9.176228
 20
-60.87628
 30
0.0
 11
-8.676228
 21
-60.87628
 31
0.0
  0
LINE
  5
81
330
77
100
AcDbEntity
  8
別途部材
  6
Continuous
100
AcDbLine
 10
-15.176228
 20
-61.87628
 30
0.0
 11
-16.176228
 21
-60.87628
 31
0.0
  0
LINE
  5
82
330
77
100
AcDbEntity
  8
別途部材
  6
Continuous
100
AcDbLine
 10
-17.176228
 20
-60.87628
 30
0.0
 11
-18.176228
 21
-61.87628
 31
0.0
  0
LINE
  5
83
330
77
100
AcDbEntity
  8
別途部材
  6
Continuous
100
AcDbLine
 10
-16.176228
 20
-60.87628
 30
0.0
 11
-17.176228
 21
-60.87628
 31
0.0
  0
LINE
  5
84
330
77
100
AcDbEntity
  8
別途部材
  6
Continuous
100
AcDbLine
 10
-19.176228
 20
-61.87628
 30
0.0
 11
-20.176228
 21
-60.87628
 31
0.0
  0
LINE
  5
85
330
77
100
AcDbEntity
  8
別途部材
  6
Continuous
100
AcDbLine
 10
-21.176228
 20
-60.87628
 30
0.0
 11
-22.176228
 21
-61.87628
 31
0.0
  0
LINE
  5
86
330
77
100
AcDbEntity
  8
別途部材
  6
Continuous
100
AcDbLine
 10
-20.176228
 20
-60.87628
 30
0.0
 11
-21.176228
 21
-60.87628
 31
0.0
  0
LINE
  5
87
330
77
100
AcDbEntity
  8
別途部材
  6
Continuous
100
AcDbLine
 10
-23.176228
 20
-61.87628
 30
0.0
 11
-24.176228
 21
-60.87628
 31
0.0
  0
LINE
  5
88
330
77
100
AcDbEntity
  8
別途部材
  6
Continuous
100
AcDbLine
 10
-25.176228
 20
-60.87628
 30
0.0
 11
-26.176228
 21
-61.87628
 31
0.0
  0
LINE
  5
89
330
77
100
AcDbEntity
  8
別途部材
  6
Continuous
100
AcDbLine
 10
-24.176228
 20
-60.87628
 30
0.0
 11
-25.176228
 21
-60.87628
 31
0.0
  0
LINE
  5
8A
330
77
100
AcDbEntity
  8
別途部材
  6
Continuous
100
AcDbLine
 10
-27.176228
 20
-61.87628
 30
0.0
 11
-28.176228
 21
-60.87628
 31
0.0
  0
LINE
  5
8B
330
77
100
AcDbEntity
  8
別途部材
  6
Continuous
100
AcDbLine
 10
-29.176228
 20
-60.87628
 30
0.0
 11
-30.176228
 21
-61.87628
 31
0.0
  0
LINE
  5
8C
330
77
100
AcDbEntity
  8
別途部材
  6
Continuous
100
AcDbLine
 10
-28.176228
 20
-60.87628
 30
0.0
 11
-29.176228
 21
-60.87628
 31
0.0
  0
LINE
  5
8D
330
77
100
AcDbEntity
  8
別途部材
  6
Continuous
100
AcDbLine
 10
-31.176228
 20
-61.87628
 30
0.0
 11
-32.176228
 21
-60.87628
 31
0.0
  0
LINE
  5
8E
330
77
100
AcDbEntity
  8
別途部材
  6
Continuous
100
AcDbLine
 10
-33.176228
 20
-60.87628
 30
0.0
 11
-34.176228
 21
-61.87628
 31
0.0
  0
LINE
  5
8F
330
77
100
AcDbEntity
  8
別途部材
  6
Continuous
100
AcDbLine
 10
-32.176228
 20
-60.87628
 30
0.0
 11
-33.176228
 21
-60.87628
 31
0.0
  0
LINE
  5
90
330
77
100
AcDbEntity
  8
別途部材
  6
Continuous
100
AcDbLine
 10
-35.176228
 20
-61.87628
 30
0.0
 11
-36.176228
 21
-60.87628
 31
0.0
  0
LINE
  5
91
330
77
100
AcDbEntity
  8
別途部材
  6
Continuous
100
AcDbLine
 10
-37.176228
 20
-60.87628
 30
0.0
 11
-38.176228
 21
-61.87628
 31
0.0
  0
LINE
  5
92
330
77
100
AcDbEntity
  8
別途部材
  6
Continuous
100
AcDbLine
 10
-36.176228
 20
-60.87628
 30
0.0
 11
-37.176228
 21
-60.87628
 31
0.0
  0
LINE
  5
93
330
77
100
AcDbEntity
  8
別途部材
  6
Continuous
100
AcDbLine
 10
-39.176228
 20
-61.87628
 30
0.0
 11
-40.176228
 21
-60.87628
 31
0.0
  0
LINE
  5
94
330
77
100
AcDbEntity
  8
別途部材
  6
Continuous
100
AcDbLine
 10
-41.176228
 20
-60.87628
 30
0.0
 11
-42.176228
 21
-61.87628
 31
0.0
  0
LINE
  5
95
330
77
100
AcDbEntity
  8
別途部材
  6
Continuous
100
AcDbLine
 10
-40.176228
 20
-60.87628
 30
0.0
 11
-41.176228
 21
-60.87628
 31
0.0
  0
LINE
  5
96
330
77
100
AcDbEntity
  8
別途部材
  6
Continuous
100
AcDbLine
 10
-43.176228
 20
-61.87628
 30
0.0
 11
-44.176228
 21
-60.87628
 31
0.0
  0
LINE
  5
97
330
77
100
AcDbEntity
  8
別途部材
  6
Continuous
100
AcDbLine
 10
-45.176228
 20
-60.87628
 30
0.0
 11
-46.176228
 21
-61.87628
 31
0.0
  0
LINE
  5
98
330
77
100
AcDbEntity
  8
別途部材
  6
Continuous
100
AcDbLine
 10
-44.176228
 20
-60.87628
 30
0.0
 11
-45.176228
 21
-60.87628
 31
0.0
  0
LINE
  5
99
330
77
100
AcDbEntity
  8
別途部材
  6
Continuous
100
AcDbLine
 10
-47.176228
 20
-61.87628
 30
0.0
 11
-48.176228
 21
-60.87628
 31
0.0
  0
LINE
  5
9A
330
77
100
AcDbEntity
  8
別途部材
  6
Continuous
100
AcDbLine
 10
-49.176228
 20
-60.87628
 30
0.0
 11
-50.176228
 21
-61.87628
 31
0.0
  0
LINE
  5
9B
330
77
100
AcDbEntity
  8
別途部材
  6
Continuous
100
AcDbLine
 10
-48.176228
 20
-60.87628
 30
0.0
 11
-49.176228
 21
-60.87628
 31
0.0
  0
LINE
  5
9C
330
77
100
AcDbEntity
  8
別途部材
  6
Continuous
100
AcDbLine
 10
-51.176228
 20
-61.87628
 30
0.0
 11
-52.176228
 21
-60.87628
 31
0.0
  0
LINE
  5
9D
330
77
100
AcDbEntity
  8
別途部材
  6
Continuous
100
AcDbLine
 10
-53.176228
 20
-60.87628
 30
0.0
 11
-54.176228
 21
-61.87628
 31
0.0
  0
LINE
  5
9E
330
77
100
AcDbEntity
  8
別途部材
  6
Continuous
100
AcDbLine
 10
-52.176228
 20
-60.87628
 30
0.0
 11
-53.176228
 21
-60.87628
 31
0.0
  0
LINE
  5
9F
330
77
100
AcDbEntity
  8
別途部材
  6
Continuous
100
AcDbLine
 10
-50.176228
 20
-61.87628
 30
0.0
 11
-51.176228
 21
-61.87628
 31
0.0
  0
LINE
  5
A0
330
77
100
AcDbEntity
  8
別途部材
  6
Continuous
100
AcDbLine
 10
-46.176228
 20
-61.87628
 30
0.0
 11
-47.176228
 21
-61.87628
 31
0.0
  0
LINE
  5
A1
330
77
100
AcDbEntity
  8
別途部材
  6
Continuous
100
AcDbLine
 10
-42.176228
 20
-61.87628
 30
0.0
 11
-43.176228
 21
-61.87628
 31
0.0
  0
LINE
  5
A2
330
77
100
AcDbEntity
  8
別途部材
  6
Continuous
100
AcDbLine
 10
-38.176228
 20
-61.87628
 30
0.0
 11
-39.176228
 21
-61.87628
 31
0.0
  0
LINE
  5
A3
330
77
100
AcDbEntity
  8
別途部材
  6
Continuous
100
AcDbLine
 10
-34.176228
 20
-61.87628
 30
0.0
 11
-35.176228
 21
-61.87628
 31
0.0
  0
LINE
  5
A4
330
77
100
AcDbEntity
  8
別途部材
  6
Continuous
100
AcDbLine
 10
-30.176228
 20
-61.87628
 30
0.0
 11
-31.176228
 21
-61.87628
 31
0.0
  0
LINE
  5
A5
330
77
100
AcDbEntity
  8
別途部材
  6
Continuous
100
AcDbLine
 10
-26.176228
 20
-61.87628
 30
0.0
 11
-27.176228
 21
-61.87628
 31
0.0
  0
LINE
  5
A6
330
77
100
AcDbEntity
  8
別途部材
  6
Continuous
100
AcDbLine
 10
-22.176228
 20
-61.87628
 30
0.0
 11
-23.176228
 21
-61.87628
 31
0.0
  0
LINE
  5
A7
330
77
100
AcDbEntity
  8
別途部材
  6
Continuous
100
AcDbLine
 10
-18.176228
 20
-61.87628
 30
0.0
 11
-19.176228
 21
-61.87628
 31
0.0
  0
LINE
  5
A8
330
77
100
AcDbEntity
  8
別途部材
  6
Continuous
100
AcDbLine
 10
-14.176228
 20
-61.87628
 30
0.0
 11
-15.176228
 21
-61.87628
 31
0.0
  0
LINE
  5
A9
330
77
100
AcDbEntity
  8
別途部材
  6
Continuous
100
AcDbLine
 10
-11.176228
 20
-61.87628
 30
0.0
 11
-10.176228
 21
-61.87628
 31
0.0
  0
LINE
  5
AA
330
77
100
AcDbEntity
  8
別途部材
  6
Continuous
100
AcDbLine
 10
-55.176228
 20
-61.87628
 30
0.0
 11
-56.176228
 21
-60.87628
 31
0.0
  0
LINE
  5
AB
330
77
100
AcDbEntity
  8
別途部材
  6
Continuous
100
AcDbLine
 10
-57.176228
 20
-60.87628
 30
0.0
 11
-58.176228
 21
-61.87628
 31
0.0
  0
LINE
  5
AC
330
77
100
AcDbEntity
  8
別途部材
  6
Continuous
100
AcDbLine
 10
-56.176228
 20
-60.87628
 30
0.0
 11
-57.176228
 21
-60.87628
 31
0.0
  0
LINE
  5
AD
330
77
100
AcDbEntity
  8
別途部材
  6
Continuous
100
AcDbLine
 10
-54.176228
 20
-61.87628
 30
0.0
 11
-55.176228
 21
-61.87628
 31
0.0
  0
LINE
  5
AE
330
77
100
AcDbEntity
  8
別途部材
  6
Continuous
100
AcDbLine
 10
-53.176228
 20
-60.87628
 30
0.0
 11
-53.176228
 21
-70.209613
 31
0.0
  0
LINE
  5
AF
330
77
100
AcDbEntity
  8
別途部材
  6
Continuous
100
AcDbLine
 10
-49.176228
 20
-60.87628
 30
0.0
 11
-49.176228
 21
-70.209613
 31
0.0
  0
LINE
  5
B0
330
77
100
AcDbEntity
  8
別途部材
  6
Continuous
100
AcDbLine
 10
-47.176228
 20
-61.87628
 30
0.0
 11
-47.176228
 21
-70.209613
 31
0.0
  0
LINE
  5
B1
330
77
100
AcDbEntity
  8
別途部材
  6
Continuous
100
AcDbLine
 10
-52.176228
 20
-60.87628
 30
0.0
 11
-52.176228
 21
-70.209613
 31
0.0
  0
LINE
  5
B2
330
77
100
AcDbEntity
  8
別途部材
  6
Continuous
100
AcDbLine
 10
-56.176228
 20
-60.87628
 30
0.0
 11
-56.176228
 21
-70.209613
 31
0.0
  0
LINE
  5
B3
330
77
100
AcDbEntity
  8
別途部材
  6
Continuous
100
AcDbLine
 10
-58.176228
 20
-61.87628
 30
0.0
 11
-58.176228
 21
-70.209613
 31
0.0
  0
LINE
  5
B4
330
77
100
AcDbEntity
  8
別途部材
  6
Continuous
100
AcDbLine
 10
-57.176228
 20
-60.87628
 30
0.0
 11
-57.176228
 21
-70.209613
 31
0.0
  0
LINE
  5
B5
330
77
100
AcDbEntity
  8
別途部材
  6
Continuous
100
AcDbLine
 10
-55.176228
 20
-61.87628
 30
0.0
 11
-55.176228
 21
-70.209613
 31
0.0
  0
LINE
  5
B6
330
77
100
AcDbEntity
  8
別途部材
  6
Continuous
100
AcDbLine
 10
-54.176228
 20
-61.87628
 30
0.0
 11
-54.176228
 21
-70.209613
 31
0.0
  0
LINE
  5
B7
330
77
100
AcDbEntity
  8
別途部材
  6
Continuous
100
AcDbLine
 10
-51.176228
 20
-61.87628
 30
0.0
 11
-51.176228
 21
-70.209613
 31
0.0
  0
LINE
  5
B8
330
77
100
AcDbEntity
  8
別途部材
  6
Continuous
100
AcDbLine
 10
-50.176228
 20
-61.87628
 30
0.0
 11
-50.176228
 21
-70.209613
 31
0.0
  0
LINE
  5
B9
330
77
100
AcDbEntity
  8
別途部材
  6
Continuous
100
AcDbLine
 10
-48.176228
 20
-60.87628
 30
0.0
 11
-48.176228
 21
-70.209613
 31
0.0
  0
LINE
  5
BA
330
77
100
AcDbEntity
  8
別途部材
  6
Continuous
100
AcDbLine
 10
-45.176228
 20
-60.87628
 30
0.0
 11
-45.176228
 21
-70.209613
 31
0.0
  0
LINE
  5
BB
330
77
100
AcDbEntity
  8
別途部材
  6
Continuous
100
AcDbLine
 10
-46.176228
 20
-61.87628
 30
0.0
 11
-46.176228
 21
-70.209613
 31
0.0
  0
LINE
  5
BC
330
77
100
AcDbEntity
  8
別途部材
  6
Continuous
100
AcDbLine
 10
-44.176228
 20
-60.87628
 30
0.0
 11
-44.176228
 21
-70.209613
 31
0.0
  0
LINE
  5
BD
330
77
100
AcDbEntity
  8
別途部材
  6
Continuous
100
AcDbLine
 10
-43.176228
 20
-61.87628
 30
0.0
 11
-43.176228
 21
-70.209613
 31
0.0
  0
LINE
  5
BE
330
77
100
AcDbEntity
  8
別途部材
  6
Continuous
100
AcDbLine
 10
-42.176228
 20
-61.87628
 30
0.0
 11
-42.176228
 21
-70.209613
 31
0.0
  0
LINE
  5
BF
330
77
100
AcDbEntity
  8
別途部材
  6
Continuous
100
AcDbLine
 10
-41.176228
 20
-60.87628
 30
0.0
 11
-41.176228
 21
-70.209613
 31
0.0
  0
LINE
  5
C0
330
77
100
AcDbEntity
  8
別途部材
  6
Continuous
100
AcDbLine
 10
-39.176228
 20
-61.87628
 30
0.0
 11
-39.176228
 21
-70.209613
 31
0.0
  0
LINE
  5
C1
330
77
100
AcDbEntity
  8
別途部材
  6
Continuous
100
AcDbLine
 10
-40.176228
 20
-60.87628
 30
0.0
 11
-40.176228
 21
-70.209613
 31
0.0
  0
LINE
  5
C2
330
77
100
AcDbEntity
  8
別途部材
  6
Continuous
100
AcDbLine
 10
-37.176228
 20
-60.87628
 30
0.0
 11
-37.176228
 21
-70.209613
 31
0.0
  0
LINE
  5
C3
330
77
100
AcDbEntity
  8
別途部材
  6
Continuous
100
AcDbLine
 10
-38.176228
 20
-61.87628
 30
0.0
 11
-38.176228
 21
-70.209613
 31
0.0
  0
LINE
  5
C4
330
77
100
AcDbEntity
  8
別途部材
  6
Continuous
100
AcDbLine
 10
-34.176228
 20
-61.87628
 30
0.0
 11
-34.176228
 21
-70.209613
 31
0.0
  0
LINE
  5
C5
330
77
100
AcDbEntity
  8
別途部材
  6
Continuous
100
AcDbLine
 10
-33.176228
 20
-60.87628
 30
0.0
 11
-33.176228
 21
-70.209613
 31
0.0
  0
LINE
  5
C6
330
77
100
AcDbEntity
  8
別途部材
  6
Continuous
100
AcDbLine
 10
-32.176228
 20
-60.87628
 30
0.0
 11
-32.176228
 21
-70.209613
 31
0.0
  0
LINE
  5
C7
330
77
100
AcDbEntity
  8
別途部材
  6
Continuous
100
AcDbLine
 10
-35.176228
 20
-61.87628
 30
0.0
 11
-35.176228
 21
-70.209613
 31
0.0
  0
LINE
  5
C8
330
77
100
AcDbEntity
  8
別途部材
  6
Continuous
100
AcDbLine
 10
-36.176228
 20
-60.87628
 30
0.0
 11
-36.176228
 21
-70.209613
 31
0.0
  0
LINE
  5
C9
330
77
100
AcDbEntity
  8
別途部材
  6
Continuous
100
AcDbLine
 10
-28.176228
 20
-60.87628
 30
0.0
 11
-28.176228
 21
-70.209613
 31
0.0
  0
LINE
  5
CA
330
77
100
AcDbEntity
  8
別途部材
  6
Continuous
100
AcDbLine
 10
-30.176228
 20
-61.87628
 30
0.0
 11
-30.176228
 21
-70.209613
 31
0.0
  0
LINE
  5
CB
330
77
100
AcDbEntity
  8
別途部材
  6
Continuous
100
AcDbLine
 10
-31.176228
 20
-61.87628
 30
0.0
 11
-31.176228
 21
-70.209613
 31
0.0
  0
LINE
  5
CC
330
77
100
AcDbEntity
  8
別途部材
  6
Continuous
100
AcDbLine
 10
-29.176228
 20
-60.87628
 30
0.0
 11
-29.176228
 21
-70.209613
 31
0.0
  0
LINE
  5
CD
330
77
100
AcDbEntity
  8
別途部材
  6
Continuous
100
AcDbLine
 10
-27.176228
 20
-61.87628
 30
0.0
 11
-27.176228
 21
-70.209613
 31
0.0
  0
LINE
  5
CE
330
77
100
AcDbEntity
  8
別途部材
  6
Continuous
100
AcDbLine
 10
-25.176228
 20
-60.87628
 30
0.0
 11
-25.176228
 21
-70.209613
 31
0.0
  0
LINE
  5
CF
330
77
100
AcDbEntity
  8
別途部材
  6
Continuous
100
AcDbLine
 10
-24.176228
 20
-60.87628
 30
0.0
 11
-24.176228
 21
-70.209613
 31
0.0
  0
LINE
  5
D0
330
77
100
AcDbEntity
  8
別途部材
  6
Continuous
100
AcDbLine
 10
-22.176228
 20
-61.87628
 30
0.0
 11
-22.176228
 21
-70.209613
 31
0.0
  0
LINE
  5
D1
330
77
100
AcDbEntity
  8
別途部材
  6
Continuous
100
AcDbLine
 10
-23.176228
 20
-61.87628
 30
0.0
 11
-23.176228
 21
-70.209613
 31
0.0
  0
LINE
  5
D2
330
77
100
AcDbEntity
  8
別途部材
  6
Continuous
100
AcDbLine
 10
-26.176228
 20
-61.87628
 30
0.0
 11
-26.176228
 21
-70.209613
 31
0.0
  0
LINE
  5
D3
330
77
100
AcDbEntity
  8
別途部材
  6
Continuous
100
AcDbLine
 10
-21.176228
 20
-60.87628
 30
0.0
 11
-21.176228
 21
-70.209613
 31
0.0
  0
LINE
  5
D4
330
77
100
AcDbEntity
  8
別途部材
  6
Continuous
100
AcDbLine
 10
-19.176228
 20
-61.87628
 30
0.0
 11
-19.176228
 21
-70.209613
 31
0.0
  0
LINE
  5
D5
330
77
100
AcDbEntity
  8
別途部材
  6
Continuous
100
AcDbLine
 10
-20.176228
 20
-60.87628
 30
0.0
 11
-20.176228
 21
-70.209613
 31
0.0
  0
LINE
  5
D6
330
77
100
AcDbEntity
  8
別途部材
  6
Continuous
100
AcDbLine
 10
-18.176228
 20
-61.87628
 30
0.0
 11
-18.176228
 21
-70.209613
 31
0.0
  0
LINE
  5
D7
330
77
100
AcDbEntity
  8
別途部材
  6
Continuous
100
AcDbLine
 10
-17.176228
 20
-60.87628
 30
0.0
 11
-17.176228
 21
-70.209613
 31
0.0
  0
LINE
  5
D8
330
77
100
AcDbEntity
  8
別途部材
  6
Continuous
100
AcDbLine
 10
-15.176228
 20
-61.87628
 30
0.0
 11
-15.176228
 21
-70.209613
 31
0.0
  0
LINE
  5
D9
330
77
100
AcDbEntity
  8
別途部材
  6
Continuous
100
AcDbLine
 10
-16.176228
 20
-60.87628
 30
0.0
 11
-16.176228
 21
-70.209613
 31
0.0
  0
LINE
  5
DA
330
77
100
AcDbEntity
  8
別途部材
  6
Continuous
100
AcDbLine
 10
-14.176228
 20
-61.87628
 30
0.0
 11
-14.176228
 21
-70.209613
 31
0.0
  0
LINE
  5
DB
330
77
100
AcDbEntity
  8
別途部材
  6
Continuous
100
AcDbLine
 10
-13.176228
 20
-60.87628
 30
0.0
 11
-13.176228
 21
-70.209613
 31
0.0
  0
LINE
  5
DC
330
77
100
AcDbEntity
  8
別途部材
  6
Continuous
100
AcDbLine
 10
-11.176228
 20
-61.87628
 30
0.0
 11
-11.176228
 21
-70.209613
 31
0.0
  0
LINE
  5
DD
330
77
100
AcDbEntity
  8
別途部材
  6
Continuous
100
AcDbLine
 10
-12.176228
 20
-60.87628
 30
0.0
 11
-12.176228
 21
-70.209613
 31
0.0
  0
LINE
  5
DE
330
77
100
AcDbEntity
  8
別途部材
  6
Continuous
100
AcDbLine
 10
-10.176228
 20
-61.87628
 30
0.0
 11
-10.176228
 21
-70.209613
 31
0.0
  0
LINE
  5
DF
330
77
100
AcDbEntity
  8
別途部材
  6
Continuous
100
AcDbLine
 10
-9.176228
 20
-60.87628
 30
0.0
 11
-9.176228
 21
-70.209613
 31
0.0
  0
LINE
  5
E0
330
77
100
AcDbEntity
  8
別途部材
  6
Continuous
100
AcDbLine
 10
-58.176228
 20
-61.87628
 30
0.0
 11
-60.342895
 21
-61.87628
 31
0.0
  0
LINE
  5
E1
330
77
100
AcDbEntity
  8
別途部材
  6
Continuous
 62
    96
100
AcDbLine
 10
59.657105
 20
-70.209613
 30
0.0
 11
60.057105
 21
-71.209613
 31
0.0
  0
ARC
  5
E2
330
77
100
AcDbEntity
  8
別途部材
  6
Continuous
100
AcDbCircle
 10
42.99044
 20
-79.542947
 30
0.0
 40
17.666667
100
AcDbArc
 50
31.890796
 51
90.0
  0
LINE
  5
E3
330
77
100
AcDbEntity
  8
別途部材
  6
Continuous
 62
    96
100
AcDbLine
 10
59.657105
 20
-70.209613
 30
0.0
 11
-8.676228
 21
-70.209613
 31
0.0
  0
LINE
  5
E4
330
77
100
AcDbEntity
  8
別途部材
  6
Continuous
100
AcDbLine
 10
60.057105
 20
-71.209613
 30
0.0
 11
-8.676228
 21
-71.209613
 31
0.0
  0
LINE
  5
E5
330
77
100
AcDbEntity
  8
別途部材
  6
Continuous
100
AcDbLine
 10
-8.176228
 20
-60.87628
 30
0.0
 11
-7.176228
 21
-61.87628
 31
0.0
  0
LINE
  5
E6
330
77
100
AcDbEntity
  8
別途部材
  6
Continuous
100
AcDbLine
 10
-6.176228
 20
-61.87628
 30
0.0
 11
-5.176228
 21
-60.87628
 31
0.0
  0
LINE
  5
E7
330
77
100
AcDbEntity
  8
別途部材
  6
Continuous
100
AcDbLine
 10
-4.176228
 20
-60.87628
 30
0.0
 11
-3.176228
 21
-61.87628
 31
0.0
  0
LINE
  5
E8
330
77
100
AcDbEntity
  8
別途部材
  6
Continuous
100
AcDbLine
 10
-5.176228
 20
-60.87628
 30
0.0
 11
-4.176228
 21
-60.87628
 31
0.0
  0
LINE
  5
E9
330
77
100
AcDbEntity
  8
別途部材
  6
Continuous
100
AcDbLine
 10
-8.176228
 20
-60.87628
 30
0.0
 11
-8.676228
 21
-60.87628
 31
0.0
  0
LINE
  5
EA
330
77
100
AcDbEntity
  8
別途部材
  6
Continuous
100
AcDbLine
 10
-2.176228
 20
-61.87628
 30
0.0
 11
-1.176228
 21
-60.87628
 31
0.0
  0
LINE
  5
EB
330
77
100
AcDbEntity
  8
別途部材
  6
Continuous
100
AcDbLine
 10
-0.176228
 20
-60.87628
 30
0.0
 11
0.823773
 21
-61.87628
 31
0.0
  0
LINE
  5
EC
330
77
100
AcDbEntity
  8
別途部材
  6
Continuous
100
AcDbLine
 10
-1.176228
 20
-60.87628
 30
0.0
 11
-0.176228
 21
-60.87628
 31
0.0
  0
LINE
  5
ED
330
77
100
AcDbEntity
  8
別途部材
  6
Continuous
100
AcDbLine
 10
1.823773
 20
-61.87628
 30
0.0
 11
2.823773
 21
-60.87628
 31
0.0
  0
LINE
  5
EE
330
77
100
AcDbEntity
  8
別途部材
  6
Continuous
100
AcDbLine
 10
3.823773
 20
-60.87628
 30
0.0
 11
4.823773
 21
-61.87628
 31
0.0
  0
LINE
  5
EF
330
77
100
AcDbEntity
  8
別途部材
  6
Continuous
100
AcDbLine
 10
2.823773
 20
-60.87628
 30
0.0
 11
3.823773
 21
-60.87628
 31
0.0
  0
LINE
  5
F0
330
77
100
AcDbEntity
  8
別途部材
  6
Continuous
100
AcDbLine
 10
5.823773
 20
-61.87628
 30
0.0
 11
6.823773
 21
-60.87628
 31
0.0
  0
LINE
  5
F1
330
77
100
AcDbEntity
  8
別途部材
  6
Continuous
100
AcDbLine
 10
7.823773
 20
-60.87628
 30
0.0
 11
8.823772999999999
 21
-61.87628
 31
0.0
  0
LINE
  5
F2
330
77
100
AcDbEntity
  8
別途部材
  6
Continuous
100
AcDbLine
 10
6.823773
 20
-60.87628
 30
0.0
 11
7.823773
 21
-60.87628
 31
0.0
  0
LINE
  5
F3
330
77
100
AcDbEntity
  8
別途部材
  6
Continuous
100
AcDbLine
 10
9.823772999999999
 20
-61.87628
 30
0.0
 11
10.823773
 21
-60.87628
 31
0.0
  0
LINE
  5
F4
330
77
100
AcDbEntity
  8
別途部材
  6
Continuous
100
AcDbLine
 10
11.823773
 20
-60.87628
 30
0.0
 11
12.823773
 21
-61.87628
 31
0.0
  0
LINE
  5
F5
330
77
100
AcDbEntity
  8
別途部材
  6
Continuous
100
AcDbLine
 10
10.823773
 20
-60.87628
 30
0.0
 11
11.823773
 21
-60.87628
 31
0.0
  0
LINE
  5
F6
330
77
100
AcDbEntity
  8
別途部材
  6
Continuous
100
AcDbLine
 10
13.823773
 20
-61.87628
 30
0.0
 11
14.823773
 21
-60.87628
 31
0.0
  0
LINE
  5
F7
330
77
100
AcDbEntity
  8
別途部材
  6
Continuous
100
AcDbLine
 10
15.823773
 20
-60.87628
 30
0.0
 11
16.823773
 21
-61.87628
 31
0.0
  0
LINE
  5
F8
330
77
100
AcDbEntity
  8
別途部材
  6
Continuous
100
AcDbLine
 10
14.823773
 20
-60.87628
 30
0.0
 11
15.823773
 21
-60.87628
 31
0.0
  0
LINE
  5
F9
330
77
100
AcDbEntity
  8
別途部材
  6
Continuous
100
AcDbLine
 10
17.823773
 20
-61.87628
 30
0.0
 11
18.823773
 21
-60.87628
 31
0.0
  0
LINE
  5
FA
330
77
100
AcDbEntity
  8
別途部材
  6
Continuous
100
AcDbLine
 10
19.823773
 20
-60.87628
 30
0.0
 11
20.823773
 21
-61.87628
 31
0.0
  0
LINE
  5
FB
330
77
100
AcDbEntity
  8
別途部材
  6
Continuous
100
AcDbLine
 10
18.823773
 20
-60.87628
 30
0.0
 11
19.823773
 21
-60.87628
 31
0.0
  0
LINE
  5
FC
330
77
100
AcDbEntity
  8
別途部材
  6
Continuous
100
AcDbLine
 10
21.823773
 20
-61.87628
 30
0.0
 11
22.823773
 21
-60.87628
 31
0.0
  0
LINE
  5
FD
330
77
100
AcDbEntity
  8
別途部材
  6
Continuous
100
AcDbLine
 10
23.823773
 20
-60.87628
 30
0.0
 11
24.823773
 21
-61.87628
 31
0.0
  0
LINE
  5
FE
330
77
100
AcDbEntity
  8
別途部材
  6
Continuous
100
AcDbLine
 10
22.823773
 20
-60.87628
 30
0.0
 11
23.823773
 21
-60.87628
 31
0.0
  0
LINE
  5
FF
330
77
100
AcDbEntity
  8
別途部材
  6
Continuous
100
AcDbLine
 10
25.823773
 20
-61.87628
 30
0.0
 11
26.823773
 21
-60.87628
 31
0.0
  0
LINE
  5
100
330
77
100
AcDbEntity
  8
別途部材
  6
Continuous
100
AcDbLine
 10
27.823773
 20
-60.87628
 30
0.0
 11
28.823773
 21
-61.87628
 31
0.0
  0
LINE
  5
101
330
77
100
AcDbEntity
  8
別途部材
  6
Continuous
100
AcDbLine
 10
26.823773
 20
-60.87628
 30
0.0
 11
27.823773
 21
-60.87628
 31
0.0
  0
LINE
  5
102
330
77
100
AcDbEntity
  8
別途部材
  6
Continuous
100
AcDbLine
 10
29.823773
 20
-61.87628
 30
0.0
 11
30.823773
 21
-60.87628
 31
0.0
  0
LINE
  5
103
330
77
100
AcDbEntity
  8
別途部材
  6
Continuous
100
AcDbLine
 10
31.823773
 20
-60.87628
 30
0.0
 11
32.823773
 21
-61.87628
 31
0.0
  0
LINE
  5
104
330
77
100
AcDbEntity
  8
別途部材
  6
Continuous
100
AcDbLine
 10
30.823773
 20
-60.87628
 30
0.0
 11
31.823773
 21
-60.87628
 31
0.0
  0
LINE
  5
105
330
77
100
AcDbEntity
  8
別途部材
  6
Continuous
100
AcDbLine
 10
33.823773
 20
-61.87628
 30
0.0
 11
34.823773
 21
-60.87628
 31
0.0
  0
LINE
  5
106
330
77
100
AcDbEntity
  8
別途部材
  6
Continuous
100
AcDbLine
 10
35.823773
 20
-60.87628
 30
0.0
 11
36.823773
 21
-61.87628
 31
0.0
  0
LINE
  5
107
330
77
100
AcDbEntity
  8
別途部材
  6
Continuous
100
AcDbLine
 10
34.823773
 20
-60.87628
 30
0.0
 11
35.823773
 21
-60.87628
 31
0.0
  0
LINE
  5
108
330
77
100
AcDbEntity
  8
別途部材
  6
Continuous
100
AcDbLine
 10
32.823773
 20
-61.87628
 30
0.0
 11
33.823773
 21
-61.87628
 31
0.0
  0
LINE
  5
109
330
77
100
AcDbEntity
  8
別途部材
  6
Continuous
100
AcDbLine
 10
28.823773
 20
-61.87628
 30
0.0
 11
29.823773
 21
-61.87628
 31
0.0
  0
LINE
  5
10A
330
77
100
AcDbEntity
  8
別途部材
  6
Continuous
100
AcDbLine
 10
24.823773
 20
-61.87628
 30
0.0
 11
25.823773
 21
-61.87628
 31
0.0
  0
LINE
  5
10B
330
77
100
AcDbEntity
  8
別途部材
  6
Continuous
100
AcDbLine
 10
20.823773
 20
-61.87628
 30
0.0
 11
21.823773
 21
-61.87628
 31
0.0
  0
LINE
  5
10C
330
77
100
AcDbEntity
  8
別途部材
  6
Continuous
100
AcDbLine
 10
16.823773
 20
-61.87628
 30
0.0
 11
17.823773
 21
-61.87628
 31
0.0
  0
LINE
  5
10D
330
77
100
AcDbEntity
  8
別途部材
  6
Continuous
100
AcDbLine
 10
12.823773
 20
-61.87628
 30
0.0
 11
13.823773
 21
-61.87628
 31
0.0
  0
LINE
  5
10E
330
77
100
AcDbEntity
  8
別途部材
  6
Continuous
100
AcDbLine
 10
8.823772999999999
 20
-61.87628
 30
0.0
 11
9.823772999999999
 21
-61.87628
 31
0.0
  0
LINE
  5
10F
330
77
100
AcDbEntity
  8
別途部材
  6
Continuous
100
AcDbLine
 10
4.823773
 20
-61.87628
 30
0.0
 11
5.823773
 21
-61.87628
 31
0.0
  0
LINE
  5
110
330
77
100
AcDbEntity
  8
別途部材
  6
Continuous
100
AcDbLine
 10
0.823773
 20
-61.87628
 30
0.0
 11
1.823773
 21
-61.87628
 31
0.0
  0
LINE
  5
111
330
77
100
AcDbEntity
  8
別途部材
  6
Continuous
100
AcDbLine
 10
-3.176228
 20
-61.87628
 30
0.0
 11
-2.176228
 21
-61.87628
 31
0.0
  0
LINE
  5
112
330
77
100
AcDbEntity
  8
別途部材
  6
Continuous
100
AcDbLine
 10
-6.176228
 20
-61.87628
 30
0.0
 11
-7.176228
 21
-61.87628
 31
0.0
  0
LINE
  5
113
330
77
100
AcDbEntity
  8
別途部材
  6
Continuous
100
AcDbLine
 10
37.823773
 20
-61.87628
 30
0.0
 11
38.823773
 21
-60.87628
 31
0.0
  0
LINE
  5
114
330
77
100
AcDbEntity
  8
別途部材
  6
Continuous
100
AcDbLine
 10
39.823773
 20
-60.87628
 30
0.0
 11
40.823773
 21
-61.87628
 31
0.0
  0
LINE
  5
115
330
77
100
AcDbEntity
  8
別途部材
  6
Continuous
100
AcDbLine
 10
38.823773
 20
-60.87628
 30
0.0
 11
39.823773
 21
-60.87628
 31
0.0
  0
LINE
  5
116
330
77
100
AcDbEntity
  8
別途部材
  6
Continuous
100
AcDbLine
 10
36.823773
 20
-61.87628
 30
0.0
 11
37.823773
 21
-61.87628
 31
0.0
  0
LINE
  5
117
330
77
100
AcDbEntity
  8
別途部材
  6
Continuous
100
AcDbLine
 10
35.823773
 20
-60.87628
 30
0.0
 11
35.823773
 21
-70.209613
 31
0.0
  0
LINE
  5
118
330
77
100
AcDbEntity
  8
別途部材
  6
Continuous
100
AcDbLine
 10
31.823773
 20
-60.87628
 30
0.0
 11
31.823773
 21
-70.209613
 31
0.0
  0
LINE
  5
119
330
77
100
AcDbEntity
  8
別途部材
  6
Continuous
100
AcDbLine
 10
29.823773
 20
-61.87628
 30
0.0
 11
29.823773
 21
-70.209613
 31
0.0
  0
LINE
  5
11A
330
77
100
AcDbEntity
  8
別途部材
  6
Continuous
100
AcDbLine
 10
34.823773
 20
-60.87628
 30
0.0
 11
34.823773
 21
-70.209613
 31
0.0
  0
LINE
  5
11B
330
77
100
AcDbEntity
  8
別途部材
  6
Continuous
100
AcDbLine
 10
38.823773
 20
-60.87628
 30
0.0
 11
38.823773
 21
-70.209613
 31
0.0
  0
LINE
  5
11C
330
77
100
AcDbEntity
  8
別途部材
  6
Continuous
100
AcDbLine
 10
40.823773
 20
-61.87628
 30
0.0
 11
40.823773
 21
-70.209613
 31
0.0
  0
LINE
  5
11D
330
77
100
AcDbEntity
  8
別途部材
  6
Continuous
100
AcDbLine
 10
39.823773
 20
-60.87628
 30
0.0
 11
39.823773
 21
-70.209613
 31
0.0
  0
LINE
  5
11E
330
77
100
AcDbEntity
  8
別途部材
  6
Continuous
100
AcDbLine
 10
37.823773
 20
-61.87628
 30
0.0
 11
37.823773
 21
-70.209613
 31
0.0
  0
LINE
  5
11F
330
77
100
AcDbEntity
  8
別途部材
  6
Continuous
100
AcDbLine
 10
36.823773
 20
-61.87628
 30
0.0
 11
36.823773
 21
-70.209613
 31
0.0
  0
LINE
  5
120
330
77
100
AcDbEntity
  8
別途部材
  6
Continuous
100
AcDbLine
 10
33.823773
 20
-61.87628
 30
0.0
 11
33.823773
 21
-70.209613
 31
0.0
  0
LINE
  5
121
330
77
100
AcDbEntity
  8
別途部材
  6
Continuous
100
AcDbLine
 10
32.823773
 20
-61.87628
 30
0.0
 11
32.823773
 21
-70.209613
 31
0.0
  0
LINE
  5
122
330
77
100
AcDbEntity
  8
別途部材
  6
Continuous
100
AcDbLine
 10
30.823773
 20
-60.87628
 30
0.0
 11
30.823773
 21
-70.209613
 31
0.0
  0
LINE
  5
123
330
77
100
AcDbEntity
  8
別途部材
  6
Continuous
100
AcDbLine
 10
27.823773
 20
-60.87628
 30
0.0
 11
27.823773
 21
-70.209613
 31
0.0
  0
LINE
  5
124
330
77
100
AcDbEntity
  8
別途部材
  6
Continuous
100
AcDbLine
 10
28.823773
 20
-61.87628
 30
0.0
 11
28.823773
 21
-70.209613
 31
0.0
  0
LINE
  5
125
330
77
100
AcDbEntity
  8
別途部材
  6
Continuous
100
AcDbLine
 10
26.823773
 20
-60.87628
 30
0.0
 11
26.823773
 21
-70.209613
 31
0.0
  0
LINE
  5
126
330
77
100
AcDbEntity
  8
別途部材
  6
Continuous
100
AcDbLine
 10
25.823773
 20
-61.87628
 30
0.0
 11
25.823773
 21
-70.209613
 31
0.0
  0
LINE
  5
127
330
77
100
AcDbEntity
  8
別途部材
  6
Continuous
100
AcDbLine
 10
24.823773
 20
-61.87628
 30
0.0
 11
24.823773
 21
-70.209613
 31
0.0
  0
LINE
  5
128
330
77
100
AcDbEntity
  8
別途部材
  6
Continuous
100
AcDbLine
 10
23.823773
 20
-60.87628
 30
0.0
 11
23.823773
 21
-70.209613
 31
0.0
  0
LINE
  5
129
330
77
100
AcDbEntity
  8
別途部材
  6
Continuous
100
AcDbLine
 10
21.823773
 20
-61.87628
 30
0.0
 11
21.823773
 21
-70.209613
 31
0.0
  0
LINE
  5
12A
330
77
100
AcDbEntity
  8
別途部材
  6
Continuous
100
AcDbLine
 10
22.823773
 20
-60.87628
 30
0.0
 11
22.823773
 21
-70.209613
 31
0.0
  0
LINE
  5
12B
330
77
100
AcDbEntity
  8
別途部材
  6
Continuous
100
AcDbLine
 10
19.823773
 20
-60.87628
 30
0.0
 11
19.823773
 21
-70.209613
 31
0.0
  0
LINE
  5
12C
330
77
100
AcDbEntity
  8
別途部材
  6
Continuous
100
AcDbLine
 10
20.823773
 20
-61.87628
 30
0.0
 11
20.823773
 21
-70.209613
 31
0.0
  0
LINE
  5
12D
330
77
100
AcDbEntity
  8
別途部材
  6
Continuous
100
AcDbLine
 10
16.823773
 20
-61.87628
 30
0.0
 11
16.823773
 21
-70.209613
 31
0.0
  0
LINE
  5
12E
330
77
100
AcDbEntity
  8
別途部材
  6
Continuous
100
AcDbLine
 10
15.823773
 20
-60.87628
 30
0.0
 11
15.823773
 21
-70.209613
 31
0.0
  0
LINE
  5
12F
330
77
100
AcDbEntity
  8
別途部材
  6
Continuous
100
AcDbLine
 10
14.823773
 20
-60.87628
 30
0.0
 11
14.823773
 21
-70.209613
 31
0.0
  0
LINE
  5
130
330
77
100
AcDbEntity
  8
別途部材
  6
Continuous
100
AcDbLine
 10
17.823773
 20
-61.87628
 30
0.0
 11
17.823773
 21
-70.209613
 31
0.0
  0
LINE
  5
131
330
77
100
AcDbEntity
  8
別途部材
  6
Continuous
100
AcDbLine
 10
18.823773
 20
-60.87628
 30
0.0
 11
18.823773
 21
-70.209613
 31
0.0
  0
LINE
  5
132
330
77
100
AcDbEntity
  8
別途部材
  6
Continuous
100
AcDbLine
 10
10.823773
 20
-60.87628
 30
0.0
 11
10.823773
 21
-70.209613
 31
0.0
  0
LINE
  5
133
330
77
100
AcDbEntity
  8
別途部材
  6
Continuous
100
AcDbLine
 10
12.823773
 20
-61.87628
 30
0.0
 11
12.823773
 21
-70.209613
 31
0.0
  0
LINE
  5
134
330
77
100
AcDbEntity
  8
別途部材
  6
Continuous
100
AcDbLine
 10
13.823773
 20
-61.87628
 30
0.0
 11
13.823773
 21
-70.209613
 31
0.0
  0
LINE
  5
135
330
77
100
AcDbEntity
  8
別途部材
  6
Continuous
100
AcDbLine
 10
11.823773
 20
-60.87628
 30
0.0
 11
11.823773
 21
-70.209613
 31
0.0
  0
LINE
  5
136
330
77
100
AcDbEntity
  8
別途部材
  6
Continuous
100
AcDbLine
 10
9.823772999999999
 20
-61.87628
 30
0.0
 11
9.823772999999999
 21
-70.209613
 31
0.0
  0
LINE
  5
137
330
77
100
AcDbEntity
  8
別途部材
  6
Continuous
100
AcDbLine
 10
7.823773
 20
-60.87628
 30
0.0
 11
7.823773
 21
-70.209613
 31
0.0
  0
LINE
  5
138
330
77
100
AcDbEntity
  8
別途部材
  6
Continuous
100
AcDbLine
 10
6.823773
 20
-60.87628
 30
0.0
 11
6.823773
 21
-70.209613
 31
0.0
  0
LINE
  5
139
330
77
100
AcDbEntity
  8
別途部材
  6
Continuous
100
AcDbLine
 10
4.823773
 20
-61.87628
 30
0.0
 11
4.823773
 21
-70.209613
 31
0.0
  0
LINE
  5
13A
330
77
100
AcDbEntity
  8
別途部材
  6
Continuous
100
AcDbLine
 10
5.823773
 20
-61.87628
 30
0.0
 11
5.823773
 21
-70.209613
 31
0.0
  0
LINE
  5
13B
330
77
100
AcDbEntity
  8
別途部材
  6
Continuous
100
AcDbLine
 10
8.823772999999999
 20
-61.87628
 30
0.0
 11
8.823772999999999
 21
-70.209613
 31
0.0
  0
LINE
  5
13C
330
77
100
AcDbEntity
  8
別途部材
  6
Continuous
100
AcDbLine
 10
3.823773
 20
-60.87628
 30
0.0
 11
3.823773
 21
-70.209613
 31
0.0
  0
LINE
  5
13D
330
77
100
AcDbEntity
  8
別途部材
  6
Continuous
100
AcDbLine
 10
1.823773
 20
-61.87628
 30
0.0
 11
1.823773
 21
-70.209613
 31
0.0
  0
LINE
  5
13E
330
77
100
AcDbEntity
  8
別途部材
  6
Continuous
100
AcDbLine
 10
2.823773
 20
-60.87628
 30
0.0
 11
2.823773
 21
-70.209613
 31
0.0
  0
LINE
  5
13F
330
77
100
AcDbEntity
  8
別途部材
  6
Continuous
100
AcDbLine
 10
0.823773
 20
-61.87628
 30
0.0
 11
0.823773
 21
-70.209613
 31
0.0
  0
LINE
  5
140
330
77
100
AcDbEntity
  8
別途部材
  6
Continuous
100
AcDbLine
 10
-0.176228
 20
-60.87628
 30
0.0
 11
-0.176228
 21
-70.209613
 31
0.0
  0
LINE
  5
141
330
77
100
AcDbEntity
  8
別途部材
  6
Continuous
100
AcDbLine
 10
-2.176228
 20
-61.87628
 30
0.0
 11
-2.176228
 21
-70.209613
 31
0.0
  0
LINE
  5
142
330
77
100
AcDbEntity
  8
別途部材
  6
Continuous
100
AcDbLine
 10
-1.176228
 20
-60.87628
 30
0.0
 11
-1.176228
 21
-70.209613
 31
0.0
  0
LINE
  5
143
330
77
100
AcDbEntity
  8
別途部材
  6
Continuous
100
AcDbLine
 10
-3.176228
 20
-61.87628
 30
0.0
 11
-3.176228
 21
-70.209613
 31
0.0
  0
LINE
  5
144
330
77
100
AcDbEntity
  8
別途部材
  6
Continuous
100
AcDbLine
 10
-4.176228
 20
-60.87628
 30
0.0
 11
-4.176228
 21
-70.209613
 31
0.0
  0
LINE
  5
145
330
77
100
AcDbEntity
  8
別途部材
  6
Continuous
100
AcDbLine
 10
-6.176228
 20
-61.87628
 30
0.0
 11
-6.176228
 21
-70.209613
 31
0.0
  0
LINE
  5
146
330
77
100
AcDbEntity
  8
別途部材
  6
Continuous
100
AcDbLine
 10
-5.176228
 20
-60.87628
 30
0.0
 11
-5.176228
 21
-70.209613
 31
0.0
  0
LINE
  5
147
330
77
100
AcDbEntity
  8
別途部材
  6
Continuous
100
AcDbLine
 10
-7.176228
 20
-61.87628
 30
0.0
 11
-7.176228
 21
-70.209613
 31
0.0
  0
LINE
  5
148
330
77
100
AcDbEntity
  8
別途部材
  6
Continuous
100
AcDbLine
 10
-8.176228
 20
-60.87628
 30
0.0
 11
-8.176228
 21
-70.209613
 31
0.0
  0
LINE
  5
149
330
77
100
AcDbEntity
  8
別途部材
  6
Continuous
100
AcDbLine
 10
40.823773
 20
-61.87628
 30
0.0
 11
42.990438
 21
-61.87628
 31
0.0
  0
ENDBLK
  5
14A
330
77
100
AcDbEntity
  8
0
100
AcDbBlockEnd
  0
BLOCK
  5
14B
330
14C
100
AcDbEntity
  8
0
100
AcDbBlockBegin
  2
*U4
 70
     1
 71
     0
 10
0.0
 20
0.0
 30
0.0
  3
*U4
  1

  0
LINE
  5
14D
330
14C
100
AcDbEntity
  8
寸法
  6
ByBlock
 62
     0
100
AcDbLine
 10
139.19037
 20
38.814033
 30
0.0
 11
139.19037
 21
68.369967
 31
0.0
  0
LINE
  5
14E
330
14C
100
AcDbEntity
  8
寸法
  6
ByBlock
 62
     0
100
AcDbLine
 10
147.523703
 20
68.369967
 30
0.0
 11
139.19037
 21
68.369967
 31
0.0
  0
POINT
  5
14F
330
14C
100
AcDbEntity
  8
寸法
 62
     0
100
AcDbPoint
 10
147.523703
 20
68.369967
 30
0.0
  0
POINT
  5
150
330
14C
100
AcDbEntity
  8
寸法
 62
     0
100
AcDbPoint
 10
139.19037
 20
68.369967
 30
0.0
  0
TEXT
  5
151
330
14C
100
AcDbEntity
  8
寸法
  6
Continuous
 62
     0
100
AcDbText
 10
140.9125
 20
68.72499999999999
 30
0.0
 40
3.0
  1
250
  7
TextStyle03
 72
     5
 11
145.7875
 21
68.72499999999999
 31
0.0
100
AcDbText
  0
ENDBLK
  5
152
330
14C
100
AcDbEntity
  8
0
100
AcDbBlockEnd
  0
BLOCK
  5
153
330
154
100
AcDbEntity
  8
0
100
AcDbBlockBegin
  2
*U5
 70
     1
 71
     0
 10
0.0
 20
0.0
 30
0.0
  3
*U5
  1

  0
LINE
  5
155
330
154
100
AcDbEntity
  8
寸法
  6
ByBlock
 62
     0
100
AcDbLine
 10
92.010088
 20
22.814033
 30
0.0
 11
92.010088
 21
52.814033
 31
0.0
  0
POINT
  5
156
330
154
100
AcDbEntity
  8
寸法
 62
     0
100
AcDbPoint
 10
92.010088
 20
22.814033
 30
0.0
  0
POINT
  5
157
330
154
100
AcDbEntity
  8
寸法
 62
     0
100
AcDbPoint
 10
92.010088
 20
52.814033
 30
0.0
  0
TEXT
  5
158
330
154
100
AcDbEntity
  8
寸法
  6
Continuous
 62
     0
100
AcDbText
 10
91.65000000000001
 20
26.9
 30
0.0
 40
3.0
  1
呼称寸法　900
 50
90.0
  7
TextStyle03
 72
     5
 11
91.65000000000001
 21
48.65
 31
0.0
100
AcDbText
  0
ENDBLK
  5
159
330
154
100
AcDbEntity
  8
0
100
AcDbBlockEnd
  0
BLOCK
  5
15A
330
15B
100
AcDbEntity
  8
0
100
AcDbBlockBegin
  2
*U6
 70
     1
 71
     0
 10
0.0
 20
0.0
 30
0.0
  3
*U6
  1

  0
LINE
  5
15C
330
15B
100
AcDbEntity
  8
寸法
  6
ByBlock
 62
     0
100
AcDbLine
 10
147.523703
 20
57.4807
 30
0.0
 11
147.523703
 21
68.369967
 31
0.0
  0
LINE
  5
15D
330
15B
100
AcDbEntity
  8
寸法
  6
ByBlock
 62
     0
100
AcDbLine
 10
151.357275
 20
59.147367
 30
0.0
 11
151.357275
 21
68.369967
 31
0.0
  0
LINE
  5
15E
330
15B
100
AcDbEntity
  8
寸法
  6
ByBlock
 62
     0
100
AcDbLine
 10
147.523703
 20
68.369967
 30
0.0
 11
151.357275
 21
68.369967
 31
0.0
  0
POINT
  5
15F
330
15B
100
AcDbEntity
  8
寸法
 62
     0
100
AcDbPoint
 10
147.523703
 20
68.369967
 30
0.0
  0
POINT
  5
160
330
15B
100
AcDbEntity
  8
寸法
 62
     0
100
AcDbPoint
 10
151.357275
 20
68.369967
 30
0.0
  0
TEXT
  5
161
330
15B
100
AcDbEntity
  8
寸法
  6
Continuous
 62
     0
100
AcDbText
 10
152.0125
 20
68.72499999999999
 30
0.0
 40
3.0
  1
115
  7
TextStyle03
 72
     5
 11
156.8875
 21
68.72499999999999
 31
0.0
100
AcDbText
  0
ENDBLK
  5
162
330
15B
100
AcDbEntity
  8
0
100
AcDbBlockEnd
  0
BLOCK
  5
163
330
164
100
AcDbEntity
  8
0
100
AcDbBlockBegin
  2
*U7
 70
     1
 71
     0
 10
0.0
 20
0.0
 30
0.0
  3
*U7
  1

  0
LINE
  5
165
330
164
100
AcDbEntity
  8
寸法
  6
ByBlock
 62
     0
100
AcDbLine
 10
43.990438
 20
-61.87628
 30
0.0
 11
73.960088
 21
-61.87628
 31
0.0
  0
LINE
  5
166
330
164
100
AcDbEntity
  8
寸法
  6
ByBlock
 62
     0
100
AcDbLine
 10
73.960088
 20
-70.209613
 30
0.0
 11
73.960088
 21
-61.87628
 31
0.0
  0
POINT
  5
167
330
164
100
AcDbEntity
  8
寸法
 62
     0
100
AcDbPoint
 10
73.960088
 20
-70.209613
 30
0.0
  0
POINT
  5
168
330
164
100
AcDbEntity
  8
寸法
 62
     0
100
AcDbPoint
 10
73.960088
 20
-61.87628
 30
0.0
  0
TEXT
  5
169
330
164
100
AcDbEntity
  8
寸法
  6
Continuous
 62
     0
100
AcDbText
 10
73.59999999999999
 20
-68.5125
 30
0.0
 40
3.0
  1
250
 50
90.0
  7
TextStyle03
 72
     5
 11
73.59999999999999
 21
-63.6375
 31
0.0
100
AcDbText
  0
ENDBLK
  5
16A
330
164
100
AcDbEntity
  8
0
100
AcDbBlockEnd
  0
BLOCK
  5
16B
330
16C
100
AcDbEntity
  8
0
100
AcDbBlockBegin
  2
*U8
 70
     1
 71
     0
 10
0.0
 20
0.0
 30
0.0
  3
*U8
  1

  0
LINE
  5
16D
330
16C
100
AcDbEntity
  8
寸法
  6
ByBlock
 62
     0
100
AcDbLine
 10
62.657105
 20
-70.209613
 30
0.0
 11
73.960088
 21
-70.209613
 31
0.0
  0
LINE
  5
16E
330
16C
100
AcDbEntity
  8
寸法
  6
ByBlock
 62
     0
100
AcDbLine
 10
64.323773
 20
-74.04318499999999
 30
0.0
 11
73.960088
 21
-74.04318499999999
 31
0.0
  0
LINE
  5
16F
330
16C
100
AcDbEntity
  8
寸法
  6
ByBlock
 62
     0
100
AcDbLine
 10
73.960088
 20
-70.209613
 30
0.0
 11
73.960088
 21
-74.04318499999999
 31
0.0
  0
POINT
  5
170
330
16C
100
AcDbEntity
  8
寸法
 62
     0
100
AcDbPoint
 10
73.960088
 20
-70.209613
 30
0.0
  0
POINT
  5
171
330
16C
100
AcDbEntity
  8
寸法
 62
     0
100
AcDbPoint
 10
73.960088
 20
-74.04318499999999
 30
0.0
  0
TEXT
  5
172
330
16C
100
AcDbEntity
  8
寸法
  6
Continuous
 62
     0
100
AcDbText
 10
73.52500000000001
 20
-79.6375
 30
0.0
 40
3.0
  1
115
 50
90.0
  7
TextStyle03
 72
     5
 11
73.52500000000001
 21
-74.7625
 31
0.0
100
AcDbText
  0
ENDBLK
  5
173
330
16C
100
AcDbEntity
  8
0
100
AcDbBlockEnd
  0
BLOCK
  5
174
330
175
100
AcDbEntity
  8
0
100
AcDbBlockBegin
  2
*U9
 70
     1
 71
     0
 10
0.0
 20
0.0
 30
0.0
  3
*U9
  1

  0
LINE
  5
176
330
175
100
AcDbEntity
  8
寸法
  6
ByBlock
 62
     0
100
AcDbLine
 10
-78.342895
 20
47.814033
 30
0.0
 11
-91.635732
 21
47.814033
 31
0.0
  0
LINE
  5
177
330
175
100
AcDbEntity
  8
寸法
  6
ByBlock
 62
     0
100
AcDbLine
 10
-78.342895
 20
27.814033
 30
0.0
 11
-91.635732
 21
27.814033
 31
0.0
  0
LINE
  5
178
330
175
100
AcDbEntity
  8
寸法
  6
ByBlock
 62
     0
100
AcDbLine
 10
-91.635732
 20
47.814033
 30
0.0
 11
-91.635732
 21
27.814033
 31
0.0
  0
POINT
  5
179
330
175
100
AcDbEntity
  8
寸法
 62
     0
100
AcDbPoint
 10
-91.635732
 20
47.814033
 30
0.0
  0
POINT
  5
17A
330
175
100
AcDbEntity
  8
寸法
 62
     0
100
AcDbPoint
 10
-91.635732
 20
27.814033
 30
0.0
  0
TEXT
  5
17B
330
175
100
AcDbEntity
  8
寸法
  6
Continuous
 62
     0
100
AcDbText
 10
-92.02500000000001
 20
35.3625
 30
0.0
 40
3.0
  1
600
 50
90.0
  7
TextStyle03
 72
     5
 11
-92.02500000000001
 21
40.2375
 31
0.0
100
AcDbText
  0
ENDBLK
  5
17C
330
175
100
AcDbEntity
  8
0
100
AcDbBlockEnd
  0
BLOCK
  5
17D
330
17E
100
AcDbEntity
  8
0
100
AcDbBlockBegin
  2
*U10
 70
     1
 71
     0
 10
0.0
 20
0.0
 30
0.0
  3
*U10
  1

  0
LINE
  5
17F
330
17E
100
AcDbEntity
  8
寸法
  6
ByBlock
 62
     0
100
AcDbLine
 10
-67.009562
 20
55.814033
 30
0.0
 11
-67.009562
 21
84.922105
 31
0.0
  0
LINE
  5
180
330
17E
100
AcDbEntity
  8
寸法
  6
ByBlock
 62
     0
100
AcDbLine
 10
-43.67623
 20
55.814033
 30
0.0
 11
-43.67623
 21
84.922105
 31
0.0
  0
LINE
  5
181
330
17E
100
AcDbEntity
  8
寸法
  6
ByBlock
 62
     0
100
AcDbLine
 10
-67.009562
 20
84.922105
 30
0.0
 11
-43.67623
 21
84.922105
 31
0.0
  0
POINT
  5
182
330
17E
100
AcDbEntity
  8
寸法
 62
     0
100
AcDbPoint
 10
-67.009562
 20
84.922105
 30
0.0
  0
POINT
  5
183
330
17E
100
AcDbEntity
  8
寸法
 62
     0
100
AcDbPoint
 10
-43.67623
 20
84.922105
 30
0.0
  0
TEXT
  5
184
330
17E
100
AcDbEntity
  8
寸法
  6
Continuous
 62
     0
100
AcDbText
 10
-57.7875
 20
85.27500000000001
 30
0.0
 40
3.0
  1
700
  7
TextStyle03
 72
     5
 11
-52.9125
 21
85.27500000000001
 31
0.0
100
AcDbText
  0
ENDBLK
  5
185
330
17E
100
AcDbEntity
  8
0
100
AcDbBlockEnd
  0
BLOCK
  5
186
330
187
100
AcDbEntity
  8
0
100
AcDbBlockBegin
  2
*U11
 70
     1
 71
     0
 10
0.0
 20
0.0
 30
0.0
  3
*U11
  1

  0
LINE
  5
188
330
187
100
AcDbEntity
  8
寸法
  6
ByBlock
 62
     0
100
AcDbLine
 10
-20.342897
 20
55.814033
 30
0.0
 11
-20.342897
 21
84.922105
 31
0.0
  0
LINE
  5
189
330
187
100
AcDbEntity
  8
寸法
  6
ByBlock
 62
     0
100
AcDbLine
 10
-43.67623
 20
84.922105
 30
0.0
 11
-20.342897
 21
84.922105
 31
0.0
  0
POINT
  5
18A
330
187
100
AcDbEntity
  8
寸法
 62
     0
100
AcDbPoint
 10
-20.342897
 20
84.922105
 30
0.0
  0
TEXT
  5
18B
330
187
100
AcDbEntity
  8
寸法
  6
Continuous
 62
     0
100
AcDbText
 10
-34.4625
 20
85.27500000000001
 30
0.0
 40
3.0
  1
700
  7
TextStyle03
 72
     5
 11
-29.5875
 21
85.27500000000001
 31
0.0
100
AcDbText
  0
ENDBLK
  5
18C
330
187
100
AcDbEntity
  8
0
100
AcDbBlockEnd
  0
BLOCK
  5
18D
330
18E
100
AcDbEntity
  8
0
100
AcDbBlockBegin
  2
*U12
 70
     1
 71
     0
 10
0.0
 20
0.0
 30
0.0
  3
*U12
  1

  0
LINE
  5
18F
330
18E
100
AcDbEntity
  8
寸法
  6
ByBlock
 62
     0
100
AcDbLine
 10
2.990438
 20
55.814033
 30
0.0
 11
2.990438
 21
84.922105
 31
0.0
  0
LINE
  5
190
330
18E
100
AcDbEntity
  8
寸法
  6
ByBlock
 62
     0
100
AcDbLine
 10
-20.342897
 20
84.922105
 30
0.0
 11
2.990438
 21
84.922105
 31
0.0
  0
POINT
  5
191
330
18E
100
AcDbEntity
  8
寸法
 62
     0
100
AcDbPoint
 10
2.990438
 20
84.922105
 30
0.0
  0
TEXT
  5
192
330
18E
100
AcDbEntity
  8
寸法
  6
Continuous
 62
     0
100
AcDbText
 10
-11.1375
 20
85.27500000000001
 30
0.0
 40
3.0
  1
700
  7
TextStyle03
 72
     5
 11
-6.2625
 21
85.27500000000001
 31
0.0
100
AcDbText
  0
ENDBLK
  5
193
330
18E
100
AcDbEntity
  8
0
100
AcDbBlockEnd
  0
BLOCK
  5
194
330
195
100
AcDbEntity
  8
0
100
AcDbBlockBegin
  2
*U13
 70
     1
 71
     0
 10
0.0
 20
0.0
 30
0.0
  3
*U13
  1

  0
LINE
  5
196
330
195
100
AcDbEntity
  8
寸法
  6
ByBlock
 62
     0
100
AcDbLine
 10
26.32377
 20
55.814033
 30
0.0
 11
26.32377
 21
84.922105
 31
0.0
  0
LINE
  5
197
330
195
100
AcDbEntity
  8
寸法
  6
ByBlock
 62
     0
100
AcDbLine
 10
2.990438
 20
84.922105
 30
0.0
 11
26.32377
 21
84.922105
 31
0.0
  0
POINT
  5
198
330
195
100
AcDbEntity
  8
寸法
 62
     0
100
AcDbPoint
 10
26.32377
 20
84.922105
 30
0.0
  0
TEXT
  5
199
330
195
100
AcDbEntity
  8
寸法
  6
Continuous
 62
     0
100
AcDbText
 10
12.2125
 20
85.27500000000001
 30
0.0
 40
3.0
  1
700
  7
TextStyle03
 72
     5
 11
17.0875
 21
85.27500000000001
 31
0.0
100
AcDbText
  0
ENDBLK
  5
19A
330
195
100
AcDbEntity
  8
0
100
AcDbBlockEnd
  0
BLOCK
  5
19B
330
19C
100
AcDbEntity
  8
0
100
AcDbBlockBegin
  2
*U14
 70
     1
 71
     0
 10
0.0
 20
0.0
 30
0.0
  3
*U14
  1

  0
LINE
  5
19D
330
19C
100
AcDbEntity
  8
寸法
  6
ByBlock
 62
     0
100
AcDbLine
 10
49.657102
 20
55.814033
 30
0.0
 11
49.657102
 21
84.922105
 31
0.0
  0
LINE
  5
19E
330
19C
100
AcDbEntity
  8
寸法
  6
ByBlock
 62
     0
100
AcDbLine
 10
26.32377
 20
84.922105
 30
0.0
 11
49.657102
 21
84.922105
 31
0.0
  0
POINT
  5
19F
330
19C
100
AcDbEntity
  8
寸法
 62
     0
100
AcDbPoint
 10
49.657102
 20
84.922105
 30
0.0
  0
TEXT
  5
1A0
330
19C
100
AcDbEntity
  8
寸法
  6
Continuous
 62
     0
100
AcDbText
 10
35.5375
 20
85.27500000000001
 30
0.0
 40
3.0
  1
700
  7
TextStyle03
 72
     5
 11
40.4125
 21
85.27500000000001
 31
0.0
100
AcDbText
  0
ENDBLK
  5
1A1
330
19C
100
AcDbEntity
  8
0
100
AcDbBlockEnd
  0
BLOCK
  5
1A2
330
1A3
100
AcDbEntity
  8
0
100
AcDbBlockBegin
  2
*U15
 70
     1
 71
     0
 10
0.0
 20
0.0
 30
0.0
  3
*U15
  1

  0
LINE
  5
1A4
330
1A3
100
AcDbEntity
  8
寸法
  6
ByBlock
 62
     0
100
AcDbLine
 10
147.857275
 20
55.9807
 30
0.0
 11
92.010088
 21
55.9807
 31
0.0
  0
LINE
  5
1A5
330
1A3
100
AcDbEntity
  8
寸法
  6
ByBlock
 62
     0
100
AcDbLine
 10
92.010088
 20
52.814033
 30
0.0
 11
92.010088
 21
55.9807
 31
0.0
  0
POINT
  5
1A6
330
1A3
100
AcDbEntity
  8
寸法
 62
     0
100
AcDbPoint
 10
92.010088
 20
52.814033
 30
0.0
  0
POINT
  5
1A7
330
1A3
100
AcDbEntity
  8
寸法
 62
     0
100
AcDbPoint
 10
92.010088
 20
55.9807
 30
0.0
  0
TEXT
  5
1A8
330
1A3
100
AcDbEntity
  8
寸法
  6
Continuous
 62
     0
100
AcDbText
 10
91.625
 20
52.78125
 30
0.0
 40
3.0
  1
95
 50
90.0
  7
TextStyle03
 72
     5
 11
91.625
 21
55.96875
 31
0.0
100
AcDbText
  0
ENDBLK
  5
1A9
330
1A3
100
AcDbEntity
  8
0
100
AcDbBlockEnd
  0
BLOCK
  5
1AA
330
1AB
100
AcDbEntity
  8
0
100
AcDbBlockBegin
  2
*U16
 70
     1
 71
     0
 10
0.0
 20
0.0
 30
0.0
  3
*U16
  1

  0
LINE
  5
1AC
330
1AB
100
AcDbEntity
  8
寸法
  6
ByBlock
 62
     0
100
AcDbLine
 10
147.857275
 20
19.647365
 30
0.0
 11
92.010088
 21
19.647365
 31
0.0
  0
LINE
  5
1AD
330
1AB
100
AcDbEntity
  8
寸法
  6
ByBlock
 62
     0
100
AcDbLine
 10
92.010088
 20
22.814033
 30
0.0
 11
92.010088
 21
19.647365
 31
0.0
  0
POINT
  5
1AE
330
1AB
100
AcDbEntity
  8
寸法
 62
     0
100
AcDbPoint
 10
92.010088
 20
22.814033
 30
0.0
  0
POINT
  5
1AF
330
1AB
100
AcDbEntity
  8
寸法
 62
     0
100
AcDbPoint
 10
92.010088
 20
19.647365
 30
0.0
  0
TEXT
  5
1B0
330
1AB
100
AcDbEntity
  8
寸法
  6
Continuous
 62
     0
100
AcDbText
 10
91.625
 20
19.63125
 30
0.0
 40
3.0
  1
95
 50
90.0
  7
TextStyle03
 72
     5
 11
91.625
 21
22.81875
 31
0.0
100
AcDbText
  0
ENDBLK
  5
1B1
330
1AB
100
AcDbEntity
  8
0
100
AcDbBlockEnd
  0
BLOCK
  5
1B2
330
1B3
100
AcDbEntity
  8
0
100
AcDbBlockBegin
  2
*U17
 70
     1
 71
     0
 10
0.0
 20
0.0
 30
0.0
  3
*U17
  1

  0
LINE
  5
1B4
330
1B3
100
AcDbEntity
  8
寸法
  6
ByBlock
 62
     0
100
AcDbLine
 10
61.157105
 20
-70.54318499999999
 30
0.0
 11
61.157105
 21
-13.121378
 31
0.0
  0
LINE
  5
1B5
330
1B3
100
AcDbEntity
  8
寸法
  6
ByBlock
 62
     0
100
AcDbLine
 10
57.990438
 20
-13.121378
 30
0.0
 11
61.157105
 21
-13.121378
 31
0.0
  0
POINT
  5
1B6
330
1B3
100
AcDbEntity
  8
寸法
 62
     0
100
AcDbPoint
 10
57.990438
 20
-13.121378
 30
0.0
  0
POINT
  5
1B7
330
1B3
100
AcDbEntity
  8
寸法
 62
     0
100
AcDbPoint
 10
61.157105
 20
-13.121378
 30
0.0
  0
TEXT
  5
1B8
330
1B3
100
AcDbEntity
  8
寸法
  6
Continuous
 62
     0
100
AcDbText
 10
57.95625
 20
-12.75
 30
0.0
 40
3.0
  1
95
  7
TextStyle03
 72
     5
 11
61.14375
 21
-12.75
 31
0.0
100
AcDbText
  0
ENDBLK
  5
1B9
330
1B3
100
AcDbEntity
  8
0
100
AcDbBlockEnd
  0
BLOCK
  5
1BA
330
1BB
100
AcDbEntity
  8
0
100
AcDbBlockBegin
  2
*U18
 70
     1
 71
     0
 10
0.0
 20
0.0
 30
0.0
  3
*U18
  1

  0
LINE
  5
1BC
330
1BB
100
AcDbEntity
  8
寸法
  6
ByBlock
 62
     0
100
AcDbLine
 10
158.537835
 20
-49.533713
 30
0.0
 11
165.427108
 21
-49.533713
 31
0.0
  0
LINE
  5
1BD
330
1BB
100
AcDbEntity
  8
寸法
  6
ByBlock
 62
     0
100
AcDbLine
 10
158.537835
 20
-79.20038
 30
0.0
 11
165.427108
 21
-79.20038
 31
0.0
  0
LINE
  5
1BE
330
1BB
100
AcDbEntity
  8
寸法
  6
ByBlock
 62
     0
100
AcDbLine
 10
165.427108
 20
-49.533713
 30
0.0
 11
165.427108
 21
-79.20038
 31
0.0
  0
POINT
  5
1BF
330
1BB
100
AcDbEntity
  8
寸法
 62
     0
100
AcDbPoint
 10
165.427108
 20
-49.533713
 30
0.0
  0
POINT
  5
1C0
330
1BB
100
AcDbEntity
  8
寸法
 62
     0
100
AcDbPoint
 10
165.427108
 20
-79.20038
 30
0.0
  0
TEXT
  5
1C1
330
1BB
100
AcDbEntity
  8
寸法
  6
Continuous
 62
     0
100
AcDbText
 10
165.05
 20
-67.625
 30
0.0
 40
4.0
  1
890
 50
90.0
  7
TextStyle03
 72
     5
 11
165.05
 21
-61.125
 31
0.0
100
AcDbText
  0
ENDBLK
  5
1C2
330
1BB
100
AcDbEntity
  8
0
100
AcDbBlockEnd
  0
BLOCK
  5
1C3
330
1C4
100
AcDbEntity
  8
0
100
AcDbBlockBegin
  2
*U19
 70
     1
 71
     0
 10
0.0
 20
0.0
 30
0.0
  3
*U19
  1

  0
LINE
  5
1C5
330
1C4
100
AcDbEntity
  8
寸法
  6
ByBlock
 62
     0
100
AcDbLine
 10
123.087835
 20
-46.533713
 30
0.0
 11
123.087835
 21
-41.534832
 31
0.0
  0
LINE
  5
1C6
330
1C4
100
AcDbEntity
  8
寸法
  6
ByBlock
 62
     0
100
AcDbLine
 10
155.537835
 20
-46.533713
 30
0.0
 11
155.537835
 21
-41.534832
 31
0.0
  0
LINE
  5
1C7
330
1C4
100
AcDbEntity
  8
寸法
  6
ByBlock
 62
     0
100
AcDbLine
 10
123.087835
 20
-41.534832
 30
0.0
 11
155.537835
 21
-41.534832
 31
0.0
  0
POINT
  5
1C8
330
1C4
100
AcDbEntity
  8
寸法
 62
     0
100
AcDbPoint
 10
123.087835
 20
-41.534832
 30
0.0
  0
POINT
  5
1C9
330
1C4
100
AcDbEntity
  8
寸法
 62
     0
100
AcDbPoint
 10
155.537835
 20
-41.534832
 30
0.0
  0
TEXT
  5
1CA
330
1C4
100
AcDbEntity
  8
寸法
  6
Continuous
 62
     0
100
AcDbText
 10
133.8
 20
-41.175
 30
0.0
 40
4.0
  1
973.5
  7
TextStyle03
 72
     5
 11
144.8
 21
-41.175
 31
0.0
100
AcDbText
  0
ENDBLK
  5
1CB
330
1C4
100
AcDbEntity
  8
0
100
AcDbBlockEnd
  0
BLOCK
  5
1CC
330
1CD
100
AcDbEntity
  8
0
100
AcDbBlockBegin
  2
*U20
 70
     1
 71
     0
 10
0.0
 20
0.0
 30
0.0
  3
*U20
  1

  0
LINE
  5
1CE
330
1CD
100
AcDbEntity
  8
寸法
  6
ByBlock
 62
     0
100
AcDbLine
 10
-78.509565
 20
-70.153358
 30
0.0
 11
-78.509565
 21
-13.121378
 31
0.0
  0
LINE
  5
1CF
330
1CD
100
AcDbEntity
  8
寸法
  6
ByBlock
 62
     0
100
AcDbLine
 10
-75.342895
 20
-13.121378
 30
0.0
 11
-78.509565
 21
-13.121378
 31
0.0
  0
POINT
  5
1D0
330
1CD
100
AcDbEntity
  8
寸法
 62
     0
100
AcDbPoint
 10
-75.342895
 20
-13.121378
 30
0.0
  0
POINT
  5
1D1
330
1CD
100
AcDbEntity
  8
寸法
 62
     0
100
AcDbPoint
 10
-78.509565
 20
-13.121378
 30
0.0
  0
TEXT
  5
1D2
330
1CD
100
AcDbEntity
  8
寸法
  6
Continuous
 62
     0
100
AcDbText
 10
-78.54375
 20
-12.775
 30
0.0
 40
3.0
  1
95
  7
TextStyle03
 72
     5
 11
-75.35625
 21
-12.775
 31
0.0
100
AcDbText
  0
ENDBLK
  5
1D3
330
1CD
100
AcDbEntity
  8
0
100
AcDbBlockEnd
  0
BLOCK
  5
1D4
330
1D5
100
AcDbEntity
  8
0
100
AcDbBlockBegin
  2
*U21
 70
     1
 71
     0
 10
0.0
 20
0.0
 30
0.0
  3
*U21
  1

  0
LINE
  5
1D6
330
1D5
100
AcDbEntity
  8
ボルト／ビス
  6
Continuous
100
AcDbLine
 10
-76.009565
 20
-70.209613
 30
0.0
 11
-76.009565
 21
-69.742947
 31
0.0
  0
LINE
  5
1D7
330
1D5
100
AcDbEntity
  8
ボルト／ビス
  6
Continuous
100
AcDbLine
 10
-76.37623000000001
 20
-70.209613
 30
0.0
 11
-76.37623000000001
 21
-70.14294700000001
 31
0.0
  0
LINE
  5
1D8
330
1D5
100
AcDbEntity
  8
ボルト／ビス
  6
Continuous
100
AcDbLine
 10
-76.37623000000001
 20
-70.14294700000001
 30
0.0
 11
-75.64289700000001
 21
-70.14294700000001
 31
0.0
  0
LINE
  5
1D9
330
1D5
100
AcDbEntity
  8
ボルト／ビス
  6
Continuous
100
AcDbLine
 10
-75.64289700000001
 20
-70.14294700000001
 30
0.0
 11
-75.64289700000001
 21
-70.209613
 31
0.0
  0
LINE
  5
1DA
330
1D5
100
AcDbEntity
  8
ボルト／ビス
  6
Continuous
100
AcDbLine
 10
-76.37623000000001
 20
-70.209613
 30
0.0
 11
-75.64289700000001
 21
-70.209613
 31
0.0
  0
LINE
  5
1DB
330
1D5
100
AcDbEntity
  8
ボルト／ビス
  6
Continuous
100
AcDbLine
 10
-76.30956500000001
 20
-70.109612
 30
0.0
 11
-76.30956500000001
 21
-70.14294700000001
 31
0.0
  0
LINE
  5
1DC
330
1D5
100
AcDbEntity
  8
ボルト／ビス
  6
Continuous
100
AcDbLine
 10
-76.30956500000001
 20
-70.109612
 30
0.0
 11
-75.709565
 21
-70.109612
 31
0.0
  0
LINE
  5
1DD
330
1D5
100
AcDbEntity
  8
ボルト／ビス
  6
Continuous
100
AcDbLine
 10
-75.709565
 20
-70.109612
 30
0.0
 11
-75.709565
 21
-70.14294700000001
 31
0.0
  0
LINE
  5
1DE
330
1D5
100
AcDbEntity
  8
ボルト／ビス
  6
Continuous
 62
    64
100
AcDbLine
 10
-76.16994
 20
-69.90961299999999
 30
0.0
 11
-76.202015
 21
-69.921288
 31
0.0
  0
ARC
  5
1DF
330
1D5
100
AcDbEntity
  8
ボルト／ビス
  6
Continuous
 62
    64
100
AcDbCircle
 10
-76.15390100000001
 20
-70.01459199999999
 30
0.0
 40
0.104978
100
AcDbArc
 50
62.721967
 51
90.0
  0
ARC
  5
1E0
330
1D5
100
AcDbEntity
  8
ボルト／ビス
  6
Continuous
 62
    64
100
AcDbCircle
 10
-76.009563
 20
-70.312015
 30
0.0
 40
0.402402
100
AcDbArc
 50
76.165002
 51
103.834985
  0
LINE
  5
1E1
330
1D5
100
AcDbEntity
  8
ボルト／ビス
  6
Continuous
 62
    64
100
AcDbLine
 10
-75.84918999999999
 20
-69.90961299999999
 30
0.0
 11
-75.817115
 21
-69.921288
 31
0.0
  0
ARC
  5
1E2
330
1D5
100
AcDbEntity
  8
ボルト／ビス
  6
Continuous
 62
    64
100
AcDbCircle
 10
-75.865225
 20
-70.01459199999999
 30
0.0
 40
0.104978
100
AcDbArc
 50
90.0
 51
117.278033
  0
LINE
  5
1E3
330
1D5
100
AcDbEntity
  8
ボルト／ビス
  6
Continuous
 62
    64
100
AcDbLine
 10
-76.16994
 20
-69.90961299999999
 30
0.0
 11
-75.84918999999999
 21
-69.90961299999999
 31
0.0
  0
LINE
  5
1E4
330
1D5
100
AcDbEntity
  8
ボルト／ビス
  6
Continuous
 62
    64
100
AcDbLine
 10
-75.817115
 20
-69.921288
 30
0.0
 11
-75.817115
 21
-70.042947
 31
0.0
  0
LINE
  5
1E5
330
1D5
100
AcDbEntity
  8
ボルト／ビス
  6
Continuous
 62
    64
100
AcDbLine
 10
-75.91334000000001
 20
-69.921288
 30
0.0
 11
-75.91334000000001
 21
-70.042947
 31
0.0
  0
LINE
  5
1E6
330
1D5
100
AcDbEntity
  8
ボルト／ビス
  6
Continuous
 62
    64
100
AcDbLine
 10
-76.202015
 20
-69.921288
 30
0.0
 11
-76.202015
 21
-70.042947
 31
0.0
  0
LINE
  5
1E7
330
1D5
100
AcDbEntity
  8
ボルト／ビス
  6
Continuous
 62
    64
100
AcDbLine
 10
-76.10579
 20
-69.921288
 30
0.0
 11
-76.10579
 21
-70.042947
 31
0.0
  0
LINE
  5
1E8
330
1D5
100
AcDbEntity
  8
ボルト／ビス
  6
Continuous
100
AcDbLine
 10
-76.202015
 20
-70.042947
 30
0.0
 11
-75.817115
 21
-70.042947
 31
0.0
  0
LINE
  5
1E9
330
1D5
100
AcDbEntity
  8
ボルト／ビス
  6
Continuous
100
AcDbLine
 10
-76.209565
 20
-70.042947
 30
0.0
 11
-76.209565
 21
-70.109612
 31
0.0
  0
LINE
  5
1EA
330
1D5
100
AcDbEntity
  8
ボルト／ビス
  6
Continuous
100
AcDbLine
 10
-76.209565
 20
-70.042947
 30
0.0
 11
-75.80956500000001
 21
-70.042947
 31
0.0
  0
LINE
  5
1EB
330
1D5
100
AcDbEntity
  8
ボルト／ビス
  6
Continuous
100
AcDbLine
 10
-75.80956500000001
 20
-70.042947
 30
0.0
 11
-75.80956500000001
 21
-70.109612
 31
0.0
  0
ENDBLK
  5
1EC
330
1D5
100
AcDbEntity
  8
0
100
AcDbBlockEnd
  0
BLOCK
  5
1ED
330
1EE
100
AcDbEntity
  8
0
100
AcDbBlockBegin
  2
*U22
 70
     1
 71
     0
 10
0.0
 20
0.0
 30
0.0
  3
*U22
  1

  0
LINE
  5
1EF
330
1EE
100
AcDbEntity
  8
ボルト／ビス
  6
Continuous
100
AcDbLine
 10
58.657105
 20
-70.209613
 30
0.0
 11
58.657105
 21
-69.742947
 31
0.0
  0
LINE
  5
1F0
330
1EE
100
AcDbEntity
  8
ボルト／ビス
  6
Continuous
100
AcDbLine
 10
58.29044
 20
-70.209613
 30
0.0
 11
58.29044
 21
-70.14294700000001
 31
0.0
  0
LINE
  5
1F1
330
1EE
100
AcDbEntity
  8
ボルト／ビス
  6
Continuous
100
AcDbLine
 10
58.29044
 20
-70.14294700000001
 30
0.0
 11
59.023773
 21
-70.14294700000001
 31
0.0
  0
LINE
  5
1F2
330
1EE
100
AcDbEntity
  8
ボルト／ビス
  6
Continuous
100
AcDbLine
 10
59.023773
 20
-70.14294700000001
 30
0.0
 11
59.023773
 21
-70.209613
 31
0.0
  0
LINE
  5
1F3
330
1EE
100
AcDbEntity
  8
ボルト／ビス
  6
Continuous
100
AcDbLine
 10
58.29044
 20
-70.209613
 30
0.0
 11
59.023773
 21
-70.209613
 31
0.0
  0
LINE
  5
1F4
330
1EE
100
AcDbEntity
  8
ボルト／ビス
  6
Continuous
100
AcDbLine
 10
58.357105
 20
-70.109612
 30
0.0
 11
58.357105
 21
-70.14294700000001
 31
0.0
  0
LINE
  5
1F5
330
1EE
100
AcDbEntity
  8
ボルト／ビス
  6
Continuous
100
AcDbLine
 10
58.357105
 20
-70.109612
 30
0.0
 11
58.957105
 21
-70.109612
 31
0.0
  0
LINE
  5
1F6
330
1EE
100
AcDbEntity
  8
ボルト／ビス
  6
Continuous
100
AcDbLine
 10
58.957105
 20
-70.109612
 30
0.0
 11
58.957105
 21
-70.14294700000001
 31
0.0
  0
LINE
  5
1F7
330
1EE
100
AcDbEntity
  8
ボルト／ビス
  6
Continuous
 62
    64
100
AcDbLine
 10
58.49673
 20
-69.90961299999999
 30
0.0
 11
58.464655
 21
-69.921288
 31
0.0
  0
ARC
  5
1F8
330
1EE
100
AcDbEntity
  8
ボルト／ビス
  6
Continuous
 62
    64
100
AcDbCircle
 10
58.512769
 20
-70.01459199999999
 30
0.0
 40
0.104978
100
AcDbArc
 50
62.721967
 51
90.0
  0
ARC
  5
1F9
330
1EE
100
AcDbEntity
  8
ボルト／ビス
  6
Continuous
 62
    64
100
AcDbCircle
 10
58.657107
 20
-70.312015
 30
0.0
 40
0.402402
100
AcDbArc
 50
76.165002
 51
103.834985
  0
LINE
  5
1FA
330
1EE
100
AcDbEntity
  8
ボルト／ビス
  6
Continuous
 62
    64
100
AcDbLine
 10
58.81748
 20
-69.90961299999999
 30
0.0
 11
58.849555
 21
-69.921288
 31
0.0
  0
ARC
  5
1FB
330
1EE
100
AcDbEntity
  8
ボルト／ビス
  6
Continuous
 62
    64
100
AcDbCircle
 10
58.801445
 20
-70.01459199999999
 30
0.0
 40
0.104978
100
AcDbArc
 50
90.0
 51
117.278033
  0
LINE
  5
1FC
330
1EE
100
AcDbEntity
  8
ボルト／ビス
  6
Continuous
 62
    64
100
AcDbLine
 10
58.49673
 20
-69.90961299999999
 30
0.0
 11
58.81748
 21
-69.90961299999999
 31
0.0
  0
LINE
  5
1FD
330
1EE
100
AcDbEntity
  8
ボルト／ビス
  6
Continuous
 62
    64
100
AcDbLine
 10
58.849555
 20
-69.921288
 30
0.0
 11
58.849555
 21
-70.042947
 31
0.0
  0
LINE
  5
1FE
330
1EE
100
AcDbEntity
  8
ボルト／ビス
  6
Continuous
 62
    64
100
AcDbLine
 10
58.75333
 20
-69.921288
 30
0.0
 11
58.75333
 21
-70.042947
 31
0.0
  0
LINE
  5
1FF
330
1EE
100
AcDbEntity
  8
ボルト／ビス
  6
Continuous
 62
    64
100
AcDbLine
 10
58.464655
 20
-69.921288
 30
0.0
 11
58.464655
 21
-70.042947
 31
0.0
  0
LINE
  5
200
330
1EE
100
AcDbEntity
  8
ボルト／ビス
  6
Continuous
 62
    64
100
AcDbLine
 10
58.56088
 20
-69.921288
 30
0.0
 11
58.56088
 21
-70.042947
 31
0.0
  0
LINE
  5
201
330
1EE
100
AcDbEntity
  8
ボルト／ビス
  6
Continuous
100
AcDbLine
 10
58.464655
 20
-70.042947
 30
0.0
 11
58.849555
 21
-70.042947
 31
0.0
  0
LINE
  5
202
330
1EE
100
AcDbEntity
  8
ボルト／ビス
  6
Continuous
100
AcDbLine
 10
58.457105
 20
-70.042947
 30
0.0
 11
58.457105
 21
-70.109612
 31
0.0
  0
LINE
  5
203
330
1EE
100
AcDbEntity
  8
ボルト／ビス
  6
Continuous
100
AcDbLine
 10
58.457105
 20
-70.042947
 30
0.0
 11
58.857105
 21
-70.042947
 31
0.0
  0
LINE
  5
204
330
1EE
100
AcDbEntity
  8
ボルト／ビス
  6
Continuous
100
AcDbLine
 10
58.857105
 20
-70.042947
 30
0.0
 11
58.857105
 21
-70.109612
 31
0.0
  0
ENDBLK
  5
205
330
1EE
100
AcDbEntity
  8
0
100
AcDbBlockEnd
  0
BLOCK
  5
206
330
207
100
AcDbEntity
  8
0
100
AcDbBlockBegin
  2
*U23
 70
     1
 71
     0
 10
0.0
 20
0.0
 30
0.0
  3
*U23
  1

  0
LINE
  5
208
330
207
100
AcDbEntity
  8
ボルト／ビス
  6
Continuous
100
AcDbLine
 10
147.523703
 20
22.147365
 30
0.0
 11
147.057037
 21
22.147365
 31
0.0
  0
LINE
  5
209
330
207
100
AcDbEntity
  8
ボルト／ビス
  6
Continuous
100
AcDbLine
 10
147.523703
 20
21.7807
 30
0.0
 11
147.457037
 21
21.7807
 31
0.0
  0
LINE
  5
20A
330
207
100
AcDbEntity
  8
ボルト／ビス
  6
Continuous
100
AcDbLine
 10
147.457037
 20
21.7807
 30
0.0
 11
147.457037
 21
22.514033
 31
0.0
  0
LINE
  5
20B
330
207
100
AcDbEntity
  8
ボルト／ビス
  6
Continuous
100
AcDbLine
 10
147.457037
 20
22.514033
 30
0.0
 11
147.523703
 21
22.514033
 31
0.0
  0
LINE
  5
20C
330
207
100
AcDbEntity
  8
ボルト／ビス
  6
Continuous
100
AcDbLine
 10
147.523703
 20
21.7807
 30
0.0
 11
147.523703
 21
22.514033
 31
0.0
  0
LINE
  5
20D
330
207
100
AcDbEntity
  8
ボルト／ビス
  6
Continuous
100
AcDbLine
 10
147.423703
 20
21.847365
 30
0.0
 11
147.457037
 21
21.847365
 31
0.0
  0
LINE
  5
20E
330
207
100
AcDbEntity
  8
ボルト／ビス
  6
Continuous
100
AcDbLine
 10
147.423703
 20
21.847365
 30
0.0
 11
147.423703
 21
22.447365
 31
0.0
  0
LINE
  5
20F
330
207
100
AcDbEntity
  8
ボルト／ビス
  6
Continuous
100
AcDbLine
 10
147.423703
 20
22.447365
 30
0.0
 11
147.457037
 21
22.447365
 31
0.0
  0
LINE
  5
210
330
207
100
AcDbEntity
  8
ボルト／ビス
  6
Continuous
 62
    64
100
AcDbLine
 10
147.223703
 20
21.98699
 30
0.0
 11
147.235377
 21
21.954915
 31
0.0
  0
ARC
  5
211
330
207
100
AcDbEntity
  8
ボルト／ビス
  6
Continuous
 62
    64
100
AcDbCircle
 10
147.328684
 20
22.003031
 30
0.0
 40
0.104978
100
AcDbArc
 50
152.721967
 51
180.0
  0
ARC
  5
212
330
207
100
AcDbEntity
  8
ボルト／ビス
  6
Continuous
 62
    64
100
AcDbCircle
 10
147.626107
 20
22.147368
 30
0.0
 40
0.402402
100
AcDbArc
 50
166.165002
 51
193.834985
  0
LINE
  5
213
330
207
100
AcDbEntity
  8
ボルト／ビス
  6
Continuous
 62
    64
100
AcDbLine
 10
147.223703
 20
22.30774
 30
0.0
 11
147.235377
 21
22.339815
 31
0.0
  0
ARC
  5
214
330
207
100
AcDbEntity
  8
ボルト／ビス
  6
Continuous
 62
    64
100
AcDbCircle
 10
147.328684
 20
22.291706
 30
0.0
 40
0.104978
100
AcDbArc
 50
180.0
 51
207.278033
  0
LINE
  5
215
330
207
100
AcDbEntity
  8
ボルト／ビス
  6
Continuous
 62
    64
100
AcDbLine
 10
147.223703
 20
21.98699
 30
0.0
 11
147.223703
 21
22.30774
 31
0.0
  0
LINE
  5
216
330
207
100
AcDbEntity
  8
ボルト／ビス
  6
Continuous
 62
    64
100
AcDbLine
 10
147.235377
 20
22.339815
 30
0.0
 11
147.357037
 21
22.339815
 31
0.0
  0
LINE
  5
217
330
207
100
AcDbEntity
  8
ボルト／ビス
  6
Continuous
 62
    64
100
AcDbLine
 10
147.235377
 20
22.24359
 30
0.0
 11
147.357037
 21
22.24359
 31
0.0
  0
LINE
  5
218
330
207
100
AcDbEntity
  8
ボルト／ビス
  6
Continuous
 62
    64
100
AcDbLine
 10
147.235377
 20
21.954915
 30
0.0
 11
147.357037
 21
21.954915
 31
0.0
  0
LINE
  5
219
330
207
100
AcDbEntity
  8
ボルト／ビス
  6
Continuous
 62
    64
100
AcDbLine
 10
147.235377
 20
22.05114
 30
0.0
 11
147.357037
 21
22.05114
 31
0.0
  0
LINE
  5
21A
330
207
100
AcDbEntity
  8
ボルト／ビス
  6
Continuous
100
AcDbLine
 10
147.357037
 20
21.954915
 30
0.0
 11
147.357037
 21
22.339815
 31
0.0
  0
LINE
  5
21B
330
207
100
AcDbEntity
  8
ボルト／ビス
  6
Continuous
100
AcDbLine
 10
147.357037
 20
21.947365
 30
0.0
 11
147.423703
 21
21.947365
 31
0.0
  0
LINE
  5
21C
330
207
100
AcDbEntity
  8
ボルト／ビス
  6
Continuous
100
AcDbLine
 10
147.357037
 20
21.947365
 30
0.0
 11
147.357037
 21
22.347365
 31
0.0
  0
LINE
  5
21D
330
207
100
AcDbEntity
  8
ボルト／ビス
  6
Continuous
100
AcDbLine
 10
147.357037
 20
22.347365
 30
0.0
 11
147.423703
 21
22.347365
 31
0.0
  0
ENDBLK
  5
21E
330
207
100
AcDbEntity
  8
0
100
AcDbBlockEnd
  0
BLOCK
  5
21F
330
220
100
AcDbEntity
  8
0
100
AcDbBlockBegin
  2
*U24
 70
     1
 71
     0
 10
0.0
 20
0.0
 30
0.0
  3
*U24
  1

  0
LINE
  5
221
330
220
100
AcDbEntity
  8
ボルト／ビス
  6
Continuous
100
AcDbLine
 10
147.523703
 20
53.4807
 30
0.0
 11
147.057037
 21
53.4807
 31
0.0
  0
LINE
  5
222
330
220
100
AcDbEntity
  8
ボルト／ビス
  6
Continuous
100
AcDbLine
 10
147.523703
 20
53.114035
 30
0.0
 11
147.457037
 21
53.114035
 31
0.0
  0
LINE
  5
223
330
220
100
AcDbEntity
  8
ボルト／ビス
  6
Continuous
100
AcDbLine
 10
147.457037
 20
53.114035
 30
0.0
 11
147.457037
 21
53.847367
 31
0.0
  0
LINE
  5
224
330
220
100
AcDbEntity
  8
ボルト／ビス
  6
Continuous
100
AcDbLine
 10
147.457037
 20
53.847367
 30
0.0
 11
147.523703
 21
53.847367
 31
0.0
  0
LINE
  5
225
330
220
100
AcDbEntity
  8
ボルト／ビス
  6
Continuous
100
AcDbLine
 10
147.523703
 20
53.114035
 30
0.0
 11
147.523703
 21
53.847367
 31
0.0
  0
LINE
  5
226
330
220
100
AcDbEntity
  8
ボルト／ビス
  6
Continuous
100
AcDbLine
 10
147.423703
 20
53.1807
 30
0.0
 11
147.457037
 21
53.1807
 31
0.0
  0
LINE
  5
227
330
220
100
AcDbEntity
  8
ボルト／ビス
  6
Continuous
100
AcDbLine
 10
147.423703
 20
53.1807
 30
0.0
 11
147.423703
 21
53.7807
 31
0.0
  0
LINE
  5
228
330
220
100
AcDbEntity
  8
ボルト／ビス
  6
Continuous
100
AcDbLine
 10
147.423703
 20
53.7807
 30
0.0
 11
147.457037
 21
53.7807
 31
0.0
  0
LINE
  5
229
330
220
100
AcDbEntity
  8
ボルト／ビス
  6
Continuous
 62
    64
100
AcDbLine
 10
147.223703
 20
53.320325
 30
0.0
 11
147.235377
 21
53.28825
 31
0.0
  0
ARC
  5
22A
330
220
100
AcDbEntity
  8
ボルト／ビス
  6
Continuous
 62
    64
100
AcDbCircle
 10
147.328684
 20
53.336366
 30
0.0
 40
0.104978
100
AcDbArc
 50
152.721967
 51
180.0
  0
ARC
  5
22B
330
220
100
AcDbEntity
  8
ボルト／ビス
  6
Continuous
 62
    64
100
AcDbCircle
 10
147.626107
 20
53.480703
 30
0.0
 40
0.402402
100
AcDbArc
 50
166.165002
 51
193.834985
  0
LINE
  5
22C
330
220
100
AcDbEntity
  8
ボルト／ビス
  6
Continuous
 62
    64
100
AcDbLine
 10
147.223703
 20
53.641075
 30
0.0
 11
147.235377
 21
53.67315
 31
0.0
  0
ARC
  5
22D
330
220
100
AcDbEntity
  8
ボルト／ビス
  6
Continuous
 62
    64
100
AcDbCircle
 10
147.328684
 20
53.625041
 30
0.0
 40
0.104978
100
AcDbArc
 50
180.0
 51
207.278033
  0
LINE
  5
22E
330
220
100
AcDbEntity
  8
ボルト／ビス
  6
Continuous
 62
    64
100
AcDbLine
 10
147.223703
 20
53.320325
 30
0.0
 11
147.223703
 21
53.641075
 31
0.0
  0
LINE
  5
22F
330
220
100
AcDbEntity
  8
ボルト／ビス
  6
Continuous
 62
    64
100
AcDbLine
 10
147.235377
 20
53.67315
 30
0.0
 11
147.357037
 21
53.67315
 31
0.0
  0
LINE
  5
230
330
220
100
AcDbEntity
  8
ボルト／ビス
  6
Continuous
 62
    64
100
AcDbLine
 10
147.235377
 20
53.576925
 30
0.0
 11
147.357037
 21
53.576925
 31
0.0
  0
LINE
  5
231
330
220
100
AcDbEntity
  8
ボルト／ビス
  6
Continuous
 62
    64
100
AcDbLine
 10
147.235377
 20
53.28825
 30
0.0
 11
147.357037
 21
53.28825
 31
0.0
  0
LINE
  5
232
330
220
100
AcDbEntity
  8
ボルト／ビス
  6
Continuous
 62
    64
100
AcDbLine
 10
147.235377
 20
53.384475
 30
0.0
 11
147.357037
 21
53.384475
 31
0.0
  0
LINE
  5
233
330
220
100
AcDbEntity
  8
ボルト／ビス
  6
Continuous
100
AcDbLine
 10
147.357037
 20
53.28825
 30
0.0
 11
147.357037
 21
53.67315
 31
0.0
  0
LINE
  5
234
330
220
100
AcDbEntity
  8
ボルト／ビス
  6
Continuous
100
AcDbLine
 10
147.357037
 20
53.2807
 30
0.0
 11
147.423703
 21
53.2807
 31
0.0
  0
LINE
  5
235
330
220
100
AcDbEntity
  8
ボルト／ビス
  6
Continuous
100
AcDbLine
 10
147.357037
 20
53.2807
 30
0.0
 11
147.357037
 21
53.6807
 31
0.0
  0
LINE
  5
236
330
220
100
AcDbEntity
  8
ボルト／ビス
  6
Continuous
100
AcDbLine
 10
147.357037
 20
53.6807
 30
0.0
 11
147.423703
 21
53.6807
 31
0.0
  0
ENDBLK
  5
237
330
220
100
AcDbEntity
  8
0
100
AcDbBlockEnd
  0
ENDSEC
  0
SECTION
  2
ENTITIES
  0
LWPOLYLINE
  5
238
330
1D
100
AcDbEntity
  8
通り芯
  6
Continuous
100
AcDbPolyline
 90
        4
 70
     1
 43
0.0
 10
-210.0
 20
-148.5
 10
210.0
 20
-148.5
 10
210.0
 20
148.5
 10
-210.0
 20
148.5
  0
INSERT
  5
23E
330
1D
100
AcDbEntity
  8
型材断面
  6
Continuous
100
AcDbBlockReference
  2
*U0
 10
0.0
 20
0.0
 30
0.0
  0
LINE
  5
23F
330
1D
100
AcDbEntity
  8
型材断面
  6
DASHDOT
100
AcDbLine
 10
57.990438
 20
-77.83644200000001
 30
0.0
 11
57.990438
 21
52.814033
 31
0.0
  0
LINE
  5
240
330
1D
100
AcDbEntity
  8
型材断面
  6
DASHDOT
100
AcDbLine
 10
-8.67623
 20
-77.83644200000001
 30
0.0
 11
-8.67623
 21
52.814033
 31
0.0
  0
LINE
  5
241
330
1D
100
AcDbEntity
  8
型材断面
  6
DASHDOT
100
AcDbLine
 10
-75.342895
 20
-77.83644200000001
 30
0.0
 11
-75.342895
 21
52.814033
 31
0.0
  0
LINE
  5
242
330
1D
100
AcDbEntity
  8
型材断面
  6
DASHDOT
100
AcDbLine
 10
155.6672
 20
52.814033
 30
0.0
 11
-75.342895
 21
52.814033
 31
0.0
  0
LINE
  5
243
330
1D
100
AcDbEntity
  8
型材断面
  6
DASHDOT
100
AcDbLine
 10
155.6672
 20
37.814033
 30
0.0
 11
-75.342895
 21
37.814033
 31
0.0
  0
LINE
  5
244
330
1D
100
AcDbEntity
  8
型材断面
  6
DASHDOT
100
AcDbLine
 10
155.6672
 20
22.814033
 30
0.0
 11
-75.342895
 21
22.814033
 31
0.0
  0
LINE
  5
245
330
1D
100
AcDbEntity
  8
型材断面
  6
DOT
100
AcDbLine
 10
-7.42623
 20
22.814033
 30
0.0
 11
-7.42623
 21
52.814033
 31
0.0
  0
LINE
  5
246
330
1D
100
AcDbEntity
  8
型材断面
  6
DOT
100
AcDbLine
 10
-9.92623
 20
22.814033
 30
0.0
 11
-9.92623
 21
52.814033
 31
0.0
  0
LINE
  5
247
330
1D
100
AcDbEntity
  8
型材断面
  6
DASHDOT
100
AcDbLine
 10
-8.67623
 20
22.814033
 30
0.0
 11
-8.67623
 21
52.814033
 31
0.0
  0
LINE
  5
248
330
1D
100
AcDbEntity
  8
型材断面
  6
Continuous
100
AcDbLine
 10
-58.676228
 20
55.444162
 30
0.0
 11
-60.171857
 21
58.03467
 31
0.0
  0
LINE
  5
249
330
1D
100
AcDbEntity
  8
型材断面
  6
Continuous
100
AcDbLine
 10
-58.676228
 20
55.444162
 30
0.0
 11
-57.180598
 21
58.03467
 31
0.0
  0
LINE
  5
24A
330
1D
100
AcDbEntity
  8
型材断面
  6
Continuous
100
AcDbLine
 10
-57.180598
 20
58.03467
 30
0.0
 11
-60.171857
 21
58.03467
 31
0.0
  0
LINE
  5
24B
330
1D
100
AcDbEntity
  8
型材断面
  6
Continuous
100
AcDbLine
 10
-77.97302500000001
 20
37.814033
 30
0.0
 11
-80.56353300000001
 21
39.309663
 31
0.0
  0
LINE
  5
24C
330
1D
100
AcDbEntity
  8
型材断面
  6
Continuous
100
AcDbLine
 10
-77.97302500000001
 20
37.814033
 30
0.0
 11
-80.56353300000001
 21
36.318403
 31
0.0
  0
LINE
  5
24D
330
1D
100
AcDbEntity
  8
型材断面
  6
Continuous
100
AcDbLine
 10
-80.56353300000001
 20
36.318403
 30
0.0
 11
-80.56353300000001
 21
39.309663
 31
0.0
  0
LINE
  5
24E
330
1D
100
AcDbEntity
  8
型材断面
  6
Continuous
100
AcDbLine
 10
-58.676228
 20
20.183902
 30
0.0
 11
-60.171857
 21
17.593395
 31
0.0
  0
LINE
  5
24F
330
1D
100
AcDbEntity
  8
型材断面
  6
Continuous
100
AcDbLine
 10
-58.676228
 20
20.183902
 30
0.0
 11
-57.180598
 21
17.593395
 31
0.0
  0
LINE
  5
250
330
1D
100
AcDbEntity
  8
型材断面
  6
Continuous
100
AcDbLine
 10
-57.180598
 20
17.593395
 30
0.0
 11
-60.171857
 21
17.593395
 31
0.0
  0
LINE
  5
251
330
1D
100
AcDbEntity
  8
型材断面
  6
Continuous
100
AcDbLine
 10
41.323768
 20
55.444162
 30
0.0
 11
42.819398
 21
58.03467
 31
0.0
  0
LINE
  5
252
330
1D
100
AcDbEntity
  8
型材断面
  6
Continuous
100
AcDbLine
 10
41.323768
 20
55.444162
 30
0.0
 11
39.828138
 21
58.03467
 31
0.0
  0
LINE
  5
253
330
1D
100
AcDbEntity
  8
型材断面
  6
Continuous
100
AcDbLine
 10
39.828138
 20
58.03467
 30
0.0
 11
42.819398
 21
58.03467
 31
0.0
  0
LINE
  5
254
330
1D
100
AcDbEntity
  8
型材断面
  6
Continuous
100
AcDbLine
 10
41.323768
 20
20.183902
 30
0.0
 11
42.819398
 21
17.593395
 31
0.0
  0
LINE
  5
255
330
1D
100
AcDbEntity
  8
型材断面
  6
Continuous
100
AcDbLine
 10
41.323768
 20
20.183902
 30
0.0
 11
39.828138
 21
17.593395
 31
0.0
  0
LINE
  5
256
330
1D
100
AcDbEntity
  8
型材断面
  6
Continuous
100
AcDbLine
 10
39.828138
 20
17.593395
 30
0.0
 11
42.819398
 21
17.593395
 31
0.0
  0
LINE
  5
257
330
1D
100
AcDbEntity
  8
型材断面
  6
Continuous
100
AcDbLine
 10
-129.221418
 20
97.32138000000001
 30
0.0
 11
-130.717047
 21
94.730873
 31
0.0
  0
LINE
  5
258
330
1D
100
AcDbEntity
  8
型材断面
  6
Continuous
100
AcDbLine
 10
-129.221418
 20
97.32138000000001
 30
0.0
 11
-127.725788
 21
94.730873
 31
0.0
  0
LINE
  5
259
330
1D
100
AcDbEntity
  8
型材断面
  6
Continuous
100
AcDbLine
 10
-127.725788
 20
94.730873
 30
0.0
 11
-130.717047
 21
94.730873
 31
0.0
  0
LINE
  5
25A
330
1D
100
AcDbEntity
  8
型材断面
  6
Continuous
100
AcDbLine
 10
-135.244005
 20
93.792277
 30
0.0
 11
-89.002228
 21
93.792277
 31
0.0
  0
LINE
  5
25B
330
1D
100
AcDbEntity
  8
型材断面
  6
Continuous
100
AcDbLine
 10
-135.244005
 20
87.826605
 30
0.0
 11
-89.002228
 21
87.826605
 31
0.0
  0
LINE
  5
25C
330
1D
100
AcDbEntity
  8
型材断面
  6
Continuous
100
AcDbLine
 10
-77.409565
 20
20.747365
 30
0.0
 11
-78.509562
 21
19.647367
 31
0.0
  0
LINE
  5
25D
330
1D
100
AcDbEntity
  8
型材断面
  6
Continuous
100
AcDbLine
 10
-78.509562
 20
19.647367
 30
0.0
 11
61.157102
 21
19.647367
 31
0.0
  0
LINE
  5
25E
330
1D
100
AcDbEntity
  8
型材断面
  6
Continuous
100
AcDbLine
 10
60.057105
 20
20.747365
 30
0.0
 11
61.157102
 21
19.647367
 31
0.0
  0
LINE
  5
25F
330
1D
100
AcDbEntity
  8
型材断面
  6
Continuous
100
AcDbLine
 10
61.157102
 20
19.647367
 30
0.0
 11
61.157102
 21
55.980697
 31
0.0
  0
LINE
  5
260
330
1D
100
AcDbEntity
  8
型材断面
  6
Continuous
100
AcDbLine
 10
60.057105
 20
54.8807
 30
0.0
 11
61.157102
 21
55.980697
 31
0.0
  0
LINE
  5
261
330
1D
100
AcDbEntity
  8
型材断面
  6
Continuous
100
AcDbLine
 10
61.157102
 20
55.980697
 30
0.0
 11
-78.509562
 21
55.980697
 31
0.0
  0
LINE
  5
262
330
1D
100
AcDbEntity
  8
型材断面
  6
Continuous
100
AcDbLine
 10
-78.509562
 20
19.647367
 30
0.0
 11
-78.509562
 21
55.980697
 31
0.0
  0
LINE
  5
263
330
1D
100
AcDbEntity
  8
型材断面
  6
Continuous
100
AcDbLine
 10
-77.409565
 20
54.8807
 30
0.0
 11
-78.509562
 21
55.980697
 31
0.0
  0
LINE
  5
264
330
1D
100
AcDbEntity
  8
型材断面
  6
DOT
100
AcDbLine
 10
-40.942895
 20
22.814033
 30
0.0
 11
-40.942895
 21
52.814033
 31
0.0
  0
LINE
  5
265
330
1D
100
AcDbEntity
  8
型材断面
  6
DOT
100
AcDbLine
 10
-43.442895
 20
22.814033
 30
0.0
 11
-43.442895
 21
52.814033
 31
0.0
  0
LINE
  5
266
330
1D
100
AcDbEntity
  8
型材断面
  6
DASHDOT
100
AcDbLine
 10
-42.192895
 20
22.814033
 30
0.0
 11
-42.192895
 21
52.814033
 31
0.0
  0
LINE
  5
267
330
1D
100
AcDbEntity
  8
型材断面
  6
DOT
100
AcDbLine
 10
23.590435
 20
22.814033
 30
0.0
 11
23.590435
 21
52.814033
 31
0.0
  0
LINE
  5
268
330
1D
100
AcDbEntity
  8
型材断面
  6
DOT
100
AcDbLine
 10
26.090435
 20
22.814033
 30
0.0
 11
26.090435
 21
52.814033
 31
0.0
  0
LINE
  5
269
330
1D
100
AcDbEntity
  8
型材断面
  6
DASHDOT
100
AcDbLine
 10
24.840435
 20
22.814033
 30
0.0
 11
24.840435
 21
52.814033
 31
0.0
  0
LINE
  5
26A
330
1D
100
AcDbEntity
  8
型材断面
  6
Continuous
 62
    14
100
AcDbLine
 10
151.357272
 20
55.980697
 30
0.0
 11
150.857272
 21
55.980697
 31
0.0
  0
LINE
  5
26B
330
1D
100
AcDbEntity
  8
型材断面
  6
Continuous
100
AcDbLine
 10
150.690608
 20
54.147363
 30
0.0
 11
150.857272
 21
55.980697
 31
0.0
  0
LINE
  5
26C
330
1D
100
AcDbEntity
  8
型材断面
  6
Continuous
100
AcDbLine
 10
150.857272
 20
55.980697
 30
0.0
 11
151.357272
 21
55.980697
 31
0.0
  0
LINE
  5
26D
330
1D
100
AcDbEntity
  8
型材断面
  6
Continuous
100
AcDbLine
 10
151.357272
 20
55.147363
 30
0.0
 11
151.690608
 21
55.147363
 31
0.0
  0
LWPOLYLINE
  5
26E
330
1D
100
AcDbEntity
  8
型材断面
  6
Continuous
100
AcDbPolyline
 90
        3
 70
     0
 43
0.0
 10
148.523703
 20
54.014035
 10
148.87394
 20
54.014035
 10
149.007273
 20
54.147367
  0
LINE
  5
273
330
1D
100
AcDbEntity
  8
型材断面
  6
Continuous
100
AcDbLine
 10
150.690608
 20
54.147363
 30
0.0
 11
149.007267
 21
54.147363
 31
0.0
  0
LINE
  5
274
330
1D
100
AcDbEntity
  8
型材断面
  6
Continuous
 62
    14
100
AcDbLine
 10
151.357272
 20
19.647375
 30
0.0
 11
150.857272
 21
19.647375
 31
0.0
  0
LINE
  5
275
330
1D
100
AcDbEntity
  8
型材断面
  6
Continuous
100
AcDbLine
 10
150.690608
 20
21.48071
 30
0.0
 11
150.857272
 21
19.647375
 31
0.0
  0
LINE
  5
276
330
1D
100
AcDbEntity
  8
型材断面
  6
Continuous
100
AcDbLine
 10
150.857272
 20
19.647375
 30
0.0
 11
151.357272
 21
19.647375
 31
0.0
  0
LINE
  5
277
330
1D
100
AcDbEntity
  8
型材断面
  6
Continuous
100
AcDbLine
 10
151.357272
 20
20.48071
 30
0.0
 11
151.690608
 21
20.48071
 31
0.0
  0
LWPOLYLINE
  5
278
330
1D
100
AcDbEntity
  8
型材断面
  6
Continuous
100
AcDbPolyline
 90
        3
 70
     0
 43
0.0
 10
148.523703
 20
21.614038
 10
148.87394
 20
21.614038
 10
149.007273
 20
21.480705
  0
LINE
  5
27D
330
1D
100
AcDbEntity
  8
型材断面
  6
Continuous
100
AcDbLine
 10
150.690608
 20
21.48071
 30
0.0
 11
149.007267
 21
21.48071
 31
0.0
  0
LINE
  5
27E
330
1D
100
AcDbEntity
  8
型材断面
  6
Continuous
100
AcDbLine
 10
150.857272
 20
55.980697
 30
0.0
 11
150.857272
 21
19.647375
 31
0.0
  0
LINE
  5
27F
330
1D
100
AcDbEntity
  8
型材断面
  6
Continuous
100
AcDbLine
 10
151.357272
 20
55.980697
 30
0.0
 11
151.357272
 21
19.647375
 31
0.0
  0
LINE
  5
280
330
1D
100
AcDbEntity
  8
型材断面
  6
Continuous
100
AcDbLine
 10
151.690605
 20
55.147363
 30
0.0
 11
151.690605
 21
20.48071
 31
0.0
  0
LINE
  5
281
330
1D
100
AcDbEntity
  8
型材断面
  6
Continuous
100
AcDbLine
 10
150.690608
 20
54.147363
 30
0.0
 11
150.690608
 21
21.48071
 31
0.0
  0
LINE
  5
282
330
1D
100
AcDbEntity
  8
型材断面
  6
Continuous
100
AcDbLine
 10
148.87394
 20
54.014035
 30
0.0
 11
148.87394
 21
21.614038
 31
0.0
  0
LINE
  5
283
330
1D
100
AcDbEntity
  8
型材断面
  6
Continuous
100
AcDbLine
 10
149.007273
 20
54.147367
 30
0.0
 11
149.007273
 21
21.480705
 31
0.0
  0
LINE
  5
284
330
1D
100
AcDbEntity
  8
型材断面
  6
Continuous
 62
    14
100
AcDbLine
 10
61.157102
 20
-74.043182
 30
0.0
 11
61.157102
 21
-73.543182
 31
0.0
  0
LINE
  5
285
330
1D
100
AcDbEntity
  8
型材断面
  6
Continuous
100
AcDbLine
 10
59.323768
 20
-73.376518
 30
0.0
 11
61.157102
 21
-73.543182
 31
0.0
  0
LINE
  5
286
330
1D
100
AcDbEntity
  8
型材断面
  6
Continuous
100
AcDbLine
 10
61.157102
 20
-73.543182
 30
0.0
 11
61.157102
 21
-74.043182
 31
0.0
  0
LINE
  5
287
330
1D
100
AcDbEntity
  8
型材断面
  6
Continuous
100
AcDbLine
 10
60.323768
 20
-74.043182
 30
0.0
 11
60.323768
 21
-74.376518
 31
0.0
  0
LWPOLYLINE
  5
288
330
1D
100
AcDbEntity
  8
型材断面
  6
Continuous
100
AcDbPolyline
 90
        3
 70
     0
 43
0.0
 10
59.19044
 20
-71.209613
 10
59.19044
 20
-71.55985
 10
59.323773
 20
-71.69318199999999
  0
LINE
  5
28D
330
1D
100
AcDbEntity
  8
型材断面
  6
Continuous
100
AcDbLine
 10
59.323768
 20
-73.376518
 30
0.0
 11
59.323768
 21
-71.693178
 31
0.0
  0
LINE
  5
28E
330
1D
100
AcDbEntity
  8
型材断面
  6
Continuous
 62
    14
100
AcDbLine
 10
-78.50955500000001
 20
-74.043182
 30
0.0
 11
-78.50955500000001
 21
-73.543182
 31
0.0
  0
LINE
  5
28F
330
1D
100
AcDbEntity
  8
型材断面
  6
Continuous
100
AcDbLine
 10
-76.67622
 20
-73.376518
 30
0.0
 11
-78.50955500000001
 21
-73.543182
 31
0.0
  0
LINE
  5
290
330
1D
100
AcDbEntity
  8
型材断面
  6
Continuous
100
AcDbLine
 10
-78.50955500000001
 20
-73.543182
 30
0.0
 11
-78.50955500000001
 21
-74.043182
 31
0.0
  0
LINE
  5
291
330
1D
100
AcDbEntity
  8
型材断面
  6
Continuous
100
AcDbLine
 10
-77.67622
 20
-74.043182
 30
0.0
 11
-77.67622
 21
-74.376518
 31
0.0
  0
LWPOLYLINE
  5
292
330
1D
100
AcDbEntity
  8
型材断面
  6
Continuous
100
AcDbPolyline
 90
        3
 70
     0
 43
0.0
 10
-76.54289300000001
 20
-71.209613
 10
-76.54289300000001
 20
-71.55985
 10
-76.676225
 20
-71.69318199999999
  0
LINE
  5
297
330
1D
100
AcDbEntity
  8
型材断面
  6
Continuous
100
AcDbLine
 10
-76.67622
 20
-73.376518
 30
0.0
 11
-76.67622
 21
-71.693178
 31
0.0
  0
LINE
  5
298
330
1D
100
AcDbEntity
  8
型材断面
  6
Continuous
100
AcDbLine
 10
61.157102
 20
-73.543182
 30
0.0
 11
-78.50955500000001
 21
-73.543182
 31
0.0
  0
LINE
  5
299
330
1D
100
AcDbEntity
  8
型材断面
  6
Continuous
100
AcDbLine
 10
61.157102
 20
-74.043182
 30
0.0
 11
-78.50955500000001
 21
-74.043182
 31
0.0
  0
LINE
  5
29A
330
1D
100
AcDbEntity
  8
型材断面
  6
Continuous
100
AcDbLine
 10
60.323768
 20
-74.376515
 30
0.0
 11
-77.67622
 21
-74.376515
 31
0.0
  0
LINE
  5
29B
330
1D
100
AcDbEntity
  8
型材断面
  6
Continuous
100
AcDbLine
 10
59.323768
 20
-73.376518
 30
0.0
 11
-76.67622
 21
-73.376518
 31
0.0
  0
LINE
  5
29C
330
1D
100
AcDbEntity
  8
型材断面
  6
Continuous
100
AcDbLine
 10
59.19044
 20
-71.55985
 30
0.0
 11
-76.54289300000001
 21
-71.55985
 31
0.0
  0
LINE
  5
29D
330
1D
100
AcDbEntity
  8
型材断面
  6
Continuous
100
AcDbLine
 10
59.323773
 20
-71.69318199999999
 30
0.0
 11
-76.676225
 21
-71.69318199999999
 31
0.0
  0
TEXT
  5
29E
330
1D
100
AcDbEntity
  8
文字
  6
Continuous
100
AcDbText
 10
-126.45
 20
94.925
 30
0.0
 40
3.0
  1
は排水穴位置を示す
  7
TextStyle03
 72
     5
 11
-96.45
 21
94.925
 31
0.0
100
AcDbText
  0
TEXT
  5
29F
330
1D
100
AcDbEntity
  8
文字
  6
Continuous
100
AcDbText
 10
137.0
 20
-72.77500000000001
 30
0.0
 40
3.0
  1
網入り6.8t
  7
TextStyle03
 72
     5
 11
153.6875
 21
-72.77500000000001
 31
0.0
100
AcDbText
  0
TEXT
  5
2A0
330
1D
100
AcDbEntity
  8
文字
  6
Continuous
100
AcDbText
 10
143.675
 20
-77.45
 30
0.0
 40
3.0
  1
×４枚
  7
TextStyle03
 72
     5
 11
153.425
 21
-77.45
 31
0.0
100
AcDbText
  0
TEXT
  5
2A1
330
1D
100
AcDbEntity
  8
文字
  6
Continuous
100
AcDbText
 10
-96.34999999999999
 20
16.275
 30
0.0
 40
3.0
  1
アンカーピッチ
 50
90.0
  7
TextStyle03
 72
     5
 11
-96.34999999999999
 21
39.525
 31
0.0
100
AcDbText
  0
TEXT
  5
2A2
330
1D
100
AcDbEntity
  8
文字
  6
Continuous
100
AcDbText
 10
-67.25
 20
90.825
 30
0.0
 40
3.0
  1
アンカーピッチ
  7
TextStyle03
 72
     5
 11
-44.0
 21
90.825
 31
0.0
100
AcDbText
  0
TEXT
  5
2A3
330
1D
100
AcDbEntity
  8
文字
  6
Continuous
100
AcDbText
 10
-130.175
 20
88.72499999999999
 30
0.0
 40
3.0
  1
アンカー数量　１６ヶ所
  7
TextStyle03
 72
     5
 11
-93.425
 21
88.72499999999999
 31
0.0
100
AcDbText
  0
TEXT
  5
2A4
330
1D
100
AcDbEntity
  8
文字
  6
Continuous
100
AcDbText
 10
77.65000000000001
 20
104.325
 30
0.0
 40
5.0
  1
ＮＳコード：ＮＳＫＬ
  7
TextStyle03
 72
     5
 11
133.275
 21
104.325
 31
0.0
100
AcDbText
  0
TEXT
  5
2A5
330
1D
100
AcDbEntity
  8
文字
  6
Continuous
100
AcDbText
 10
78.09999999999999
 20
125.25
 30
0.0
 40
5.0
  1
シリーズ：ＴＤ１ＫＬ
  7
TextStyle03
 72
     5
 11
133.725
 21
125.25
 31
0.0
100
AcDbText
  0
TEXT
  5
2A6
330
1D
100
AcDbEntity
  8
文字
  6
Continuous
100
AcDbText
 10
78.09999999999999
 20
119.625
 30
0.0
 40
5.0
  1
　　　　　（固定）900×4000タイプ
  7
TextStyle03
 72
     5
 11
170.2875
 21
119.625
 31
0.0
100
AcDbText
  0
TEXT
  5
2A7
330
1D
100
AcDbEntity
  8
文字
  6
Continuous
100
AcDbText
 10
78.09999999999999
 20
114.0
 30
0.0
 40
5.0
  1
図面名　：外観姿図
  7
TextStyle03
 72
     5
 11
128.1
 21
114.0
 31
0.0
100
AcDbText
  0
TEXT
  5
2A8
330
1D
100
AcDbEntity
  8
文字
  6
Continuous
100
AcDbText
 10
78.09999999999999
 20
108.375
 30
0.0
 40
5.0
  1
　　　　　　
  7
TextStyle03
 72
     5
 11
111.225
 21
108.375
 31
0.0
100
AcDbText
  0
INSERT
  5
2A9
330
1D
100
AcDbEntity
  8
寸法
  6
Continuous
100
AcDbBlockReference
  2
*U1
 10
0.0
 20
0.0
 30
0.0
  0
INSERT
  5
2AA
330
1D
100
AcDbEntity
  8
寸法
  6
Continuous
100
AcDbBlockReference
  2
*U2
 10
0.0
 20
0.0
 30
0.0
  0
INSERT
  5
2AB
330
1D
100
AcDbEntity
  8
寸法
  6
Continuous
100
AcDbBlockReference
  2
*U4
 10
0.0
 20
0.0
 30
0.0
  0
INSERT
  5
2AC
330
1D
100
AcDbEntity
  8
寸法
  6
Continuous
100
AcDbBlockReference
  2
*U5
 10
0.0
 20
0.0
 30
0.0
  0
INSERT
  5
2AD
330
1D
100
AcDbEntity
  8
寸法
  6
Continuous
100
AcDbBlockReference
  2
*U6
 10
0.0
 20
0.0
 30
0.0
  0
INSERT
  5
2AE
330
1D
100
AcDbEntity
  8
寸法
  6
Continuous
100
AcDbBlockReference
  2
*U7
 10
0.0
 20
0.0
 30
0.0
  0
INSERT
  5
2AF
330
1D
100
AcDbEntity
  8
寸法
  6
Continuous
100
AcDbBlockReference
  2
*U8
 10
0.0
 20
0.0
 30
0.0
  0
INSERT
  5
2B0
330
1D
100
AcDbEntity
  8
寸法
  6
Continuous
100
AcDbBlockReference
  2
*U9
 10
0.0
 20
0.0
 30
0.0
  0
INSERT
  5
2B1
330
1D
100
AcDbEntity
  8
寸法
  6
Continuous
100
AcDbBlockReference
  2
*U10
 10
0.0
 20
0.0
 30
0.0
  0
INSERT
  5
2B2
330
1D
100
AcDbEntity
  8
寸法
  6
Continuous
100
AcDbBlockReference
  2
*U11
 10
0.0
 20
0.0
 30
0.0
  0
INSERT
  5
2B3
330
1D
100
AcDbEntity
  8
寸法
  6
Continuous
100
AcDbBlockReference
  2
*U12
 10
0.0
 20
0.0
 30
0.0
  0
INSERT
  5
2B4
330
1D
100
AcDbEntity
  8
寸法
  6
Continuous
100
AcDbBlockReference
  2
*U13
 10
0.0
 20
0.0
 30
0.0
  0
INSERT
  5
2B5
330
1D
100
AcDbEntity
  8
寸法
  6
Continuous
100
AcDbBlockReference
  2
*U14
 10
0.0
 20
0.0
 30
0.0
  0
INSERT
  5
2B6
330
1D
100
AcDbEntity
  8
寸法
  6
Continuous
100
AcDbBlockReference
  2
*U15
 10
0.0
 20
0.0
 30
0.0
  0
INSERT
  5
2B7
330
1D
100
AcDbEntity
  8
寸法
  6
Continuous
100
AcDbBlockReference
  2
*U16
 10
0.0
 20
0.0
 30
0.0
  0
INSERT
  5
2B8
330
1D
100
AcDbEntity
  8
寸法
  6
Continuous
100
AcDbBlockReference
  2
*U17
 10
0.0
 20
0.0
 30
0.0
  0
INSERT
  5
2B9
330
1D
100
AcDbEntity
  8
寸法
  6
Continuous
100
AcDbBlockReference
  2
*U18
 10
0.0
 20
0.0
 30
0.0
  0
INSERT
  5
2BA
330
1D
100
AcDbEntity
  8
寸法
  6
Continuous
100
AcDbBlockReference
  2
*U19
 10
0.0
 20
0.0
 30
0.0
  0
INSERT
  5
2BB
330
1D
100
AcDbEntity
  8
寸法
  6
Continuous
100
AcDbBlockReference
  2
*U20
 10
0.0
 20
0.0
 30
0.0
  0
LINE
  5
2BC
330
1D
100
AcDbEntity
  8
別途部材
  6
Continuous
100
AcDbLine
 10
60.057105
 20
20.747365
 30
0.0
 11
59.657105
 21
21.147365
 31
0.0
  0
LINE
  5
2BD
330
1D
100
AcDbEntity
  8
別途部材
  6
Continuous
100
AcDbLine
 10
57.990438
 20
22.814033
 30
0.0
 11
49.931183
 21
30.87329
 31
0.0
  0
LINE
  5
2BE
330
1D
100
AcDbEntity
  8
別途部材
  6
Continuous
 62
    96
100
AcDbLine
 10
147.523703
 20
21.147365
 30
0.0
 11
148.523703
 21
20.747365
 31
0.0
  0
LINE
  5
2BF
330
1D
100
AcDbEntity
  8
別途部材
  6
Continuous
100
AcDbLine
 10
59.657105
 20
21.147365
 30
0.0
 11
59.657105
 21
37.814033
 31
0.0
  0
LINE
  5
2C0
330
1D
100
AcDbEntity
  8
別途部材
  6
Continuous
100
AcDbLine
 10
60.057105
 20
20.747365
 30
0.0
 11
60.057105
 21
37.814033
 31
0.0
  0
LINE
  5
2C1
330
1D
100
AcDbEntity
  8
別途部材
  6
Continuous
100
AcDbLine
 10
60.057105
 20
54.8807
 30
0.0
 11
59.657105
 21
54.4807
 31
0.0
  0
LINE
  5
2C2
330
1D
100
AcDbEntity
  8
別途部材
  6
Continuous
100
AcDbLine
 10
57.990438
 20
52.814033
 30
0.0
 11
49.931183
 21
44.754775
 31
0.0
  0
LINE
  5
2C3
330
1D
100
AcDbEntity
  8
別途部材
  6
Continuous
100
AcDbLine
 10
59.657105
 20
54.4807
 30
0.0
 11
59.657105
 21
37.814033
 31
0.0
  0
LINE
  5
2C4
330
1D
100
AcDbEntity
  8
別途部材
  6
Continuous
100
AcDbLine
 10
60.057105
 20
54.8807
 30
0.0
 11
60.057105
 21
37.814033
 31
0.0
  0
LINE
  5
2C5
330
1D
100
AcDbEntity
  8
別途部材
  6
Continuous
 62
    96
100
AcDbLine
 10
147.523703
 20
21.147365
 30
0.0
 11
147.523703
 21
37.814033
 31
0.0
  0
LINE
  5
2C6
330
1D
100
AcDbEntity
  8
別途部材
  6
Continuous
100
AcDbLine
 10
148.523703
 20
20.747365
 30
0.0
 11
148.523703
 21
37.814033
 31
0.0
  0
LINE
  5
2C7
330
1D
100
AcDbEntity
  8
別途部材
  6
Continuous
 62
    96
100
AcDbLine
 10
147.523703
 20
54.4807
 30
0.0
 11
148.523703
 21
54.8807
 31
0.0
  0
LINE
  5
2C8
330
1D
100
AcDbEntity
  8
別途部材
  6
Continuous
 62
    96
100
AcDbLine
 10
147.523703
 20
54.4807
 30
0.0
 11
147.523703
 21
37.814033
 31
0.0
  0
LINE
  5
2C9
330
1D
100
AcDbEntity
  8
別途部材
  6
Continuous
100
AcDbLine
 10
148.523703
 20
54.8807
 30
0.0
 11
148.523703
 21
37.814033
 31
0.0
  0
ARC
  5
2CA
330
1D
100
AcDbEntity
  8
別途部材
  6
Continuous
100
AcDbCircle
 10
156.857037
 20
37.814033
 30
0.0
 40
17.666667
100
AcDbArc
 50
121.890796
 51
238.109204
  0
LINE
  5
2CB
330
1D
100
AcDbEntity
  8
別途部材
  6
Continuous
100
AcDbLine
 10
59.657105
 20
54.4807
 30
0.0
 11
-8.67623
 21
54.4807
 31
0.0
  0
LINE
  5
2CC
330
1D
100
AcDbEntity
  8
別途部材
  6
Continuous
100
AcDbLine
 10
60.057105
 20
54.8807
 30
0.0
 11
-8.67623
 21
54.8807
 31
0.0
  0
LINE
  5
2CD
330
1D
100
AcDbEntity
  8
別途部材
  6
Continuous
100
AcDbLine
 10
60.057105
 20
20.747365
 30
0.0
 11
-8.67623
 21
20.747365
 31
0.0
  0
LINE
  5
2CE
330
1D
100
AcDbEntity
  8
別途部材
  6
Continuous
100
AcDbLine
 10
59.657105
 20
21.147365
 30
0.0
 11
-8.67623
 21
21.147365
 31
0.0
  0
LINE
  5
2CF
330
1D
100
AcDbEntity
  8
別途部材
  6
Continuous
100
AcDbLine
 10
-77.409565
 20
20.747365
 30
0.0
 11
-77.009565
 21
21.147365
 31
0.0
  0
LINE
  5
2D0
330
1D
100
AcDbEntity
  8
別途部材
  6
Continuous
100
AcDbLine
 10
-75.34289699999999
 20
22.814033
 30
0.0
 11
-67.283643
 21
30.87329
 31
0.0
  0
LINE
  5
2D1
330
1D
100
AcDbEntity
  8
別途部材
  6
Continuous
100
AcDbLine
 10
-77.009565
 20
21.147365
 30
0.0
 11
-77.009565
 21
37.814033
 31
0.0
  0
LINE
  5
2D2
330
1D
100
AcDbEntity
  8
別途部材
  6
Continuous
100
AcDbLine
 10
-77.409565
 20
20.747365
 30
0.0
 11
-77.409565
 21
37.814033
 31
0.0
  0
LINE
  5
2D3
330
1D
100
AcDbEntity
  8
別途部材
  6
Continuous
100
AcDbLine
 10
-77.409565
 20
54.8807
 30
0.0
 11
-77.009565
 21
54.4807
 31
0.0
  0
LINE
  5
2D4
330
1D
100
AcDbEntity
  8
別途部材
  6
Continuous
100
AcDbLine
 10
-75.34289699999999
 20
52.814033
 30
0.0
 11
-67.283643
 21
44.754775
 31
0.0
  0
LINE
  5
2D5
330
1D
100
AcDbEntity
  8
別途部材
  6
Continuous
100
AcDbLine
 10
-77.009565
 20
54.4807
 30
0.0
 11
-77.009565
 21
37.814033
 31
0.0
  0
LINE
  5
2D6
330
1D
100
AcDbEntity
  8
別途部材
  6
Continuous
100
AcDbLine
 10
-77.409565
 20
54.8807
 30
0.0
 11
-77.409565
 21
37.814033
 31
0.0
  0
LINE
  5
2D7
330
1D
100
AcDbEntity
  8
別途部材
  6
Continuous
100
AcDbLine
 10
-77.009565
 20
54.4807
 30
0.0
 11
-8.67623
 21
54.4807
 31
0.0
  0
LINE
  5
2D8
330
1D
100
AcDbEntity
  8
別途部材
  6
Continuous
100
AcDbLine
 10
-77.409565
 20
54.8807
 30
0.0
 11
-8.67623
 21
54.8807
 31
0.0
  0
LINE
  5
2D9
330
1D
100
AcDbEntity
  8
別途部材
  6
Continuous
100
AcDbLine
 10
-77.409565
 20
20.747365
 30
0.0
 11
-8.67623
 21
20.747365
 31
0.0
  0
LINE
  5
2DA
330
1D
100
AcDbEntity
  8
別途部材
  6
Continuous
100
AcDbLine
 10
-77.009565
 20
21.147365
 30
0.0
 11
-8.67623
 21
21.147365
 31
0.0
  0
INSERT
  5
2DB
330
1D
100
AcDbEntity
  8
別途部材
  6
Continuous
100
AcDbBlockReference
  2
*U3
 10
0.0
 20
0.0
 30
0.0
  0
INSERT
  5
2DC
330
1D
100
AcDbEntity
  8
別途部材
  6
DOT
100
AcDbBlockReference
  2
*U21
 10
0.0
 20
0.0
 30
0.0
  0
INSERT
  5
2DD
330
1D
100
AcDbEntity
  8
別途部材
  6
DOT
100
AcDbBlockReference
  2
*U22
 10
0.0
 20
0.0
 30
0.0
  0
INSERT
  5
2DE
330
1D
100
AcDbEntity
  8
別途部材
  6
DOT
100
AcDbBlockReference
  2
*U23
 10
0.0
 20
0.0
 30
0.0
  0
INSERT
  5
2DF
330
1D
100
AcDbEntity
  8
別途部材
  6
DOT
100
AcDbBlockReference
  2
*U24
 10
0.0
 20
0.0
 30
0.0
  0
LINE
  5
2E0
330
1D
100
AcDbEntity
  8
曲げ物
  6
Continuous
100
AcDbLine
 10
123.087835
 20
-49.533713
 30
0.0
 11
123.087835
 21
-79.20038
 31
0.0
  0
LINE
  5
2E1
330
1D
100
AcDbEntity
  8
曲げ物
  6
Continuous
100
AcDbLine
 10
155.537835
 20
-79.20038
 30
0.0
 11
123.087835
 21
-79.20038
 31
0.0
  0
LINE
  5
2E2
330
1D
100
AcDbEntity
  8
曲げ物
  6
Continuous
100
AcDbLine
 10
123.087835
 20
-49.533713
 30
0.0
 11
155.537835
 21
-49.533713
 31
0.0
  0
LINE
  5
2E3
330
1D
100
AcDbEntity
  8
曲げ物
  6
Continuous
100
AcDbLine
 10
155.537835
 20
-79.20038
 30
0.0
 11
155.537835
 21
-49.533713
 31
0.0
  0
ENDSEC
  0
SECTION
  2
OBJECTS
  0
DICTIONARY
  5
C
330
0
100
AcDbDictionary
281
     1
  3
ACAD_GROUP
350
D
  3
ACAD_LAYOUT
350
1A
  3
ACAD_MLINESTYLE
350
17
  3
ACAD_PLOTSETTINGS
350
19
  3
ACAD_PLOTSTYLENAME
350
E
  0
DICTIONARY
  5
D
102
{ACAD_REACTORS
330
C
102
}
330
C
100
AcDbDictionary
281
     1
  0
DICTIONARY
  5
1A
102
{ACAD_REACTORS
330
C
102
}
330
C
100
AcDbDictionary
281
     1
  3
Layout1
350
1C
  3
Model
350
1E
  0
DICTIONARY
  5
17
102
{ACAD_REACTORS
330
C
102
}
330
C
100
AcDbDictionary
281
     1
  3
Standard
350
18
  0
DICTIONARY
  5
19
102
{ACAD_REACTORS
330
C
102
}
330
C
100
AcDbDictionary
281
     1
  0
ACDBDICTIONARYWDFLT
  5
E
102
{ACAD_REACTORS
330
C
102
}
330
C
100
AcDbDictionary
281
     1
  3
Normal
350
F
100
AcDbDictionaryWithDefault
340
F
  0
LAYOUT
  5
1C
102
{ACAD_REACTORS
330
1A
102
}
330
1A
100
AcDbPlotSettings
  1

  2

  4

  6

 40
0.0
 41
0.0
 42
0.0
 43
0.0
 44
0.0
 45
0.0
 46
0.0
 47
0.0
 48
0.0
 49
0.0
140
0.0
141
0.0
142
1.0
143
1.0
 70
   688
 72
     0
 73
     0
 74
     5
  7

 75
    16
 76
     0
 77
     2
 78
   300
147
1.0
148
0.0
149
0.0
100
AcDbLayout
  1
Layout1
 70
     1
 71
     1
 10
0.0
 20
0.0
 11
12.0
 21
9.0
 12
0.0
 22
0.0
 32
0.0
 14
1.000000000000000E+20
 24
1.000000000000000E+20
 34
1.000000000000000E+20
 15
-1.000000000000000E+20
 25
-1.000000000000000E+20
 35
-1.000000000000000E+20
146
0.0
 13
0.0
 23
0.0
 33
0.0
 16
1.0
 26
0.0
 36
0.0
 17
0.0
 27
1.0
 37
0.0
 76
     0
330
1B
  0
LAYOUT
  5
1E
102
{ACAD_REACTORS
330
1A
102
}
330
1A
100
AcDbPlotSettings
  1

  2

  4

  6

 40
0.0
 41
0.0
 42
0.0
 43
0.0
 44
0.0
 45
0.0
 46
0.0
 47
0.0
 48
0.0
 49
0.0
140
0.0
141
0.0
142
1.0
143
1.0
 70
  1712
 72
     0
 73
     0
 74
     0
  7

 75
     0
 76
     0
 77
     2
 78
   300
147
1.0
148
0.0
149
0.0
100
AcDbLayout
  1
Model
 70
     1
 71
     0
 10
0.0
 20
0.0
 11
0.0
 21
0.0
 12
0.0
 22
0.0
 32
0.0
 14
-210.0
 24
-148.5
 34
0.0
 15
210.0
 25
148.5
 35
0.0
146
0.0
 13
0.0
 23
0.0
 33
0.0
 16
1.0
 26
0.0
 36
0.0
 17
0.0
 27
1.0
 37
0.0
 76
     0
330
1D
  0
MLINESTYLE
  5
18
102
{ACAD_REACTORS
330
17
102
}
330
17
100
AcDbMlineStyle
  2
Standard
 70
     0
  3

 62
   256
 51
90.0
 52
90.0
 71
     2
 49
0.5
 62
   256
  6
BYLAYER
 49
-0.5
 62
   256
  6
BYLAYER
  0
ACDBPLACEHOLDER
  5
F
102
{ACAD_REACTORS
330
E
102
}
330
E
  0
ENDSEC
  0
EOF
