  0
SECTION
  2
HEADER
  9
$ACADVER
  1
AC1018
  9
$ACADMAINTVER
 70
     0
  9
$DWGCODEPAGE
  3
ANSI_932
  9
$INSBASE
 10
0.0
 20
0.0
 30
0.0
  9
$EXTMIN
 10
-210.0
 20
-148.5
 30
0.0
  9
$EXTMAX
 10
210.0
 20
148.5
 30
0.0
  9
$LIMMIN
 10
0.0
 20
0.0
  9
$LIMMAX
 10
12.0
 20
9.0
  9
$ORTHOMODE
 70
     0
  9
$REGENMODE
 70
     1
  9
$FILLMODE
 70
     1
  9
$QTEXTMODE
 70
     0
  9
$MIRRTEXT
 70
     1
  9
$LTSCALE
 40
10.0
  9
$ATTMODE
 70
     1
  9
$TEXTSIZE
 40
0.2
  9
$TRACEWID
 40
0.05
  9
$TEXTSTYLE
  7
STANDARD
  9
$CLAYER
  8
0
  9
$CELTYPE
  6
ByBlock
  9
$CECOLOR
 62
   256
  9
$CELTSCALE
 40
1.0
  9
$DISPSILH
 70
     0
  9
$DIMSCALE
 40
1.0
  9
$DIMASZ
 40
0.18
  9
$DIMEXO
 40
0.0625
  9
$DIMDLI
 40
0.38
  9
$DIMRND
 40
0.0
  9
$DIMDLE
 40
0.0
  9
$DIMEXE
 40
0.18
  9
$DIMTP
 40
0.0
  9
$DIMTM
 40
0.0
  9
$DIMTXT
 40
0.18
  9
$DIMCEN
 40
0.09
  9
$DIMTSZ
 40
0.0
  9
$DIMTOL
 70
     0
  9
$DIMLIM
 70
     0
  9
$DIMTIH
 70
     1
  9
$DIMTOH
 70
     1
  9
$DIMSE1
 70
     0
  9
$DIMSE2
 70
     0
  9
$DIMTAD
 70
     0
  9
$DIMZIN
 70
     0
  9
$DIMBLK
  1

  9
$DIMASO
 70
     1
  9
$DIMSHO
 70
     1
  9
$DIMPOST
  1

  9
$DIMAPOST
  1

  9
$DIMALT
 70
     0
  9
$DIMALTD
 70
     2
  9
$DIMALTF
 40
25.4
  9
$DIMLFAC
 40
1.0
  9
$DIMTOFL
 70
     0
  9
$DIMTVP
 40
0.0
  9
$DIMTIX
 70
     0
  9
$DIMSOXD
 70
     0
  9
$DIMSAH
 70
     0
  9
$DIMBLK1
  1

  9
$DIMBLK2
  1

  9
$DIMSTYLE
  2
Standard
  9
$DIMCLRD
 70
     0
  9
$DIMCLRE
 70
     0
  9
$DIMCLRT
 70
     0
  9
$DIMTFAC
 40
1.0
  9
$DIMGAP
 40
0.09
  9
$DIMJUST
 70
     0
  9
$DIMSD1
 70
     0
  9
$DIMSD2
 70
     0
  9
$DIMTOLJ
 70
     1
  9
$DIMTZIN
 70
     0
  9
$DIMALTZ
 70
     0
  9
$DIMALTTZ
 70
     0
  9
$DIMUPT
 70
     0
  9
$DIMDEC
 70
     4
  9
$DIMTDEC
 70
     4
  9
$DIMALTU
 70
     2
  9
$DIMALTTD
 70
     2
  9
$DIMTXSTY
  7
STANDARD
  9
$DIMAUNIT
 70
     0
  9
$DIMADEC
 70
     0
  9
$DIMALTRND
 40
0.0
  9
$DIMAZIN
 70
     0
  9
$DIMDSEP
 70
    46
  9
$DIMATFIT
 70
     3
  9
$DIMFRAC
 70
     0
  9
$DIMLDRBLK
  1

  9
$DIMLUNIT
 70
     2
  9
$DIMLWD
 70
    -2
  9
$DIMLWE
 70
    -2
  9
$DIMTMOVE
 70
     0
  9
$LUNITS
 70
     2
  9
$LUPREC
 70
     4
  9
$SKETCHINC
 40
0.1
  9
$FILLETRAD
 40
0.5
  9
$AUNITS
 70
     0
  9
$AUPREC
 70
     0
  9
$MENU
  1
.
  9
$ELEVATION
 40
0.0
  9
$PELEVATION
 40
0.0
  9
$THICKNESS
 40
0.0
  9
$LIMCHECK
 70
     0
  9
$CHAMFERA
 40
0.5
  9
$CHAMFERB
 40
0.5
  9
$CHAMFERC
 40
1.0
  9
$CHAMFERD
 40
0.0
  9
$SKPOLY
 70
     0
  9
$TDCREATE
 40
2460242.409772431
  9
$TDUCREATE
 40
2460242.034772431
  9
$TDUPDATE
 40
2460242.409772442
  9
$TDUUPDATE
 40
2460242.034772442
  9
$TDINDWG
 40
0.0000000116
  9
$TDUSRTIMER
 40
0.0000000116
  9
$USRTIMER
 70
     1
  9
$ANGBASE
 50
0.0
  9
$ANGDIR
 70
     0
  9
$PDMODE
 70
    32
  9
$PDSIZE
 40
1.5
  9
$PLINEWID
 40
0.0
  9
$SPLFRAME
 70
     0
  9
$SPLINETYPE
 70
     6
  9
$SPLINESEGS
 70
     8
  9
$HANDSEED
  5
362
  9
$SURFTAB1
 70
     6
  9
$SURFTAB2
 70
     6
  9
$SURFTYPE
 70
     6
  9
$SURFU
 70
     6
  9
$SURFV
 70
     6
  9
$UCSBASE
  2

  9
$UCSNAME
  2

  9
$UCSORG
 10
0.0
 20
0.0
 30
0.0
  9
$UCSXDIR
 10
1.0
 20
0.0
 30
0.0
  9
$UCSYDIR
 10
0.0
 20
1.0
 30
0.0
  9
$UCSORTHOREF
  2

  9
$UCSORTHOVIEW
 70
     0
  9
$UCSORGTOP
 10
0.0
 20
0.0
 30
0.0
  9
$UCSORGBOTTOM
 10
0.0
 20
0.0
 30
0.0
  9
$UCSORGLEFT
 10
0.0
 20
0.0
 30
0.0
  9
$UCSORGRIGHT
 10
0.0
 20
0.0
 30
0.0
  9
$UCSORGFRONT
 10
0.0
 20
0.0
 30
0.0
  9
$UCSORGBACK
 10
0.0
 20
0.0
 30
0.0
  9
$PUCSBASE
  2

  9
$PUCSNAME
  2

  9
$PUCSORG
 10
0.0
 20
0.0
 30
0.0
  9
$PUCSXDIR
 10
1.0
 20
0.0
 30
0.0
  9
$PUCSYDIR
 10
0.0
 20
1.0
 30
0.0
  9
$PUCSORTHOREF
  2

  9
$PUCSORTHOVIEW
 70
     0
  9
$PUCSORGTOP
 10
0.0
 20
0.0
 30
0.0
  9
$PUCSORGBOTTOM
 10
0.0
 20
0.0
 30
0.0
  9
$PUCSORGLEFT
 10
0.0
 20
0.0
 30
0.0
  9
$PUCSORGRIGHT
 10
0.0
 20
0.0
 30
0.0
  9
$PUCSORGFRONT
 10
0.0
 20
0.0
 30
0.0
  9
$PUCSORGBACK
 10
0.0
 20
0.0
 30
0.0
  9
$USERI1
 70
     0
  9
$USERI2
 70
     0
  9
$USERI3
 70
     0
  9
$USERI4
 70
     0
  9
$USERI5
 70
     0
  9
$USERR1
 40
0.0
  9
$USERR2
 40
0.0
  9
$USERR3
 40
0.0
  9
$USERR4
 40
0.0
  9
$USERR5
 40
0.0
  9
$WORLDVIEW
 70
     1
  9
$SHADEDGE
 70
     3
  9
$SHADEDIF
 70
    70
  9
$TILEMODE
 70
     1
  9
$MAXACTVP
 70
    64
  9
$PINSBASE
 10
0.0
 20
0.0
 30
0.0
  9
$PLIMCHECK
 70
     0
  9
$PEXTMIN
 10
1.000000000000000E+20
 20
1.000000000000000E+20
 30
1.000000000000000E+20
  9
$PEXTMAX
 10
-1.000000000000000E+20
 20
-1.000000000000000E+20
 30
-1.000000000000000E+20
  9
$PLIMMIN
 10
0.0
 20
0.0
  9
$PLIMMAX
 10
12.0
 20
9.0
  9
$UNITMODE
 70
     0
  9
$VISRETAIN
 70
     1
  9
$PLINEGEN
 70
     0
  9
$PSLTSCALE
 70
     1
  9
$TREEDEPTH
 70
  3020
  9
$CMLSTYLE
  2
Standard
  9
$CMLJUST
 70
     0
  9
$CMLSCALE
 40
1.0
  9
$PROXYGRAPHICS
 70
     1
  9
$MEASUREMENT
 70
     0
  9
$CELWEIGHT
370
    -1
  9
$ENDCAPS
280
     0
  9
$JOINSTYLE
280
     0
  9
$LWDISPLAY
290
     0
  9
$INSUNITS
 70
     0
  9
$HYPERLINKBASE
  1

  9
$STYLESHEET
  1

  9
$XEDIT
290
     1
  9
$CEPSNTYPE
380
     0
  9
$PSTYLEMODE
290
     1
  9
$FINGERPRINTGUID
  2
{0E142E50-B486-40FA-B54E-4EFF30661C28}
  9
$VERSIONGUID
  2
{FAEB1C32-E019-11D5-929B-00C0DF256EC4}
  9
$EXTNAMES
290
     1
  9
$PSVPSCALE
 40
0.0
  9
$OLESTARTUP
290
     0
  9
$SORTENTS
280
   127
  9
$INDEXCTL
280
     0
  9
$HIDETEXT
280
     1
  9
$XCLIPFRAME
290
     0
  9
$HALOGAP
280
     0
  9
$OBSCOLOR
 70
   257
  9
$OBSLTYPE
280
     0
  9
$INTERSECTIONDISPLAY
280
     0
  9
$INTERSECTIONCOLOR
 70
   257
  9
$DIMASSOC
280
     2
  9
$PROJECTNAME
  1

  0
ENDSEC
  0
SECTION
  2
CLASSES
  0
CLASS
  1
ACDBDICTIONARYWDFLT
  2
AcDbDictionaryWithDefault
  3
ObjectDBX Classes
 90
        0
 91
        3
280
     0
281
     0
  0
ENDSEC
  0
SECTION
  2
TABLES
  0
TABLE
  2
VPORT
  5
8
330
0
100
AcDbSymbolTable
 70
     1
  0
VPORT
  5
35D
330
8
100
AcDbSymbolTableRecord
100
AcDbViewportTableRecord
  2
*Active
 70
     0
 10
0.0
 20
0.0
 11
1.0
 21
1.0
 12
10.42990654205607
 22
4.5
 13
0.0
 23
0.0
 14
0.5
 24
0.5
 15
0.5
 25
0.5
 16
0.0
 26
0.0
 36
1.0
 17
0.0
 27
0.0
 37
0.0
 40
9.0
 41
1.972972972850329
 42
50.0
 43
0.0
 44
0.0
 50
0.0
 51
0.0
 71
     0
 72
   100
 73
     1
 74
     3
 75
     0
 76
     0
 77
     0
 78
     0
281
     0
 65
     1
110
0.0
120
0.0
130
0.0
111
1.0
121
0.0
131
0.0
112
0.0
122
1.0
132
0.0
 79
     0
146
0.0
  0
ENDTAB
  0
TABLE
  2
LTYPE
  5
5
330
0
100
AcDbSymbolTable
 70
     9
  0
LTYPE
  5
14
330
5
100
AcDbSymbolTableRecord
100
AcDbLinetypeTableRecord
  2
ByBlock
 70
     0
  3

 72
    65
 73
     0
 40
0.0
  0
LTYPE
  5
15
330
5
100
AcDbSymbolTableRecord
100
AcDbLinetypeTableRecord
  2
ByLayer
 70
     0
  3

 72
    65
 73
     0
 40
0.0
  0
LTYPE
  5
16
330
5
100
AcDbSymbolTableRecord
100
AcDbLinetypeTableRecord
  2
CONTINUOUS
 70
     0
  3
実線
 72
    65
 73
     0
 40
0.0
  0
LTYPE
  5
21
330
5
100
AcDbSymbolTableRecord
100
AcDbLinetypeTableRecord
  2
DASHED
 70
     0
  3
破線A
 72
    65
 73
     2
 40
0.6000000000000001
 49
0.4
 74
     0
 49
-0.2
 74
     0
  0
LTYPE
  5
22
330
5
100
AcDbSymbolTableRecord
100
AcDbLinetypeTableRecord
  2
DASHEDX2
 70
     0
  3
破線B
 72
    65
 73
     2
 40
1.3
 49
0.9
 74
     0
 49
-0.4
 74
     0
  0
LTYPE
  5
23
330
5
100
AcDbSymbolTableRecord
100
AcDbLinetypeTableRecord
  2
DASHDOT
 70
     0
  3
１点鎖線A
 72
    65
 73
     4
 40
0.5375
 49
0.375
 74
     0
 49
-0.05
 74
     0
 49
0.0625
 74
     0
 49
-0.05
 74
     0
  0
LTYPE
  5
24
330
5
100
AcDbSymbolTableRecord
100
AcDbLinetypeTableRecord
  2
DASHDOTX2
 70
     0
  3
１点鎖線B
 72
    65
 73
     4
 40
1.075
 49
0.75
 74
     0
 49
-0.1
 74
     0
 49
0.125
 74
     0
 49
-0.1
 74
     0
  0
LTYPE
  5
25
330
5
100
AcDbSymbolTableRecord
100
AcDbLinetypeTableRecord
  2
DIVIDE2
 70
     0
  3
２点鎖線A
 72
    65
 73
     6
 40
0.5125
 49
0.3
 74
     0
 49
-0.0375
 74
     0
 49
0.05
 74
     0
 49
-0.0375
 74
     0
 49
0.05
 74
     0
 49
-0.0375
 74
     0
  0
LTYPE
  5
26
330
5
100
AcDbSymbolTableRecord
100
AcDbLinetypeTableRecord
  2
DIVIDE
 70
     0
  3
２点鎖線B
 72
    65
 73
     6
 40
1.05
 49
0.55
 74
     0
 49
-0.1
 74
     0
 49
0.1
 74
     0
 49
-0.1
 74
     0
 49
0.1
 74
     0
 49
-0.1
 74
     0
  0
LTYPE
  5
27
330
5
100
AcDbSymbolTableRecord
100
AcDbLinetypeTableRecord
  2
DOT
 70
     0
  3
点線A
 72
    65
 73
     2
 40
0.1125
 49
0.0625
 74
     0
 49
-0.05
 74
     0
  0
LTYPE
  5
28
330
5
100
AcDbSymbolTableRecord
100
AcDbLinetypeTableRecord
  2
DOTX2
 70
     0
  3
点線B
 72
    65
 73
     2
 40
0.275
 49
0.15
 74
     0
 49
-0.125
 74
     0
  0
ENDTAB
  0
TABLE
  2
LAYER
  5
2
330
0
100
AcDbSymbolTable
 70
    34
  0
LAYER
  5
10
330
2
100
AcDbSymbolTableRecord
100
AcDbLayerTableRecord
  2
0
 70
     0
 62
    17
  6
CONTINUOUS
370
    -3
390
F
  0
LAYER
  5
2F
330
2
100
AcDbSymbolTableRecord
100
AcDbLayerTableRecord
  2
通り芯
 70
     0
 62
    15
  6
CONTINUOUS
370
    -3
390
F
  0
LAYER
  5
30
330
2
100
AcDbSymbolTableRecord
100
AcDbLayerTableRecord
  2
補助線
 70
     0
 62
    16
  6
DOT
370
    -3
390
F
  0
LAYER
  5
31
330
2
100
AcDbSymbolTableRecord
100
AcDbLayerTableRecord
  2
躯体
 70
     0
 62
    31
  6
CONTINUOUS
370
    -3
390
F
  0
LAYER
  5
32
330
2
100
AcDbSymbolTableRecord
100
AcDbLayerTableRecord
  2
型材
 70
     0
 62
    32
  6
CONTINUOUS
370
    -3
390
F
  0
LAYER
  5
33
330
2
100
AcDbSymbolTableRecord
100
AcDbLayerTableRecord
  2
型材断面
 70
     0
 62
    47
  6
CONTINUOUS
370
    -3
390
F
  0
LAYER
  5
34
330
2
100
AcDbSymbolTableRecord
100
AcDbLayerTableRecord
  2
ガラス
 70
     0
 62
    48
  6
CONTINUOUS
370
    -3
390
F
  0
LAYER
  5
35
330
2
100
AcDbSymbolTableRecord
100
AcDbLayerTableRecord
  2
ゴム等
 70
     0
 62
    63
  6
CONTINUOUS
370
    -3
390
F
  0
LAYER
  5
36
330
2
100
AcDbSymbolTableRecord
100
AcDbLayerTableRecord
  2
ボルト／ビス
 70
     0
 62
    64
  6
CONTINUOUS
370
    -3
390
F
  0
LAYER
  5
37
330
2
100
AcDbSymbolTableRecord
100
AcDbLayerTableRecord
  2
文字
 70
     0
 62
    79
  6
CONTINUOUS
370
    -3
390
F
  0
LAYER
  5
38
330
2
100
AcDbSymbolTableRecord
100
AcDbLayerTableRecord
  2
寸法
 70
     0
 62
    80
  6
CONTINUOUS
370
    -3
390
F
  0
LAYER
  5
39
330
2
100
AcDbSymbolTableRecord
100
AcDbLayerTableRecord
  2
ﾊｯﾁﾝｸﾞ
 70
     0
 62
    95
  6
CONTINUOUS
370
    -3
390
F
  0
LAYER
  5
3A
330
2
100
AcDbSymbolTableRecord
100
AcDbLayerTableRecord
  2
別途部材
 70
     0
 62
    96
  6
CONTINUOUS
370
    -3
390
F
  0
LAYER
  5
3B
330
2
100
AcDbSymbolTableRecord
100
AcDbLayerTableRecord
  2
曲げ物
 70
     0
 62
   111
  6
CONTINUOUS
370
    -3
390
F
  0
LAYER
  5
3C
330
2
100
AcDbSymbolTableRecord
100
AcDbLayerTableRecord
  2
鉄骨等
 70
     0
 62
   112
  6
CONTINUOUS
370
    -3
390
F
  0
LAYER
  5
3D
330
2
100
AcDbSymbolTableRecord
100
AcDbLayerTableRecord
  2
St
 70
     0
 62
   127
  6
CONTINUOUS
370
    -3
390
F
  0
LAYER
  5
3E
330
2
100
AcDbSymbolTableRecord
100
AcDbLayerTableRecord
  2
その他部品等
 70
     0
 62
   128
  6
CONTINUOUS
370
    -3
390
F
  0
LAYER
  5
3F
330
2
100
AcDbSymbolTableRecord
100
AcDbLayerTableRecord
  2
ｶﾞｽｹｯﾄ
 70
     0
 62
   143
  6
CONTINUOUS
370
    -3
390
F
  0
LAYER
  5
40
330
2
100
AcDbSymbolTableRecord
100
AcDbLayerTableRecord
  2
ｽｹｯﾁ
 70
     0
 62
    14
  6
CONTINUOUS
370
    -3
390
F
  0
LAYER
  5
42
330
2
100
AcDbSymbolTableRecord
100
AcDbLayerTableRecord
  2
1
 70
     0
 62
    30
  6
CONTINUOUS
370
    -3
390
F
  0
LAYER
  5
43
330
2
100
AcDbSymbolTableRecord
100
AcDbLayerTableRecord
  2
4
 70
     0
 62
    33
  6
CONTINUOUS
370
    -3
390
F
  0
LAYER
  5
44
330
2
100
AcDbSymbolTableRecord
100
AcDbLayerTableRecord
  2
ﾚｲﾔ3
 70
     0
 62
    46
  6
CONTINUOUS
370
    -3
390
F
  0
LAYER
  5
45
330
2
100
AcDbSymbolTableRecord
100
AcDbLayerTableRecord
  2
外形線
 70
     0
 62
    49
  6
CONTINUOUS
370
    -3
390
F
  0
LAYER
  5
46
330
2
100
AcDbSymbolTableRecord
100
AcDbLayerTableRecord
  2
部品
 70
     0
 62
    14
  6
CONTINUOUS
370
    -3
390
F
  0
LAYER
  5
47
330
2
100
AcDbSymbolTableRecord
100
AcDbLayerTableRecord
  2
サッシ芯
 70
     0
 62
    17
  6
DASHDOTX2
370
    -3
390
F
  0
LAYER
  5
48
330
2
100
AcDbSymbolTableRecord
100
AcDbLayerTableRecord
  2
寸法線
 70
     0
 62
    62
  6
CONTINUOUS
370
    -3
390
F
  0
LAYER
  5
49
330
2
100
AcDbSymbolTableRecord
100
AcDbLayerTableRecord
  2
姿図外形線
 70
     0
 62
    65
  6
CONTINUOUS
370
    -3
390
F
  0
LAYER
  5
4A
330
2
100
AcDbSymbolTableRecord
100
AcDbLayerTableRecord
  2
姿補助線
 70
     0
 62
    30
  6
CONTINUOUS
370
    -3
390
F
  0
LAYER
  5
4B
330
2
100
AcDbSymbolTableRecord
100
AcDbLayerTableRecord
  2
透視線
 70
     0
 62
    78
  6
DOT
370
    -3
390
F
  0
LAYER
  5
4C
330
2
100
AcDbSymbolTableRecord
100
AcDbLayerTableRecord
  2
用紙
 70
     0
 62
    81
  6
CONTINUOUS
370
    -3
390
F
  0
LAYER
  5
4D
330
2
100
AcDbSymbolTableRecord
100
AcDbLayerTableRecord
  2
実線図枠
 70
     0
 62
    94
  6
CONTINUOUS
370
    -3
390
F
  0
LAYER
  5
4E
330
2
100
AcDbSymbolTableRecord
100
AcDbLayerTableRecord
  2
補助図枠
 70
     0
 62
    97
  6
CONTINUOUS
370
    -3
390
F
  0
LAYER
  5
4F
330
2
100
AcDbSymbolTableRecord
100
AcDbLayerTableRecord
  2
建具記号
 70
     0
 62
   110
  6
CONTINUOUS
370
    -3
390
F
  0
LAYER
  5
50
330
2
100
AcDbSymbolTableRecord
100
AcDbLayerTableRecord
  2
補助文字
 70
     0
 62
   113
  6
CONTINUOUS
370
    -3
390
F
  0
ENDTAB
  0
TABLE
  2
STYLE
  5
3
330
0
100
AcDbSymbolTable
 70
    10
  0
STYLE
  5
11
330
3
100
AcDbSymbolTableRecord
100
AcDbTextStyleTableRecord
  2
STANDARD
 70
     0
 40
1.0
 41
1.0
 50
0.0
 71
     0
 42
1.0
  3
TXT
  4
BIGFONT
  0
STYLE
  5
52
330
3
100
AcDbSymbolTableRecord
100
AcDbTextStyleTableRecord
  2
TATE
 70
     4
 40
1.0
 41
1.0
 50
0.0
 71
     0
 42
1.0
  3
TXT
  4
BIGFONT
  0
STYLE
  5
53
330
3
100
AcDbSymbolTableRecord
100
AcDbTextStyleTableRecord
  2
TextStyle03
 70
     0
 40
1.0
 41
1.0
 50
0.0
 71
     0
 42
1.0
  3
MONOTXT
  4
BIGFONT
  0
STYLE
  5
54
330
3
100
AcDbSymbolTableRecord
100
AcDbTextStyleTableRecord
  2
TextStyle04
 70
     0
 40
1.0
 41
1.0
 50
0.0
 71
     0
 42
1.0
  3
MONOTXT
  4
BIGFONT
  0
STYLE
  5
55
330
3
100
AcDbSymbolTableRecord
100
AcDbTextStyleTableRecord
  2
TextStyle05
 70
     0
 40
1.0
 41
1.0
 50
0.0
 71
     0
 42
1.0
  3
MONOTXT
  4
BIGFONT
  0
STYLE
  5
56
330
3
100
AcDbSymbolTableRecord
100
AcDbTextStyleTableRecord
  2
TextStyle06
 70
     0
 40
1.0
 41
1.0
 50
0.0
 71
     0
 42
1.0
  3
MONOTXT
  4
BIGFONT
  0
STYLE
  5
57
330
3
100
AcDbSymbolTableRecord
100
AcDbTextStyleTableRecord
  2
TextStyle07
 70
     0
 40
1.0
 41
1.0
 50
0.0
 71
     0
 42
1.0
  3
MONOTXT
  4
BIGFONT
  0
STYLE
  5
58
330
3
100
AcDbSymbolTableRecord
100
AcDbTextStyleTableRecord
  2
TextStyle08
 70
     0
 40
1.0
 41
1.0
 50
0.0
 71
     0
 42
1.0
  3
MONOTXT
  4
BIGFONT
  0
STYLE
  5
59
330
3
100
AcDbSymbolTableRecord
100
AcDbTextStyleTableRecord
  2
TextStyle09
 70
     0
 40
1.0
 41
1.0
 50
0.0
 71
     0
 42
1.0
  3
MONOTXT
  4
BIGFONT
  0
STYLE
  5
5A
330
3
100
AcDbSymbolTableRecord
100
AcDbTextStyleTableRecord
  2
TextStyle10
 70
     0
 40
1.0
 41
1.0
 50
0.0
 71
     0
 42
1.0
  3
MONOTXT
  4
BIGFONT
  0
ENDTAB
  0
TABLE
  2
VIEW
  5
6
330
0
100
AcDbSymbolTable
 70
     0
  0
ENDTAB
  0
TABLE
  2
UCS
  5
7
330
0
100
AcDbSymbolTable
 70
     0
  0
ENDTAB
  0
TABLE
  2
APPID
  5
9
330
0
100
AcDbSymbolTable
 70
     1
  0
APPID
  5
12
330
9
100
AcDbSymbolTableRecord
100
AcDbRegAppTableRecord
  2
ACAD
 70
     0
  0
ENDTAB
  0
TABLE
  2
DIMSTYLE
  5
A
330
0
100
AcDbSymbolTable
 70
     1
100
AcDbDimStyleTable
  0
DIMSTYLE
105
5B
330
A
100
AcDbSymbolTableRecord
100
AcDbDimStyleTableRecord
  2
Standard
 70
     0
340
11
  0
ENDTAB
  0
TABLE
  2
BLOCK_RECORD
  5
1
330
0
100
AcDbSymbolTable
 70
    27
  0
BLOCK_RECORD
  5
1D
330
1
100
AcDbSymbolTableRecord
100
AcDbBlockTableRecord
  2
*Model_Space
340
1E
  0
BLOCK_RECORD
  5
1B
330
1
100
AcDbSymbolTableRecord
100
AcDbBlockTableRecord
  2
*Paper_Space
340
1C
  0
BLOCK_RECORD
  5
5D
330
1
100
AcDbSymbolTableRecord
100
AcDbBlockTableRecord
  2
*U0
340
0
102
{BLKREFS
331
2A9
102
}
  0
BLOCK_RECORD
  5
66
330
1
100
AcDbSymbolTableRecord
100
AcDbBlockTableRecord
  2
*U1
340
0
102
{BLKREFS
331
320
102
}
  0
BLOCK_RECORD
  5
6D
330
1
100
AcDbSymbolTableRecord
100
AcDbBlockTableRecord
  2
*U2
340
0
102
{BLKREFS
331
321
102
}
  0
BLOCK_RECORD
  5
76
330
1
100
AcDbSymbolTableRecord
100
AcDbBlockTableRecord
  2
*U3
340
0
102
{BLKREFS
331
322
102
}
  0
BLOCK_RECORD
  5
7D
330
1
100
AcDbSymbolTableRecord
100
AcDbBlockTableRecord
  2
*U4
340
0
102
{BLKREFS
331
354
102
}
  0
BLOCK_RECORD
  5
1B0
330
1
100
AcDbSymbolTableRecord
100
AcDbBlockTableRecord
  2
*U5
340
0
102
{BLKREFS
331
323
102
}
  0
BLOCK_RECORD
  5
1B7
330
1
100
AcDbSymbolTableRecord
100
AcDbBlockTableRecord
  2
*U6
340
0
102
{BLKREFS
331
324
102
}
  0
BLOCK_RECORD
  5
1BF
330
1
100
AcDbSymbolTableRecord
100
AcDbBlockTableRecord
  2
*U7
340
0
102
{BLKREFS
331
325
102
}
  0
BLOCK_RECORD
  5
1C8
330
1
100
AcDbSymbolTableRecord
100
AcDbBlockTableRecord
  2
*U8
340
0
102
{BLKREFS
331
326
102
}
  0
BLOCK_RECORD
  5
1D0
330
1
100
AcDbSymbolTableRecord
100
AcDbBlockTableRecord
  2
*U9
340
0
102
{BLKREFS
331
327
102
}
  0
BLOCK_RECORD
  5
1D9
330
1
100
AcDbSymbolTableRecord
100
AcDbBlockTableRecord
  2
*U10
340
0
102
{BLKREFS
331
328
102
}
  0
BLOCK_RECORD
  5
1E2
330
1
100
AcDbSymbolTableRecord
100
AcDbBlockTableRecord
  2
*U11
340
0
102
{BLKREFS
331
329
102
}
  0
BLOCK_RECORD
  5
1EB
330
1
100
AcDbSymbolTableRecord
100
AcDbBlockTableRecord
  2
*U12
340
0
102
{BLKREFS
331
32A
102
}
  0
BLOCK_RECORD
  5
1F2
330
1
100
AcDbSymbolTableRecord
100
AcDbBlockTableRecord
  2
*U13
340
0
102
{BLKREFS
331
32B
102
}
  0
BLOCK_RECORD
  5
1F9
330
1
100
AcDbSymbolTableRecord
100
AcDbBlockTableRecord
  2
*U14
340
0
102
{BLKREFS
331
32C
102
}
  0
BLOCK_RECORD
  5
200
330
1
100
AcDbSymbolTableRecord
100
AcDbBlockTableRecord
  2
*U15
340
0
102
{BLKREFS
331
32D
102
}
  0
BLOCK_RECORD
  5
207
330
1
100
AcDbSymbolTableRecord
100
AcDbBlockTableRecord
  2
*U16
340
0
102
{BLKREFS
331
32E
102
}
  0
BLOCK_RECORD
  5
20E
330
1
100
AcDbSymbolTableRecord
100
AcDbBlockTableRecord
  2
*U17
340
0
102
{BLKREFS
331
32F
102
}
  0
BLOCK_RECORD
  5
216
330
1
100
AcDbSymbolTableRecord
100
AcDbBlockTableRecord
  2
*U18
340
0
102
{BLKREFS
331
330
102
}
  0
BLOCK_RECORD
  5
21E
330
1
100
AcDbSymbolTableRecord
100
AcDbBlockTableRecord
  2
*U19
340
0
102
{BLKREFS
331
331
102
}
  0
BLOCK_RECORD
  5
226
330
1
100
AcDbSymbolTableRecord
100
AcDbBlockTableRecord
  2
*U20
340
0
102
{BLKREFS
331
332
102
}
  0
BLOCK_RECORD
  5
22E
330
1
100
AcDbSymbolTableRecord
100
AcDbBlockTableRecord
  2
*U21
340
0
102
{BLKREFS
331
333
102
}
  0
BLOCK_RECORD
  5
237
330
1
100
AcDbSymbolTableRecord
100
AcDbBlockTableRecord
  2
*U22
340
0
102
{BLKREFS
331
334
102
}
  0
BLOCK_RECORD
  5
240
330
1
100
AcDbSymbolTableRecord
100
AcDbBlockTableRecord
  2
*U23
340
0
102
{BLKREFS
331
355
102
}
  0
BLOCK_RECORD
  5
259
330
1
100
AcDbSymbolTableRecord
100
AcDbBlockTableRecord
  2
*U24
340
0
102
{BLKREFS
331
356
102
}
  0
BLOCK_RECORD
  5
272
330
1
100
AcDbSymbolTableRecord
100
AcDbBlockTableRecord
  2
*U25
340
0
102
{BLKREFS
331
357
102
}
  0
BLOCK_RECORD
  5
28B
330
1
100
AcDbSymbolTableRecord
100
AcDbBlockTableRecord
  2
*U26
340
0
102
{BLKREFS
331
358
102
}
  0
ENDTAB
  0
ENDSEC
  0
SECTION
  2
BLOCKS
  0
BLOCK
  5
35E
330
1D
100
AcDbEntity
  8
0
100
AcDbBlockBegin
  2
*Model_Space
 70
     0
 71
     0
 10
0.0
 20
0.0
 30
0.0
  3
*Model_Space
  1

  0
ENDBLK
  5
35F
330
1D
100
AcDbEntity
  8
0
100
AcDbBlockEnd
  0
BLOCK
  5
360
330
1B
100
AcDbEntity
 67
     1
  8
0
100
AcDbBlockBegin
  2
*Paper_Space
 70
     0
 71
     0
 10
0.0
 20
0.0
 30
0.0
  3
*Paper_Space
  1

  0
ENDBLK
  5
361
330
1B
100
AcDbEntity
 67
     1
  8
0
100
AcDbBlockEnd
  0
BLOCK
  5
5C
330
5D
100
AcDbEntity
  8
0
100
AcDbBlockBegin
  2
*U0
 70
     1
 71
     0
 10
0.0
 20
0.0
 30
0.0
  3
*U0
  1

  0
LINE
  5
5E
330
5D
100
AcDbEntity
  8
型材断面
  6
Continuous
100
AcDbLine
 10
195.0
 20
133.5
 30
0.0
 11
195.0
 21
-133.5
 31
0.0
  0
LINE
  5
5F
330
5D
100
AcDbEntity
  8
型材断面
  6
Continuous
100
AcDbLine
 10
195.0
 20
-133.5
 30
0.0
 11
-185.0
 21
-133.5
 31
0.0
  0
LINE
  5
60
330
5D
100
AcDbEntity
  8
型材断面
  6
Continuous
100
AcDbLine
 10
-185.0
 20
-133.5
 30
0.0
 11
-185.0
 21
133.5
 31
0.0
  0
LINE
  5
61
330
5D
100
AcDbEntity
  8
型材断面
  6
Continuous
100
AcDbLine
 10
195.0
 20
133.5
 30
0.0
 11
-185.0
 21
133.5
 31
0.0
  0
LINE
  5
62
330
5D
100
AcDbEntity
  8
型材断面
  6
Continuous
100
AcDbLine
 10
145.0
 20
-133.5
 30
0.0
 11
145.0
 21
-118.5
 31
0.0
  0
LINE
  5
63
330
5D
100
AcDbEntity
  8
型材断面
  6
Continuous
100
AcDbLine
 10
195.0
 20
-118.5
 30
0.0
 11
145.0
 21
-118.5
 31
0.0
  0
ENDBLK
  5
64
330
5D
100
AcDbEntity
  8
0
100
AcDbBlockEnd
  0
BLOCK
  5
65
330
66
100
AcDbEntity
  8
0
100
AcDbBlockBegin
  2
*U1
 70
     1
 71
     0
 10
0.0
 20
0.0
 30
0.0
  3
*U1
  1

  0
LINE
  5
67
330
66
100
AcDbEntity
  8
寸法
  6
ByBlock
 62
     0
100
AcDbLine
 10
46.224393
 20
-13.121378
 30
0.0
 11
-120.442275
 21
-13.121378
 31
0.0
  0
POINT
  5
68
330
66
100
AcDbEntity
  8
寸法
 62
     0
100
AcDbPoint
 10
46.224393
 20
-13.121378
 30
0.0
  0
POINT
  5
69
330
66
100
AcDbEntity
  8
寸法
 62
     0
100
AcDbPoint
 10
-120.442275
 20
-13.121378
 30
0.0
  0
TEXT
  5
6A
330
66
100
AcDbEntity
  8
寸法
  6
Continuous
 62
     0
100
AcDbText
 10
-48.84375
 20
-12.75
 30
0.0
 40
3.0
  1
呼称寸法　5000
  7
TextStyle03
 72
     5
 11
-25.40625
 21
-12.75
 31
0.0
100
AcDbText
  0
ENDBLK
  5
6B
330
66
100
AcDbEntity
  8
0
100
AcDbBlockEnd
  0
BLOCK
  5
6C
330
6D
100
AcDbEntity
  8
0
100
AcDbBlockBegin
  2
*U2
 70
     1
 71
     0
 10
0.0
 20
0.0
 30
0.0
  3
*U2
  1

  0
LINE
  5
6E
330
6D
100
AcDbEntity
  8
寸法
  6
ByBlock
 62
     0
100
AcDbLine
 10
-103.775608
 20
19.183902
 30
0.0
 11
-103.775608
 21
14.041447
 31
0.0
  0
LINE
  5
6F
330
6D
100
AcDbEntity
  8
寸法
  6
ByBlock
 62
     0
100
AcDbLine
 10
-37.10894
 20
19.183905
 30
0.0
 11
-37.10894
 21
14.041447
 31
0.0
  0
LINE
  5
70
330
6D
100
AcDbEntity
  8
寸法
  6
ByBlock
 62
     0
100
AcDbLine
 10
-103.775608
 20
14.041447
 30
0.0
 11
-37.10894
 21
14.041447
 31
0.0
  0
POINT
  5
71
330
6D
100
AcDbEntity
  8
寸法
 62
     0
100
AcDbPoint
 10
-103.775608
 20
14.041447
 30
0.0
  0
POINT
  5
72
330
6D
100
AcDbEntity
  8
寸法
 62
     0
100
AcDbPoint
 10
-37.10894
 20
14.041447
 30
0.0
  0
TEXT
  5
73
330
6D
100
AcDbEntity
  8
寸法
  6
Continuous
 62
     0
100
AcDbText
 10
-73.73125
 20
14.4
 30
0.0
 40
3.0
  1
2000
  7
TextStyle03
 72
     5
 11
-67.16875
 21
14.4
 31
0.0
100
AcDbText
  0
ENDBLK
  5
74
330
6D
100
AcDbEntity
  8
0
100
AcDbBlockEnd
  0
BLOCK
  5
75
330
76
100
AcDbEntity
  8
0
100
AcDbBlockBegin
  2
*U3
 70
     1
 71
     0
 10
0.0
 20
0.0
 30
0.0
  3
*U3
  1

  0
LINE
  5
77
330
76
100
AcDbEntity
  8
寸法
  6
ByBlock
 62
     0
100
AcDbLine
 10
29.557727
 20
19.183902
 30
0.0
 11
29.557727
 21
14.041447
 31
0.0
  0
LINE
  5
78
330
76
100
AcDbEntity
  8
寸法
  6
ByBlock
 62
     0
100
AcDbLine
 10
-37.10894
 20
14.041447
 30
0.0
 11
29.557727
 21
14.041447
 31
0.0
  0
POINT
  5
79
330
76
100
AcDbEntity
  8
寸法
 62
     0
100
AcDbPoint
 10
29.557727
 20
14.041447
 30
0.0
  0
TEXT
  5
7A
330
76
100
AcDbEntity
  8
寸法
  6
Continuous
 62
     0
100
AcDbText
 10
-7.08125
 20
14.4
 30
0.0
 40
3.0
  1
2000
  7
TextStyle03
 72
     5
 11
-0.51875
 21
14.4
 31
0.0
100
AcDbText
  0
ENDBLK
  5
7B
330
76
100
AcDbEntity
  8
0
100
AcDbBlockEnd
  0
BLOCK
  5
7C
330
7D
100
AcDbEntity
  8
0
100
AcDbBlockBegin
  2
*U4
 70
     1
 71
     0
 10
0.0
 20
0.0
 30
0.0
  3
*U4
  1

  0
LINE
  5
7E
330
7D
100
AcDbEntity
  8
別途部材
  6
Continuous
 62
    96
100
AcDbLine
 10
-122.10894
 20
-70.209613
 30
0.0
 11
-122.50894
 21
-71.209613
 31
0.0
  0
ARC
  5
7F
330
7D
100
AcDbEntity
  8
別途部材
  6
Continuous
100
AcDbCircle
 10
-110.442273
 20
-76.91794400000001
 30
0.0
 40
12.041668
100
AcDbArc
 50
90.0
 51
146.144967
  0
LINE
  5
80
330
7D
100
AcDbEntity
  8
別途部材
  6
Continuous
 62
    96
100
AcDbLine
 10
-122.10894
 20
-70.209613
 30
0.0
 11
-37.10894
 21
-70.209613
 31
0.0
  0
LINE
  5
81
330
7D
100
AcDbEntity
  8
別途部材
  6
Continuous
100
AcDbLine
 10
-122.50894
 20
-71.209613
 30
0.0
 11
-37.10894
 21
-71.209613
 31
0.0
  0
LINE
  5
82
330
7D
100
AcDbEntity
  8
別途部材
  6
Continuous
100
AcDbLine
 10
-37.60894
 20
-63.87628
 30
0.0
 11
-38.60894
 21
-64.87627999999999
 31
0.0
  0
LINE
  5
83
330
7D
100
AcDbEntity
  8
別途部材
  6
Continuous
100
AcDbLine
 10
-39.60894
 20
-64.87627999999999
 30
0.0
 11
-40.60894
 21
-63.87628
 31
0.0
  0
LINE
  5
84
330
7D
100
AcDbEntity
  8
別途部材
  6
Continuous
100
AcDbLine
 10
-41.60894
 20
-63.87628
 30
0.0
 11
-42.60894
 21
-64.87627999999999
 31
0.0
  0
LINE
  5
85
330
7D
100
AcDbEntity
  8
別途部材
  6
Continuous
100
AcDbLine
 10
-40.60894
 20
-63.87628
 30
0.0
 11
-41.60894
 21
-63.87628
 31
0.0
  0
LINE
  5
86
330
7D
100
AcDbEntity
  8
別途部材
  6
Continuous
100
AcDbLine
 10
-37.60894
 20
-63.87628
 30
0.0
 11
-37.10894
 21
-63.87628
 31
0.0
  0
LINE
  5
87
330
7D
100
AcDbEntity
  8
別途部材
  6
Continuous
100
AcDbLine
 10
-43.60894
 20
-64.87627999999999
 30
0.0
 11
-44.60894
 21
-63.87628
 31
0.0
  0
LINE
  5
88
330
7D
100
AcDbEntity
  8
別途部材
  6
Continuous
100
AcDbLine
 10
-45.60894
 20
-63.87628
 30
0.0
 11
-46.60894
 21
-64.87627999999999
 31
0.0
  0
LINE
  5
89
330
7D
100
AcDbEntity
  8
別途部材
  6
Continuous
100
AcDbLine
 10
-44.60894
 20
-63.87628
 30
0.0
 11
-45.60894
 21
-63.87628
 31
0.0
  0
LINE
  5
8A
330
7D
100
AcDbEntity
  8
別途部材
  6
Continuous
100
AcDbLine
 10
-47.60894
 20
-64.87627999999999
 30
0.0
 11
-48.60894
 21
-63.87628
 31
0.0
  0
LINE
  5
8B
330
7D
100
AcDbEntity
  8
別途部材
  6
Continuous
100
AcDbLine
 10
-49.60894
 20
-63.87628
 30
0.0
 11
-50.60894
 21
-64.87627999999999
 31
0.0
  0
LINE
  5
8C
330
7D
100
AcDbEntity
  8
別途部材
  6
Continuous
100
AcDbLine
 10
-48.60894
 20
-63.87628
 30
0.0
 11
-49.60894
 21
-63.87628
 31
0.0
  0
LINE
  5
8D
330
7D
100
AcDbEntity
  8
別途部材
  6
Continuous
100
AcDbLine
 10
-51.60894
 20
-64.87627999999999
 30
0.0
 11
-52.60894
 21
-63.87628
 31
0.0
  0
LINE
  5
8E
330
7D
100
AcDbEntity
  8
別途部材
  6
Continuous
100
AcDbLine
 10
-53.60894
 20
-63.87628
 30
0.0
 11
-54.60894
 21
-64.87627999999999
 31
0.0
  0
LINE
  5
8F
330
7D
100
AcDbEntity
  8
別途部材
  6
Continuous
100
AcDbLine
 10
-52.60894
 20
-63.87628
 30
0.0
 11
-53.60894
 21
-63.87628
 31
0.0
  0
LINE
  5
90
330
7D
100
AcDbEntity
  8
別途部材
  6
Continuous
100
AcDbLine
 10
-55.60894
 20
-64.87627999999999
 30
0.0
 11
-56.60894
 21
-63.87628
 31
0.0
  0
LINE
  5
91
330
7D
100
AcDbEntity
  8
別途部材
  6
Continuous
100
AcDbLine
 10
-57.60894
 20
-63.87628
 30
0.0
 11
-58.60894
 21
-64.87627999999999
 31
0.0
  0
LINE
  5
92
330
7D
100
AcDbEntity
  8
別途部材
  6
Continuous
100
AcDbLine
 10
-56.60894
 20
-63.87628
 30
0.0
 11
-57.60894
 21
-63.87628
 31
0.0
  0
LINE
  5
93
330
7D
100
AcDbEntity
  8
別途部材
  6
Continuous
100
AcDbLine
 10
-59.60894
 20
-64.87627999999999
 30
0.0
 11
-60.60894
 21
-63.87628
 31
0.0
  0
LINE
  5
94
330
7D
100
AcDbEntity
  8
別途部材
  6
Continuous
100
AcDbLine
 10
-61.60894
 20
-63.87628
 30
0.0
 11
-62.60894
 21
-64.87627999999999
 31
0.0
  0
LINE
  5
95
330
7D
100
AcDbEntity
  8
別途部材
  6
Continuous
100
AcDbLine
 10
-60.60894
 20
-63.87628
 30
0.0
 11
-61.60894
 21
-63.87628
 31
0.0
  0
LINE
  5
96
330
7D
100
AcDbEntity
  8
別途部材
  6
Continuous
100
AcDbLine
 10
-63.60894
 20
-64.87627999999999
 30
0.0
 11
-64.60894
 21
-63.87628
 31
0.0
  0
LINE
  5
97
330
7D
100
AcDbEntity
  8
別途部材
  6
Continuous
100
AcDbLine
 10
-65.60894
 20
-63.87628
 30
0.0
 11
-66.60894
 21
-64.87627999999999
 31
0.0
  0
LINE
  5
98
330
7D
100
AcDbEntity
  8
別途部材
  6
Continuous
100
AcDbLine
 10
-64.60894
 20
-63.87628
 30
0.0
 11
-65.60894
 21
-63.87628
 31
0.0
  0
LINE
  5
99
330
7D
100
AcDbEntity
  8
別途部材
  6
Continuous
100
AcDbLine
 10
-67.60894
 20
-64.87627999999999
 30
0.0
 11
-68.60894
 21
-63.87628
 31
0.0
  0
LINE
  5
9A
330
7D
100
AcDbEntity
  8
別途部材
  6
Continuous
100
AcDbLine
 10
-69.60894
 20
-63.87628
 30
0.0
 11
-70.60894
 21
-64.87627999999999
 31
0.0
  0
LINE
  5
9B
330
7D
100
AcDbEntity
  8
別途部材
  6
Continuous
100
AcDbLine
 10
-68.60894
 20
-63.87628
 30
0.0
 11
-69.60894
 21
-63.87628
 31
0.0
  0
LINE
  5
9C
330
7D
100
AcDbEntity
  8
別途部材
  6
Continuous
100
AcDbLine
 10
-71.60894
 20
-64.87627999999999
 30
0.0
 11
-72.60894
 21
-63.87628
 31
0.0
  0
LINE
  5
9D
330
7D
100
AcDbEntity
  8
別途部材
  6
Continuous
100
AcDbLine
 10
-73.60894
 20
-63.87628
 30
0.0
 11
-74.60894
 21
-64.87627999999999
 31
0.0
  0
LINE
  5
9E
330
7D
100
AcDbEntity
  8
別途部材
  6
Continuous
100
AcDbLine
 10
-72.60894
 20
-63.87628
 30
0.0
 11
-73.60894
 21
-63.87628
 31
0.0
  0
LINE
  5
9F
330
7D
100
AcDbEntity
  8
別途部材
  6
Continuous
100
AcDbLine
 10
-75.60894
 20
-64.87627999999999
 30
0.0
 11
-76.60894
 21
-63.87628
 31
0.0
  0
LINE
  5
A0
330
7D
100
AcDbEntity
  8
別途部材
  6
Continuous
100
AcDbLine
 10
-77.60894
 20
-63.87628
 30
0.0
 11
-78.60894
 21
-64.87627999999999
 31
0.0
  0
LINE
  5
A1
330
7D
100
AcDbEntity
  8
別途部材
  6
Continuous
100
AcDbLine
 10
-76.60894
 20
-63.87628
 30
0.0
 11
-77.60894
 21
-63.87628
 31
0.0
  0
LINE
  5
A2
330
7D
100
AcDbEntity
  8
別途部材
  6
Continuous
100
AcDbLine
 10
-79.60894
 20
-64.87627999999999
 30
0.0
 11
-80.60894
 21
-63.87628
 31
0.0
  0
LINE
  5
A3
330
7D
100
AcDbEntity
  8
別途部材
  6
Continuous
100
AcDbLine
 10
-81.60894
 20
-63.87628
 30
0.0
 11
-82.60894
 21
-64.87627999999999
 31
0.0
  0
LINE
  5
A4
330
7D
100
AcDbEntity
  8
別途部材
  6
Continuous
100
AcDbLine
 10
-80.60894
 20
-63.87628
 30
0.0
 11
-81.60894
 21
-63.87628
 31
0.0
  0
LINE
  5
A5
330
7D
100
AcDbEntity
  8
別途部材
  6
Continuous
100
AcDbLine
 10
-78.60894
 20
-64.87627999999999
 30
0.0
 11
-79.60894
 21
-64.87627999999999
 31
0.0
  0
LINE
  5
A6
330
7D
100
AcDbEntity
  8
別途部材
  6
Continuous
100
AcDbLine
 10
-74.60894
 20
-64.87627999999999
 30
0.0
 11
-75.60894
 21
-64.87627999999999
 31
0.0
  0
LINE
  5
A7
330
7D
100
AcDbEntity
  8
別途部材
  6
Continuous
100
AcDbLine
 10
-70.60894
 20
-64.87627999999999
 30
0.0
 11
-71.60894
 21
-64.87627999999999
 31
0.0
  0
LINE
  5
A8
330
7D
100
AcDbEntity
  8
別途部材
  6
Continuous
100
AcDbLine
 10
-66.60894
 20
-64.87627999999999
 30
0.0
 11
-67.60894
 21
-64.87627999999999
 31
0.0
  0
LINE
  5
A9
330
7D
100
AcDbEntity
  8
別途部材
  6
Continuous
100
AcDbLine
 10
-62.60894
 20
-64.87627999999999
 30
0.0
 11
-63.60894
 21
-64.87627999999999
 31
0.0
  0
LINE
  5
AA
330
7D
100
AcDbEntity
  8
別途部材
  6
Continuous
100
AcDbLine
 10
-58.60894
 20
-64.87627999999999
 30
0.0
 11
-59.60894
 21
-64.87627999999999
 31
0.0
  0
LINE
  5
AB
330
7D
100
AcDbEntity
  8
別途部材
  6
Continuous
100
AcDbLine
 10
-54.60894
 20
-64.87627999999999
 30
0.0
 11
-55.60894
 21
-64.87627999999999
 31
0.0
  0
LINE
  5
AC
330
7D
100
AcDbEntity
  8
別途部材
  6
Continuous
100
AcDbLine
 10
-50.60894
 20
-64.87627999999999
 30
0.0
 11
-51.60894
 21
-64.87627999999999
 31
0.0
  0
LINE
  5
AD
330
7D
100
AcDbEntity
  8
別途部材
  6
Continuous
100
AcDbLine
 10
-46.60894
 20
-64.87627999999999
 30
0.0
 11
-47.60894
 21
-64.87627999999999
 31
0.0
  0
LINE
  5
AE
330
7D
100
AcDbEntity
  8
別途部材
  6
Continuous
100
AcDbLine
 10
-42.60894
 20
-64.87627999999999
 30
0.0
 11
-43.60894
 21
-64.87627999999999
 31
0.0
  0
LINE
  5
AF
330
7D
100
AcDbEntity
  8
別途部材
  6
Continuous
100
AcDbLine
 10
-39.60894
 20
-64.87627999999999
 30
0.0
 11
-38.60894
 21
-64.87627999999999
 31
0.0
  0
LINE
  5
B0
330
7D
100
AcDbEntity
  8
別途部材
  6
Continuous
100
AcDbLine
 10
-83.60894
 20
-64.87627999999999
 30
0.0
 11
-84.60894
 21
-63.87628
 31
0.0
  0
LINE
  5
B1
330
7D
100
AcDbEntity
  8
別途部材
  6
Continuous
100
AcDbLine
 10
-85.60894
 20
-63.87628
 30
0.0
 11
-86.60894
 21
-64.87627999999999
 31
0.0
  0
LINE
  5
B2
330
7D
100
AcDbEntity
  8
別途部材
  6
Continuous
100
AcDbLine
 10
-84.60894
 20
-63.87628
 30
0.0
 11
-85.60894
 21
-63.87628
 31
0.0
  0
LINE
  5
B3
330
7D
100
AcDbEntity
  8
別途部材
  6
Continuous
100
AcDbLine
 10
-87.60894
 20
-64.87627999999999
 30
0.0
 11
-88.60894
 21
-63.87628
 31
0.0
  0
LINE
  5
B4
330
7D
100
AcDbEntity
  8
別途部材
  6
Continuous
100
AcDbLine
 10
-89.60894
 20
-63.87628
 30
0.0
 11
-90.60894
 21
-64.87627999999999
 31
0.0
  0
LINE
  5
B5
330
7D
100
AcDbEntity
  8
別途部材
  6
Continuous
100
AcDbLine
 10
-88.60894
 20
-63.87628
 30
0.0
 11
-89.60894
 21
-63.87628
 31
0.0
  0
LINE
  5
B6
330
7D
100
AcDbEntity
  8
別途部材
  6
Continuous
100
AcDbLine
 10
-91.60894
 20
-64.87627999999999
 30
0.0
 11
-92.60894
 21
-63.87628
 31
0.0
  0
LINE
  5
B7
330
7D
100
AcDbEntity
  8
別途部材
  6
Continuous
100
AcDbLine
 10
-93.60894
 20
-63.87628
 30
0.0
 11
-94.60894
 21
-64.87627999999999
 31
0.0
  0
LINE
  5
B8
330
7D
100
AcDbEntity
  8
別途部材
  6
Continuous
100
AcDbLine
 10
-92.60894
 20
-63.87628
 30
0.0
 11
-93.60894
 21
-63.87628
 31
0.0
  0
LINE
  5
B9
330
7D
100
AcDbEntity
  8
別途部材
  6
Continuous
100
AcDbLine
 10
-95.60894
 20
-64.87627999999999
 30
0.0
 11
-96.60894
 21
-63.87628
 31
0.0
  0
LINE
  5
BA
330
7D
100
AcDbEntity
  8
別途部材
  6
Continuous
100
AcDbLine
 10
-97.60894
 20
-63.87628
 30
0.0
 11
-98.60894
 21
-64.87627999999999
 31
0.0
  0
LINE
  5
BB
330
7D
100
AcDbEntity
  8
別途部材
  6
Continuous
100
AcDbLine
 10
-96.60894
 20
-63.87628
 30
0.0
 11
-97.60894
 21
-63.87628
 31
0.0
  0
LINE
  5
BC
330
7D
100
AcDbEntity
  8
別途部材
  6
Continuous
100
AcDbLine
 10
-99.60894
 20
-64.87627999999999
 30
0.0
 11
-100.60894
 21
-63.87628
 31
0.0
  0
LINE
  5
BD
330
7D
100
AcDbEntity
  8
別途部材
  6
Continuous
100
AcDbLine
 10
-101.60894
 20
-63.87628
 30
0.0
 11
-102.60894
 21
-64.87627999999999
 31
0.0
  0
LINE
  5
BE
330
7D
100
AcDbEntity
  8
別途部材
  6
Continuous
100
AcDbLine
 10
-100.60894
 20
-63.87628
 30
0.0
 11
-101.60894
 21
-63.87628
 31
0.0
  0
LINE
  5
BF
330
7D
100
AcDbEntity
  8
別途部材
  6
Continuous
100
AcDbLine
 10
-103.60894
 20
-64.87627999999999
 30
0.0
 11
-104.60894
 21
-63.87628
 31
0.0
  0
LINE
  5
C0
330
7D
100
AcDbEntity
  8
別途部材
  6
Continuous
100
AcDbLine
 10
-105.60894
 20
-63.87628
 30
0.0
 11
-106.60894
 21
-64.87627999999999
 31
0.0
  0
LINE
  5
C1
330
7D
100
AcDbEntity
  8
別途部材
  6
Continuous
100
AcDbLine
 10
-104.60894
 20
-63.87628
 30
0.0
 11
-105.60894
 21
-63.87628
 31
0.0
  0
LINE
  5
C2
330
7D
100
AcDbEntity
  8
別途部材
  6
Continuous
100
AcDbLine
 10
-107.60894
 20
-64.87627999999999
 30
0.0
 11
-108.60894
 21
-63.87628
 31
0.0
  0
LINE
  5
C3
330
7D
100
AcDbEntity
  8
別途部材
  6
Continuous
100
AcDbLine
 10
-109.60894
 20
-63.87628
 30
0.0
 11
-110.60894
 21
-64.87627999999999
 31
0.0
  0
LINE
  5
C4
330
7D
100
AcDbEntity
  8
別途部材
  6
Continuous
100
AcDbLine
 10
-108.60894
 20
-63.87628
 30
0.0
 11
-109.60894
 21
-63.87628
 31
0.0
  0
LINE
  5
C5
330
7D
100
AcDbEntity
  8
別途部材
  6
Continuous
100
AcDbLine
 10
-106.60894
 20
-64.87627999999999
 30
0.0
 11
-107.60894
 21
-64.87627999999999
 31
0.0
  0
LINE
  5
C6
330
7D
100
AcDbEntity
  8
別途部材
  6
Continuous
100
AcDbLine
 10
-102.60894
 20
-64.87627999999999
 30
0.0
 11
-103.60894
 21
-64.87627999999999
 31
0.0
  0
LINE
  5
C7
330
7D
100
AcDbEntity
  8
別途部材
  6
Continuous
100
AcDbLine
 10
-98.60894
 20
-64.87627999999999
 30
0.0
 11
-99.60894
 21
-64.87627999999999
 31
0.0
  0
LINE
  5
C8
330
7D
100
AcDbEntity
  8
別途部材
  6
Continuous
100
AcDbLine
 10
-94.60894
 20
-64.87627999999999
 30
0.0
 11
-95.60894
 21
-64.87627999999999
 31
0.0
  0
LINE
  5
C9
330
7D
100
AcDbEntity
  8
別途部材
  6
Continuous
100
AcDbLine
 10
-90.60894
 20
-64.87627999999999
 30
0.0
 11
-91.60894
 21
-64.87627999999999
 31
0.0
  0
LINE
  5
CA
330
7D
100
AcDbEntity
  8
別途部材
  6
Continuous
100
AcDbLine
 10
-86.60894
 20
-64.87627999999999
 30
0.0
 11
-87.60894
 21
-64.87627999999999
 31
0.0
  0
LINE
  5
CB
330
7D
100
AcDbEntity
  8
別途部材
  6
Continuous
100
AcDbLine
 10
-82.60894
 20
-64.87627999999999
 30
0.0
 11
-83.60894
 21
-64.87627999999999
 31
0.0
  0
LINE
  5
CC
330
7D
100
AcDbEntity
  8
別途部材
  6
Continuous
100
AcDbLine
 10
-110.60894
 20
-64.87627999999999
 30
0.0
 11
-110.60894
 21
-70.209613
 31
0.0
  0
LINE
  5
CD
330
7D
100
AcDbEntity
  8
別途部材
  6
Continuous
100
AcDbLine
 10
-109.60894
 20
-63.87628
 30
0.0
 11
-109.60894
 21
-70.209613
 31
0.0
  0
LINE
  5
CE
330
7D
100
AcDbEntity
  8
別途部材
  6
Continuous
100
AcDbLine
 10
-107.60894
 20
-64.87627999999999
 30
0.0
 11
-107.60894
 21
-70.209613
 31
0.0
  0
LINE
  5
CF
330
7D
100
AcDbEntity
  8
別途部材
  6
Continuous
100
AcDbLine
 10
-108.60894
 20
-63.87628
 30
0.0
 11
-108.60894
 21
-70.209613
 31
0.0
  0
LINE
  5
D0
330
7D
100
AcDbEntity
  8
別途部材
  6
Continuous
100
AcDbLine
 10
-105.60894
 20
-63.87628
 30
0.0
 11
-105.60894
 21
-70.209613
 31
0.0
  0
LINE
  5
D1
330
7D
100
AcDbEntity
  8
別途部材
  6
Continuous
100
AcDbLine
 10
-106.60894
 20
-64.87627999999999
 30
0.0
 11
-106.60894
 21
-70.209613
 31
0.0
  0
LINE
  5
D2
330
7D
100
AcDbEntity
  8
別途部材
  6
Continuous
100
AcDbLine
 10
-104.60894
 20
-63.87628
 30
0.0
 11
-104.60894
 21
-70.209613
 31
0.0
  0
LINE
  5
D3
330
7D
100
AcDbEntity
  8
別途部材
  6
Continuous
100
AcDbLine
 10
-103.60894
 20
-64.87627999999999
 30
0.0
 11
-103.60894
 21
-70.209613
 31
0.0
  0
LINE
  5
D4
330
7D
100
AcDbEntity
  8
別途部材
  6
Continuous
100
AcDbLine
 10
-101.60894
 20
-63.87628
 30
0.0
 11
-101.60894
 21
-70.209613
 31
0.0
  0
LINE
  5
D5
330
7D
100
AcDbEntity
  8
別途部材
  6
Continuous
100
AcDbLine
 10
-102.60894
 20
-64.87627999999999
 30
0.0
 11
-102.60894
 21
-70.209613
 31
0.0
  0
LINE
  5
D6
330
7D
100
AcDbEntity
  8
別途部材
  6
Continuous
100
AcDbLine
 10
-99.60894
 20
-64.87627999999999
 30
0.0
 11
-99.60894
 21
-70.209613
 31
0.0
  0
LINE
  5
D7
330
7D
100
AcDbEntity
  8
別途部材
  6
Continuous
100
AcDbLine
 10
-100.60894
 20
-63.87628
 30
0.0
 11
-100.60894
 21
-70.209613
 31
0.0
  0
LINE
  5
D8
330
7D
100
AcDbEntity
  8
別途部材
  6
Continuous
100
AcDbLine
 10
-98.60894
 20
-64.87627999999999
 30
0.0
 11
-98.60894
 21
-70.209613
 31
0.0
  0
LINE
  5
D9
330
7D
100
AcDbEntity
  8
別途部材
  6
Continuous
100
AcDbLine
 10
-96.60894
 20
-63.87628
 30
0.0
 11
-96.60894
 21
-70.209613
 31
0.0
  0
LINE
  5
DA
330
7D
100
AcDbEntity
  8
別途部材
  6
Continuous
100
AcDbLine
 10
-97.60894
 20
-63.87628
 30
0.0
 11
-97.60894
 21
-70.209613
 31
0.0
  0
LINE
  5
DB
330
7D
100
AcDbEntity
  8
別途部材
  6
Continuous
100
AcDbLine
 10
-95.60894
 20
-64.87627999999999
 30
0.0
 11
-95.60894
 21
-70.209613
 31
0.0
  0
LINE
  5
DC
330
7D
100
AcDbEntity
  8
別途部材
  6
Continuous
100
AcDbLine
 10
-94.60894
 20
-64.87627999999999
 30
0.0
 11
-94.60894
 21
-70.209613
 31
0.0
  0
LINE
  5
DD
330
7D
100
AcDbEntity
  8
別途部材
  6
Continuous
100
AcDbLine
 10
-93.60894
 20
-63.87628
 30
0.0
 11
-93.60894
 21
-70.209613
 31
0.0
  0
LINE
  5
DE
330
7D
100
AcDbEntity
  8
別途部材
  6
Continuous
100
AcDbLine
 10
-92.60894
 20
-63.87628
 30
0.0
 11
-92.60894
 21
-70.209613
 31
0.0
  0
LINE
  5
DF
330
7D
100
AcDbEntity
  8
別途部材
  6
Continuous
100
AcDbLine
 10
-89.60894
 20
-63.87628
 30
0.0
 11
-89.60894
 21
-70.209613
 31
0.0
  0
LINE
  5
E0
330
7D
100
AcDbEntity
  8
別途部材
  6
Continuous
100
AcDbLine
 10
-87.60894
 20
-64.87627999999999
 30
0.0
 11
-87.60894
 21
-70.209613
 31
0.0
  0
LINE
  5
E1
330
7D
100
AcDbEntity
  8
別途部材
  6
Continuous
100
AcDbLine
 10
-88.60894
 20
-63.87628
 30
0.0
 11
-88.60894
 21
-70.209613
 31
0.0
  0
LINE
  5
E2
330
7D
100
AcDbEntity
  8
別途部材
  6
Continuous
100
AcDbLine
 10
-90.60894
 20
-64.87627999999999
 30
0.0
 11
-90.60894
 21
-70.209613
 31
0.0
  0
LINE
  5
E3
330
7D
100
AcDbEntity
  8
別途部材
  6
Continuous
100
AcDbLine
 10
-91.60894
 20
-64.87627999999999
 30
0.0
 11
-91.60894
 21
-70.209613
 31
0.0
  0
LINE
  5
E4
330
7D
100
AcDbEntity
  8
別途部材
  6
Continuous
100
AcDbLine
 10
-86.60894
 20
-64.87627999999999
 30
0.0
 11
-86.60894
 21
-70.209613
 31
0.0
  0
LINE
  5
E5
330
7D
100
AcDbEntity
  8
別途部材
  6
Continuous
100
AcDbLine
 10
-84.60894
 20
-63.87628
 30
0.0
 11
-84.60894
 21
-70.209613
 31
0.0
  0
LINE
  5
E6
330
7D
100
AcDbEntity
  8
別途部材
  6
Continuous
100
AcDbLine
 10
-85.60894
 20
-63.87628
 30
0.0
 11
-85.60894
 21
-70.209613
 31
0.0
  0
LINE
  5
E7
330
7D
100
AcDbEntity
  8
別途部材
  6
Continuous
100
AcDbLine
 10
-83.60894
 20
-64.87627999999999
 30
0.0
 11
-83.60894
 21
-70.209613
 31
0.0
  0
LINE
  5
E8
330
7D
100
AcDbEntity
  8
別途部材
  6
Continuous
100
AcDbLine
 10
-81.60894
 20
-63.87628
 30
0.0
 11
-81.60894
 21
-70.209613
 31
0.0
  0
LINE
  5
E9
330
7D
100
AcDbEntity
  8
別途部材
  6
Continuous
100
AcDbLine
 10
-82.60894
 20
-64.87627999999999
 30
0.0
 11
-82.60894
 21
-70.209613
 31
0.0
  0
LINE
  5
EA
330
7D
100
AcDbEntity
  8
別途部材
  6
Continuous
100
AcDbLine
 10
-80.60894
 20
-63.87628
 30
0.0
 11
-80.60894
 21
-70.209613
 31
0.0
  0
LINE
  5
EB
330
7D
100
AcDbEntity
  8
別途部材
  6
Continuous
100
AcDbLine
 10
-79.60894
 20
-64.87627999999999
 30
0.0
 11
-79.60894
 21
-70.209613
 31
0.0
  0
LINE
  5
EC
330
7D
100
AcDbEntity
  8
別途部材
  6
Continuous
100
AcDbLine
 10
-77.60894
 20
-63.87628
 30
0.0
 11
-77.60894
 21
-70.209613
 31
0.0
  0
LINE
  5
ED
330
7D
100
AcDbEntity
  8
別途部材
  6
Continuous
100
AcDbLine
 10
-78.60894
 20
-64.87627999999999
 30
0.0
 11
-78.60894
 21
-70.209613
 31
0.0
  0
LINE
  5
EE
330
7D
100
AcDbEntity
  8
別途部材
  6
Continuous
100
AcDbLine
 10
-74.60894
 20
-64.87627999999999
 30
0.0
 11
-74.60894
 21
-70.209613
 31
0.0
  0
LINE
  5
EF
330
7D
100
AcDbEntity
  8
別途部材
  6
Continuous
100
AcDbLine
 10
-75.60894
 20
-64.87627999999999
 30
0.0
 11
-75.60894
 21
-70.209613
 31
0.0
  0
LINE
  5
F0
330
7D
100
AcDbEntity
  8
別途部材
  6
Continuous
100
AcDbLine
 10
-76.60894
 20
-63.87628
 30
0.0
 11
-76.60894
 21
-70.209613
 31
0.0
  0
LINE
  5
F1
330
7D
100
AcDbEntity
  8
別途部材
  6
Continuous
100
AcDbLine
 10
-73.60894
 20
-63.87628
 30
0.0
 11
-73.60894
 21
-70.209613
 31
0.0
  0
LINE
  5
F2
330
7D
100
AcDbEntity
  8
別途部材
  6
Continuous
100
AcDbLine
 10
-72.60894
 20
-63.87628
 30
0.0
 11
-72.60894
 21
-70.209613
 31
0.0
  0
LINE
  5
F3
330
7D
100
AcDbEntity
  8
別途部材
  6
Continuous
100
AcDbLine
 10
-71.60894
 20
-64.87627999999999
 30
0.0
 11
-71.60894
 21
-70.209613
 31
0.0
  0
LINE
  5
F4
330
7D
100
AcDbEntity
  8
別途部材
  6
Continuous
100
AcDbLine
 10
-69.60894
 20
-63.87628
 30
0.0
 11
-69.60894
 21
-70.209613
 31
0.0
  0
LINE
  5
F5
330
7D
100
AcDbEntity
  8
別途部材
  6
Continuous
100
AcDbLine
 10
-65.60894
 20
-63.87628
 30
0.0
 11
-65.60894
 21
-70.209613
 31
0.0
  0
LINE
  5
F6
330
7D
100
AcDbEntity
  8
別途部材
  6
Continuous
100
AcDbLine
 10
-66.60894
 20
-64.87627999999999
 30
0.0
 11
-66.60894
 21
-70.209613
 31
0.0
  0
LINE
  5
F7
330
7D
100
AcDbEntity
  8
別途部材
  6
Continuous
100
AcDbLine
 10
-67.60894
 20
-64.87627999999999
 30
0.0
 11
-67.60894
 21
-70.209613
 31
0.0
  0
LINE
  5
F8
330
7D
100
AcDbEntity
  8
別途部材
  6
Continuous
100
AcDbLine
 10
-68.60894
 20
-63.87628
 30
0.0
 11
-68.60894
 21
-70.209613
 31
0.0
  0
LINE
  5
F9
330
7D
100
AcDbEntity
  8
別途部材
  6
Continuous
100
AcDbLine
 10
-70.60894
 20
-64.87627999999999
 30
0.0
 11
-70.60894
 21
-70.209613
 31
0.0
  0
LINE
  5
FA
330
7D
100
AcDbEntity
  8
別途部材
  6
Continuous
100
AcDbLine
 10
-63.60894
 20
-64.87627999999999
 30
0.0
 11
-63.60894
 21
-70.209613
 31
0.0
  0
LINE
  5
FB
330
7D
100
AcDbEntity
  8
別途部材
  6
Continuous
100
AcDbLine
 10
-64.60894
 20
-63.87628
 30
0.0
 11
-64.60894
 21
-70.209613
 31
0.0
  0
LINE
  5
FC
330
7D
100
AcDbEntity
  8
別途部材
  6
Continuous
100
AcDbLine
 10
-62.60894
 20
-64.87627999999999
 30
0.0
 11
-62.60894
 21
-70.209613
 31
0.0
  0
LINE
  5
FD
330
7D
100
AcDbEntity
  8
別途部材
  6
Continuous
100
AcDbLine
 10
-61.60894
 20
-63.87628
 30
0.0
 11
-61.60894
 21
-70.209613
 31
0.0
  0
LINE
  5
FE
330
7D
100
AcDbEntity
  8
別途部材
  6
Continuous
100
AcDbLine
 10
-57.60894
 20
-63.87628
 30
0.0
 11
-57.60894
 21
-70.209613
 31
0.0
  0
LINE
  5
FF
330
7D
100
AcDbEntity
  8
別途部材
  6
Continuous
100
AcDbLine
 10
-56.60894
 20
-63.87628
 30
0.0
 11
-56.60894
 21
-70.209613
 31
0.0
  0
LINE
  5
100
330
7D
100
AcDbEntity
  8
別途部材
  6
Continuous
100
AcDbLine
 10
-58.60894
 20
-64.87627999999999
 30
0.0
 11
-58.60894
 21
-70.209613
 31
0.0
  0
LINE
  5
101
330
7D
100
AcDbEntity
  8
別途部材
  6
Continuous
100
AcDbLine
 10
-59.60894
 20
-64.87627999999999
 30
0.0
 11
-59.60894
 21
-70.209613
 31
0.0
  0
LINE
  5
102
330
7D
100
AcDbEntity
  8
別途部材
  6
Continuous
100
AcDbLine
 10
-60.60894
 20
-63.87628
 30
0.0
 11
-60.60894
 21
-70.209613
 31
0.0
  0
LINE
  5
103
330
7D
100
AcDbEntity
  8
別途部材
  6
Continuous
100
AcDbLine
 10
-55.60894
 20
-64.87627999999999
 30
0.0
 11
-55.60894
 21
-70.209613
 31
0.0
  0
LINE
  5
104
330
7D
100
AcDbEntity
  8
別途部材
  6
Continuous
100
AcDbLine
 10
-53.60894
 20
-63.87628
 30
0.0
 11
-53.60894
 21
-70.209613
 31
0.0
  0
LINE
  5
105
330
7D
100
AcDbEntity
  8
別途部材
  6
Continuous
100
AcDbLine
 10
-52.60894
 20
-63.87628
 30
0.0
 11
-52.60894
 21
-70.209613
 31
0.0
  0
LINE
  5
106
330
7D
100
AcDbEntity
  8
別途部材
  6
Continuous
100
AcDbLine
 10
-51.60894
 20
-64.87627999999999
 30
0.0
 11
-51.60894
 21
-70.209613
 31
0.0
  0
LINE
  5
107
330
7D
100
AcDbEntity
  8
別途部材
  6
Continuous
100
AcDbLine
 10
-50.60894
 20
-64.87627999999999
 30
0.0
 11
-50.60894
 21
-70.209613
 31
0.0
  0
LINE
  5
108
330
7D
100
AcDbEntity
  8
別途部材
  6
Continuous
100
AcDbLine
 10
-49.60894
 20
-63.87628
 30
0.0
 11
-49.60894
 21
-70.209613
 31
0.0
  0
LINE
  5
109
330
7D
100
AcDbEntity
  8
別途部材
  6
Continuous
100
AcDbLine
 10
-54.60894
 20
-64.87627999999999
 30
0.0
 11
-54.60894
 21
-70.209613
 31
0.0
  0
LINE
  5
10A
330
7D
100
AcDbEntity
  8
別途部材
  6
Continuous
100
AcDbLine
 10
-48.60894
 20
-63.87628
 30
0.0
 11
-48.60894
 21
-70.209613
 31
0.0
  0
LINE
  5
10B
330
7D
100
AcDbEntity
  8
別途部材
  6
Continuous
100
AcDbLine
 10
-47.60894
 20
-64.87627999999999
 30
0.0
 11
-47.60894
 21
-70.209613
 31
0.0
  0
LINE
  5
10C
330
7D
100
AcDbEntity
  8
別途部材
  6
Continuous
100
AcDbLine
 10
-46.60894
 20
-64.87627999999999
 30
0.0
 11
-46.60894
 21
-70.209613
 31
0.0
  0
LINE
  5
10D
330
7D
100
AcDbEntity
  8
別途部材
  6
Continuous
100
AcDbLine
 10
-44.60894
 20
-63.87628
 30
0.0
 11
-44.60894
 21
-70.209613
 31
0.0
  0
LINE
  5
10E
330
7D
100
AcDbEntity
  8
別途部材
  6
Continuous
100
AcDbLine
 10
-42.60894
 20
-64.87627999999999
 30
0.0
 11
-42.60894
 21
-70.209613
 31
0.0
  0
LINE
  5
10F
330
7D
100
AcDbEntity
  8
別途部材
  6
Continuous
100
AcDbLine
 10
-41.60894
 20
-63.87628
 30
0.0
 11
-41.60894
 21
-70.209613
 31
0.0
  0
LINE
  5
110
330
7D
100
AcDbEntity
  8
別途部材
  6
Continuous
100
AcDbLine
 10
-39.60894
 20
-64.87627999999999
 30
0.0
 11
-39.60894
 21
-70.209613
 31
0.0
  0
LINE
  5
111
330
7D
100
AcDbEntity
  8
別途部材
  6
Continuous
100
AcDbLine
 10
-38.60894
 20
-64.87627999999999
 30
0.0
 11
-38.60894
 21
-70.209613
 31
0.0
  0
LINE
  5
112
330
7D
100
AcDbEntity
  8
別途部材
  6
Continuous
100
AcDbLine
 10
-37.60894
 20
-63.87628
 30
0.0
 11
-37.60894
 21
-70.209613
 31
0.0
  0
LINE
  5
113
330
7D
100
AcDbEntity
  8
別途部材
  6
Continuous
100
AcDbLine
 10
-40.60894
 20
-63.87628
 30
0.0
 11
-40.60894
 21
-70.209613
 31
0.0
  0
LINE
  5
114
330
7D
100
AcDbEntity
  8
別途部材
  6
Continuous
100
AcDbLine
 10
-43.60894
 20
-64.87627999999999
 30
0.0
 11
-43.60894
 21
-70.209613
 31
0.0
  0
LINE
  5
115
330
7D
100
AcDbEntity
  8
別途部材
  6
Continuous
100
AcDbLine
 10
-45.60894
 20
-63.87628
 30
0.0
 11
-45.60894
 21
-70.209613
 31
0.0
  0
LINE
  5
116
330
7D
100
AcDbEntity
  8
別途部材
  6
Continuous
 62
    96
100
AcDbLine
 10
47.89106
 20
-70.209613
 30
0.0
 11
48.29106
 21
-71.209613
 31
0.0
  0
ARC
  5
117
330
7D
100
AcDbEntity
  8
別途部材
  6
Continuous
100
AcDbCircle
 10
36.224393
 20
-76.91794400000001
 30
0.0
 40
12.041668
100
AcDbArc
 50
33.855033
 51
90.0
  0
LINE
  5
118
330
7D
100
AcDbEntity
  8
別途部材
  6
Continuous
 62
    96
100
AcDbLine
 10
47.89106
 20
-70.209613
 30
0.0
 11
-37.10894
 21
-70.209613
 31
0.0
  0
LINE
  5
119
330
7D
100
AcDbEntity
  8
別途部材
  6
Continuous
100
AcDbLine
 10
48.29106
 20
-71.209613
 30
0.0
 11
-37.10894
 21
-71.209613
 31
0.0
  0
LINE
  5
11A
330
7D
100
AcDbEntity
  8
別途部材
  6
Continuous
100
AcDbLine
 10
-36.60894
 20
-63.87628
 30
0.0
 11
-35.60894
 21
-64.87627999999999
 31
0.0
  0
LINE
  5
11B
330
7D
100
AcDbEntity
  8
別途部材
  6
Continuous
100
AcDbLine
 10
-34.60894
 20
-64.87627999999999
 30
0.0
 11
-33.60894
 21
-63.87628
 31
0.0
  0
LINE
  5
11C
330
7D
100
AcDbEntity
  8
別途部材
  6
Continuous
100
AcDbLine
 10
-32.60894
 20
-63.87628
 30
0.0
 11
-31.60894
 21
-64.87627999999999
 31
0.0
  0
LINE
  5
11D
330
7D
100
AcDbEntity
  8
別途部材
  6
Continuous
100
AcDbLine
 10
-33.60894
 20
-63.87628
 30
0.0
 11
-32.60894
 21
-63.87628
 31
0.0
  0
LINE
  5
11E
330
7D
100
AcDbEntity
  8
別途部材
  6
Continuous
100
AcDbLine
 10
-36.60894
 20
-63.87628
 30
0.0
 11
-37.10894
 21
-63.87628
 31
0.0
  0
LINE
  5
11F
330
7D
100
AcDbEntity
  8
別途部材
  6
Continuous
100
AcDbLine
 10
-30.60894
 20
-64.87627999999999
 30
0.0
 11
-29.60894
 21
-63.87628
 31
0.0
  0
LINE
  5
120
330
7D
100
AcDbEntity
  8
別途部材
  6
Continuous
100
AcDbLine
 10
-28.60894
 20
-63.87628
 30
0.0
 11
-27.60894
 21
-64.87627999999999
 31
0.0
  0
LINE
  5
121
330
7D
100
AcDbEntity
  8
別途部材
  6
Continuous
100
AcDbLine
 10
-29.60894
 20
-63.87628
 30
0.0
 11
-28.60894
 21
-63.87628
 31
0.0
  0
LINE
  5
122
330
7D
100
AcDbEntity
  8
別途部材
  6
Continuous
100
AcDbLine
 10
-26.60894
 20
-64.87627999999999
 30
0.0
 11
-25.60894
 21
-63.87628
 31
0.0
  0
LINE
  5
123
330
7D
100
AcDbEntity
  8
別途部材
  6
Continuous
100
AcDbLine
 10
-24.60894
 20
-63.87628
 30
0.0
 11
-23.60894
 21
-64.87627999999999
 31
0.0
  0
LINE
  5
124
330
7D
100
AcDbEntity
  8
別途部材
  6
Continuous
100
AcDbLine
 10
-25.60894
 20
-63.87628
 30
0.0
 11
-24.60894
 21
-63.87628
 31
0.0
  0
LINE
  5
125
330
7D
100
AcDbEntity
  8
別途部材
  6
Continuous
100
AcDbLine
 10
-22.60894
 20
-64.87627999999999
 30
0.0
 11
-21.60894
 21
-63.87628
 31
0.0
  0
LINE
  5
126
330
7D
100
AcDbEntity
  8
別途部材
  6
Continuous
100
AcDbLine
 10
-20.60894
 20
-63.87628
 30
0.0
 11
-19.60894
 21
-64.87627999999999
 31
0.0
  0
LINE
  5
127
330
7D
100
AcDbEntity
  8
別途部材
  6
Continuous
100
AcDbLine
 10
-21.60894
 20
-63.87628
 30
0.0
 11
-20.60894
 21
-63.87628
 31
0.0
  0
LINE
  5
128
330
7D
100
AcDbEntity
  8
別途部材
  6
Continuous
100
AcDbLine
 10
-18.60894
 20
-64.87627999999999
 30
0.0
 11
-17.60894
 21
-63.87628
 31
0.0
  0
LINE
  5
129
330
7D
100
AcDbEntity
  8
別途部材
  6
Continuous
100
AcDbLine
 10
-16.60894
 20
-63.87628
 30
0.0
 11
-15.60894
 21
-64.87627999999999
 31
0.0
  0
LINE
  5
12A
330
7D
100
AcDbEntity
  8
別途部材
  6
Continuous
100
AcDbLine
 10
-17.60894
 20
-63.87628
 30
0.0
 11
-16.60894
 21
-63.87628
 31
0.0
  0
LINE
  5
12B
330
7D
100
AcDbEntity
  8
別途部材
  6
Continuous
100
AcDbLine
 10
-14.60894
 20
-64.87627999999999
 30
0.0
 11
-13.60894
 21
-63.87628
 31
0.0
  0
LINE
  5
12C
330
7D
100
AcDbEntity
  8
別途部材
  6
Continuous
100
AcDbLine
 10
-12.60894
 20
-63.87628
 30
0.0
 11
-11.60894
 21
-64.87627999999999
 31
0.0
  0
LINE
  5
12D
330
7D
100
AcDbEntity
  8
別途部材
  6
Continuous
100
AcDbLine
 10
-13.60894
 20
-63.87628
 30
0.0
 11
-12.60894
 21
-63.87628
 31
0.0
  0
LINE
  5
12E
330
7D
100
AcDbEntity
  8
別途部材
  6
Continuous
100
AcDbLine
 10
-10.60894
 20
-64.87627999999999
 30
0.0
 11
-9.608940000000001
 21
-63.87628
 31
0.0
  0
LINE
  5
12F
330
7D
100
AcDbEntity
  8
別途部材
  6
Continuous
100
AcDbLine
 10
-8.608940000000001
 20
-63.87628
 30
0.0
 11
-7.60894
 21
-64.87627999999999
 31
0.0
  0
LINE
  5
130
330
7D
100
AcDbEntity
  8
別途部材
  6
Continuous
100
AcDbLine
 10
-9.608940000000001
 20
-63.87628
 30
0.0
 11
-8.608940000000001
 21
-63.87628
 31
0.0
  0
LINE
  5
131
330
7D
100
AcDbEntity
  8
別途部材
  6
Continuous
100
AcDbLine
 10
-6.60894
 20
-64.87627999999999
 30
0.0
 11
-5.60894
 21
-63.87628
 31
0.0
  0
LINE
  5
132
330
7D
100
AcDbEntity
  8
別途部材
  6
Continuous
100
AcDbLine
 10
-4.60894
 20
-63.87628
 30
0.0
 11
-3.60894
 21
-64.87627999999999
 31
0.0
  0
LINE
  5
133
330
7D
100
AcDbEntity
  8
別途部材
  6
Continuous
100
AcDbLine
 10
-5.60894
 20
-63.87628
 30
0.0
 11
-4.60894
 21
-63.87628
 31
0.0
  0
LINE
  5
134
330
7D
100
AcDbEntity
  8
別途部材
  6
Continuous
100
AcDbLine
 10
-2.60894
 20
-64.87627999999999
 30
0.0
 11
-1.60894
 21
-63.87628
 31
0.0
  0
LINE
  5
135
330
7D
100
AcDbEntity
  8
別途部材
  6
Continuous
100
AcDbLine
 10
-0.60894
 20
-63.87628
 30
0.0
 11
0.39106
 21
-64.87627999999999
 31
0.0
  0
LINE
  5
136
330
7D
100
AcDbEntity
  8
別途部材
  6
Continuous
100
AcDbLine
 10
-1.60894
 20
-63.87628
 30
0.0
 11
-0.60894
 21
-63.87628
 31
0.0
  0
LINE
  5
137
330
7D
100
AcDbEntity
  8
別途部材
  6
Continuous
100
AcDbLine
 10
1.39106
 20
-64.87627999999999
 30
0.0
 11
2.39106
 21
-63.87628
 31
0.0
  0
LINE
  5
138
330
7D
100
AcDbEntity
  8
別途部材
  6
Continuous
100
AcDbLine
 10
3.39106
 20
-63.87628
 30
0.0
 11
4.39106
 21
-64.87627999999999
 31
0.0
  0
LINE
  5
139
330
7D
100
AcDbEntity
  8
別途部材
  6
Continuous
100
AcDbLine
 10
2.39106
 20
-63.87628
 30
0.0
 11
3.39106
 21
-63.87628
 31
0.0
  0
LINE
  5
13A
330
7D
100
AcDbEntity
  8
別途部材
  6
Continuous
100
AcDbLine
 10
5.39106
 20
-64.87627999999999
 30
0.0
 11
6.39106
 21
-63.87628
 31
0.0
  0
LINE
  5
13B
330
7D
100
AcDbEntity
  8
別途部材
  6
Continuous
100
AcDbLine
 10
7.39106
 20
-63.87628
 30
0.0
 11
8.39106
 21
-64.87627999999999
 31
0.0
  0
LINE
  5
13C
330
7D
100
AcDbEntity
  8
別途部材
  6
Continuous
100
AcDbLine
 10
6.39106
 20
-63.87628
 30
0.0
 11
7.39106
 21
-63.87628
 31
0.0
  0
LINE
  5
13D
330
7D
100
AcDbEntity
  8
別途部材
  6
Continuous
100
AcDbLine
 10
4.39106
 20
-64.87627999999999
 30
0.0
 11
5.39106
 21
-64.87627999999999
 31
0.0
  0
LINE
  5
13E
330
7D
100
AcDbEntity
  8
別途部材
  6
Continuous
100
AcDbLine
 10
0.39106
 20
-64.87627999999999
 30
0.0
 11
1.39106
 21
-64.87627999999999
 31
0.0
  0
LINE
  5
13F
330
7D
100
AcDbEntity
  8
別途部材
  6
Continuous
100
AcDbLine
 10
-3.60894
 20
-64.87627999999999
 30
0.0
 11
-2.60894
 21
-64.87627999999999
 31
0.0
  0
LINE
  5
140
330
7D
100
AcDbEntity
  8
別途部材
  6
Continuous
100
AcDbLine
 10
-7.60894
 20
-64.87627999999999
 30
0.0
 11
-6.60894
 21
-64.87627999999999
 31
0.0
  0
LINE
  5
141
330
7D
100
AcDbEntity
  8
別途部材
  6
Continuous
100
AcDbLine
 10
-11.60894
 20
-64.87627999999999
 30
0.0
 11
-10.60894
 21
-64.87627999999999
 31
0.0
  0
LINE
  5
142
330
7D
100
AcDbEntity
  8
別途部材
  6
Continuous
100
AcDbLine
 10
-15.60894
 20
-64.87627999999999
 30
0.0
 11
-14.60894
 21
-64.87627999999999
 31
0.0
  0
LINE
  5
143
330
7D
100
AcDbEntity
  8
別途部材
  6
Continuous
100
AcDbLine
 10
-19.60894
 20
-64.87627999999999
 30
0.0
 11
-18.60894
 21
-64.87627999999999
 31
0.0
  0
LINE
  5
144
330
7D
100
AcDbEntity
  8
別途部材
  6
Continuous
100
AcDbLine
 10
-23.60894
 20
-64.87627999999999
 30
0.0
 11
-22.60894
 21
-64.87627999999999
 31
0.0
  0
LINE
  5
145
330
7D
100
AcDbEntity
  8
別途部材
  6
Continuous
100
AcDbLine
 10
-27.60894
 20
-64.87627999999999
 30
0.0
 11
-26.60894
 21
-64.87627999999999
 31
0.0
  0
LINE
  5
146
330
7D
100
AcDbEntity
  8
別途部材
  6
Continuous
100
AcDbLine
 10
-31.60894
 20
-64.87627999999999
 30
0.0
 11
-30.60894
 21
-64.87627999999999
 31
0.0
  0
LINE
  5
147
330
7D
100
AcDbEntity
  8
別途部材
  6
Continuous
100
AcDbLine
 10
-34.60894
 20
-64.87627999999999
 30
0.0
 11
-35.60894
 21
-64.87627999999999
 31
0.0
  0
LINE
  5
148
330
7D
100
AcDbEntity
  8
別途部材
  6
Continuous
100
AcDbLine
 10
9.39106
 20
-64.87627999999999
 30
0.0
 11
10.39106
 21
-63.87628
 31
0.0
  0
LINE
  5
149
330
7D
100
AcDbEntity
  8
別途部材
  6
Continuous
100
AcDbLine
 10
11.39106
 20
-63.87628
 30
0.0
 11
12.39106
 21
-64.87627999999999
 31
0.0
  0
LINE
  5
14A
330
7D
100
AcDbEntity
  8
別途部材
  6
Continuous
100
AcDbLine
 10
10.39106
 20
-63.87628
 30
0.0
 11
11.39106
 21
-63.87628
 31
0.0
  0
LINE
  5
14B
330
7D
100
AcDbEntity
  8
別途部材
  6
Continuous
100
AcDbLine
 10
13.39106
 20
-64.87627999999999
 30
0.0
 11
14.39106
 21
-63.87628
 31
0.0
  0
LINE
  5
14C
330
7D
100
AcDbEntity
  8
別途部材
  6
Continuous
100
AcDbLine
 10
15.39106
 20
-63.87628
 30
0.0
 11
16.39106
 21
-64.87627999999999
 31
0.0
  0
LINE
  5
14D
330
7D
100
AcDbEntity
  8
別途部材
  6
Continuous
100
AcDbLine
 10
14.39106
 20
-63.87628
 30
0.0
 11
15.39106
 21
-63.87628
 31
0.0
  0
LINE
  5
14E
330
7D
100
AcDbEntity
  8
別途部材
  6
Continuous
100
AcDbLine
 10
17.39106
 20
-64.87627999999999
 30
0.0
 11
18.39106
 21
-63.87628
 31
0.0
  0
LINE
  5
14F
330
7D
100
AcDbEntity
  8
別途部材
  6
Continuous
100
AcDbLine
 10
19.39106
 20
-63.87628
 30
0.0
 11
20.39106
 21
-64.87627999999999
 31
0.0
  0
LINE
  5
150
330
7D
100
AcDbEntity
  8
別途部材
  6
Continuous
100
AcDbLine
 10
18.39106
 20
-63.87628
 30
0.0
 11
19.39106
 21
-63.87628
 31
0.0
  0
LINE
  5
151
330
7D
100
AcDbEntity
  8
別途部材
  6
Continuous
100
AcDbLine
 10
21.39106
 20
-64.87627999999999
 30
0.0
 11
22.39106
 21
-63.87628
 31
0.0
  0
LINE
  5
152
330
7D
100
AcDbEntity
  8
別途部材
  6
Continuous
100
AcDbLine
 10
23.39106
 20
-63.87628
 30
0.0
 11
24.39106
 21
-64.87627999999999
 31
0.0
  0
LINE
  5
153
330
7D
100
AcDbEntity
  8
別途部材
  6
Continuous
100
AcDbLine
 10
22.39106
 20
-63.87628
 30
0.0
 11
23.39106
 21
-63.87628
 31
0.0
  0
LINE
  5
154
330
7D
100
AcDbEntity
  8
別途部材
  6
Continuous
100
AcDbLine
 10
25.39106
 20
-64.87627999999999
 30
0.0
 11
26.39106
 21
-63.87628
 31
0.0
  0
LINE
  5
155
330
7D
100
AcDbEntity
  8
別途部材
  6
Continuous
100
AcDbLine
 10
27.39106
 20
-63.87628
 30
0.0
 11
28.39106
 21
-64.87627999999999
 31
0.0
  0
LINE
  5
156
330
7D
100
AcDbEntity
  8
別途部材
  6
Continuous
100
AcDbLine
 10
26.39106
 20
-63.87628
 30
0.0
 11
27.39106
 21
-63.87628
 31
0.0
  0
LINE
  5
157
330
7D
100
AcDbEntity
  8
別途部材
  6
Continuous
100
AcDbLine
 10
29.39106
 20
-64.87627999999999
 30
0.0
 11
30.39106
 21
-63.87628
 31
0.0
  0
LINE
  5
158
330
7D
100
AcDbEntity
  8
別途部材
  6
Continuous
100
AcDbLine
 10
31.39106
 20
-63.87628
 30
0.0
 11
32.39106
 21
-64.87627999999999
 31
0.0
  0
LINE
  5
159
330
7D
100
AcDbEntity
  8
別途部材
  6
Continuous
100
AcDbLine
 10
30.39106
 20
-63.87628
 30
0.0
 11
31.39106
 21
-63.87628
 31
0.0
  0
LINE
  5
15A
330
7D
100
AcDbEntity
  8
別途部材
  6
Continuous
100
AcDbLine
 10
33.39106
 20
-64.87627999999999
 30
0.0
 11
34.39106
 21
-63.87628
 31
0.0
  0
LINE
  5
15B
330
7D
100
AcDbEntity
  8
別途部材
  6
Continuous
100
AcDbLine
 10
35.39106
 20
-63.87628
 30
0.0
 11
36.39106
 21
-64.87627999999999
 31
0.0
  0
LINE
  5
15C
330
7D
100
AcDbEntity
  8
別途部材
  6
Continuous
100
AcDbLine
 10
34.39106
 20
-63.87628
 30
0.0
 11
35.39106
 21
-63.87628
 31
0.0
  0
LINE
  5
15D
330
7D
100
AcDbEntity
  8
別途部材
  6
Continuous
100
AcDbLine
 10
32.39106
 20
-64.87627999999999
 30
0.0
 11
33.39106
 21
-64.87627999999999
 31
0.0
  0
LINE
  5
15E
330
7D
100
AcDbEntity
  8
別途部材
  6
Continuous
100
AcDbLine
 10
28.39106
 20
-64.87627999999999
 30
0.0
 11
29.39106
 21
-64.87627999999999
 31
0.0
  0
LINE
  5
15F
330
7D
100
AcDbEntity
  8
別途部材
  6
Continuous
100
AcDbLine
 10
24.39106
 20
-64.87627999999999
 30
0.0
 11
25.39106
 21
-64.87627999999999
 31
0.0
  0
LINE
  5
160
330
7D
100
AcDbEntity
  8
別途部材
  6
Continuous
100
AcDbLine
 10
20.39106
 20
-64.87627999999999
 30
0.0
 11
21.39106
 21
-64.87627999999999
 31
0.0
  0
LINE
  5
161
330
7D
100
AcDbEntity
  8
別途部材
  6
Continuous
100
AcDbLine
 10
16.39106
 20
-64.87627999999999
 30
0.0
 11
17.39106
 21
-64.87627999999999
 31
0.0
  0
LINE
  5
162
330
7D
100
AcDbEntity
  8
別途部材
  6
Continuous
100
AcDbLine
 10
12.39106
 20
-64.87627999999999
 30
0.0
 11
13.39106
 21
-64.87627999999999
 31
0.0
  0
LINE
  5
163
330
7D
100
AcDbEntity
  8
別途部材
  6
Continuous
100
AcDbLine
 10
8.39106
 20
-64.87627999999999
 30
0.0
 11
9.39106
 21
-64.87627999999999
 31
0.0
  0
LINE
  5
164
330
7D
100
AcDbEntity
  8
別途部材
  6
Continuous
100
AcDbLine
 10
36.39106
 20
-64.87627999999999
 30
0.0
 11
36.39106
 21
-70.209613
 31
0.0
  0
LINE
  5
165
330
7D
100
AcDbEntity
  8
別途部材
  6
Continuous
100
AcDbLine
 10
35.39106
 20
-63.87628
 30
0.0
 11
35.39106
 21
-70.209613
 31
0.0
  0
LINE
  5
166
330
7D
100
AcDbEntity
  8
別途部材
  6
Continuous
100
AcDbLine
 10
33.39106
 20
-64.87627999999999
 30
0.0
 11
33.39106
 21
-70.209613
 31
0.0
  0
LINE
  5
167
330
7D
100
AcDbEntity
  8
別途部材
  6
Continuous
100
AcDbLine
 10
34.39106
 20
-63.87628
 30
0.0
 11
34.39106
 21
-70.209613
 31
0.0
  0
LINE
  5
168
330
7D
100
AcDbEntity
  8
別途部材
  6
Continuous
100
AcDbLine
 10
31.39106
 20
-63.87628
 30
0.0
 11
31.39106
 21
-70.209613
 31
0.0
  0
LINE
  5
169
330
7D
100
AcDbEntity
  8
別途部材
  6
Continuous
100
AcDbLine
 10
32.39106
 20
-64.87627999999999
 30
0.0
 11
32.39106
 21
-70.209613
 31
0.0
  0
LINE
  5
16A
330
7D
100
AcDbEntity
  8
別途部材
  6
Continuous
100
AcDbLine
 10
30.39106
 20
-63.87628
 30
0.0
 11
30.39106
 21
-70.209613
 31
0.0
  0
LINE
  5
16B
330
7D
100
AcDbEntity
  8
別途部材
  6
Continuous
100
AcDbLine
 10
29.39106
 20
-64.87627999999999
 30
0.0
 11
29.39106
 21
-70.209613
 31
0.0
  0
LINE
  5
16C
330
7D
100
AcDbEntity
  8
別途部材
  6
Continuous
100
AcDbLine
 10
27.39106
 20
-63.87628
 30
0.0
 11
27.39106
 21
-70.209613
 31
0.0
  0
LINE
  5
16D
330
7D
100
AcDbEntity
  8
別途部材
  6
Continuous
100
AcDbLine
 10
28.39106
 20
-64.87627999999999
 30
0.0
 11
28.39106
 21
-70.209613
 31
0.0
  0
LINE
  5
16E
330
7D
100
AcDbEntity
  8
別途部材
  6
Continuous
100
AcDbLine
 10
25.39106
 20
-64.87627999999999
 30
0.0
 11
25.39106
 21
-70.209613
 31
0.0
  0
LINE
  5
16F
330
7D
100
AcDbEntity
  8
別途部材
  6
Continuous
100
AcDbLine
 10
26.39106
 20
-63.87628
 30
0.0
 11
26.39106
 21
-70.209613
 31
0.0
  0
LINE
  5
170
330
7D
100
AcDbEntity
  8
別途部材
  6
Continuous
100
AcDbLine
 10
24.39106
 20
-64.87627999999999
 30
0.0
 11
24.39106
 21
-70.209613
 31
0.0
  0
LINE
  5
171
330
7D
100
AcDbEntity
  8
別途部材
  6
Continuous
100
AcDbLine
 10
22.39106
 20
-63.87628
 30
0.0
 11
22.39106
 21
-70.209613
 31
0.0
  0
LINE
  5
172
330
7D
100
AcDbEntity
  8
別途部材
  6
Continuous
100
AcDbLine
 10
23.39106
 20
-63.87628
 30
0.0
 11
23.39106
 21
-70.209613
 31
0.0
  0
LINE
  5
173
330
7D
100
AcDbEntity
  8
別途部材
  6
Continuous
100
AcDbLine
 10
21.39106
 20
-64.87627999999999
 30
0.0
 11
21.39106
 21
-70.209613
 31
0.0
  0
LINE
  5
174
330
7D
100
AcDbEntity
  8
別途部材
  6
Continuous
100
AcDbLine
 10
20.39106
 20
-64.87627999999999
 30
0.0
 11
20.39106
 21
-70.209613
 31
0.0
  0
LINE
  5
175
330
7D
100
AcDbEntity
  8
別途部材
  6
Continuous
100
AcDbLine
 10
19.39106
 20
-63.87628
 30
0.0
 11
19.39106
 21
-70.209613
 31
0.0
  0
LINE
  5
176
330
7D
100
AcDbEntity
  8
別途部材
  6
Continuous
100
AcDbLine
 10
18.39106
 20
-63.87628
 30
0.0
 11
18.39106
 21
-70.209613
 31
0.0
  0
LINE
  5
177
330
7D
100
AcDbEntity
  8
別途部材
  6
Continuous
100
AcDbLine
 10
15.39106
 20
-63.87628
 30
0.0
 11
15.39106
 21
-70.209613
 31
0.0
  0
LINE
  5
178
330
7D
100
AcDbEntity
  8
別途部材
  6
Continuous
100
AcDbLine
 10
13.39106
 20
-64.87627999999999
 30
0.0
 11
13.39106
 21
-70.209613
 31
0.0
  0
LINE
  5
179
330
7D
100
AcDbEntity
  8
別途部材
  6
Continuous
100
AcDbLine
 10
14.39106
 20
-63.87628
 30
0.0
 11
14.39106
 21
-70.209613
 31
0.0
  0
LINE
  5
17A
330
7D
100
AcDbEntity
  8
別途部材
  6
Continuous
100
AcDbLine
 10
16.39106
 20
-64.87627999999999
 30
0.0
 11
16.39106
 21
-70.209613
 31
0.0
  0
LINE
  5
17B
330
7D
100
AcDbEntity
  8
別途部材
  6
Continuous
100
AcDbLine
 10
17.39106
 20
-64.87627999999999
 30
0.0
 11
17.39106
 21
-70.209613
 31
0.0
  0
LINE
  5
17C
330
7D
100
AcDbEntity
  8
別途部材
  6
Continuous
100
AcDbLine
 10
12.39106
 20
-64.87627999999999
 30
0.0
 11
12.39106
 21
-70.209613
 31
0.0
  0
LINE
  5
17D
330
7D
100
AcDbEntity
  8
別途部材
  6
Continuous
100
AcDbLine
 10
10.39106
 20
-63.87628
 30
0.0
 11
10.39106
 21
-70.209613
 31
0.0
  0
LINE
  5
17E
330
7D
100
AcDbEntity
  8
別途部材
  6
Continuous
100
AcDbLine
 10
11.39106
 20
-63.87628
 30
0.0
 11
11.39106
 21
-70.209613
 31
0.0
  0
LINE
  5
17F
330
7D
100
AcDbEntity
  8
別途部材
  6
Continuous
100
AcDbLine
 10
9.39106
 20
-64.87627999999999
 30
0.0
 11
9.39106
 21
-70.209613
 31
0.0
  0
LINE
  5
180
330
7D
100
AcDbEntity
  8
別途部材
  6
Continuous
100
AcDbLine
 10
7.39106
 20
-63.87628
 30
0.0
 11
7.39106
 21
-70.209613
 31
0.0
  0
LINE
  5
181
330
7D
100
AcDbEntity
  8
別途部材
  6
Continuous
100
AcDbLine
 10
8.39106
 20
-64.87627999999999
 30
0.0
 11
8.39106
 21
-70.209613
 31
0.0
  0
LINE
  5
182
330
7D
100
AcDbEntity
  8
別途部材
  6
Continuous
100
AcDbLine
 10
6.39106
 20
-63.87628
 30
0.0
 11
6.39106
 21
-70.209613
 31
0.0
  0
LINE
  5
183
330
7D
100
AcDbEntity
  8
別途部材
  6
Continuous
100
AcDbLine
 10
5.39106
 20
-64.87627999999999
 30
0.0
 11
5.39106
 21
-70.209613
 31
0.0
  0
LINE
  5
184
330
7D
100
AcDbEntity
  8
別途部材
  6
Continuous
100
AcDbLine
 10
3.39106
 20
-63.87628
 30
0.0
 11
3.39106
 21
-70.209613
 31
0.0
  0
LINE
  5
185
330
7D
100
AcDbEntity
  8
別途部材
  6
Continuous
100
AcDbLine
 10
4.39106
 20
-64.87627999999999
 30
0.0
 11
4.39106
 21
-70.209613
 31
0.0
  0
LINE
  5
186
330
7D
100
AcDbEntity
  8
別途部材
  6
Continuous
100
AcDbLine
 10
0.39106
 20
-64.87627999999999
 30
0.0
 11
0.39106
 21
-70.209613
 31
0.0
  0
LINE
  5
187
330
7D
100
AcDbEntity
  8
別途部材
  6
Continuous
100
AcDbLine
 10
1.39106
 20
-64.87627999999999
 30
0.0
 11
1.39106
 21
-70.209613
 31
0.0
  0
LINE
  5
188
330
7D
100
AcDbEntity
  8
別途部材
  6
Continuous
100
AcDbLine
 10
2.39106
 20
-63.87628
 30
0.0
 11
2.39106
 21
-70.209613
 31
0.0
  0
LINE
  5
189
330
7D
100
AcDbEntity
  8
別途部材
  6
Continuous
100
AcDbLine
 10
-0.60894
 20
-63.87628
 30
0.0
 11
-0.60894
 21
-70.209613
 31
0.0
  0
LINE
  5
18A
330
7D
100
AcDbEntity
  8
別途部材
  6
Continuous
100
AcDbLine
 10
-1.60894
 20
-63.87628
 30
0.0
 11
-1.60894
 21
-70.209613
 31
0.0
  0
LINE
  5
18B
330
7D
100
AcDbEntity
  8
別途部材
  6
Continuous
100
AcDbLine
 10
-2.60894
 20
-64.87627999999999
 30
0.0
 11
-2.60894
 21
-70.209613
 31
0.0
  0
LINE
  5
18C
330
7D
100
AcDbEntity
  8
別途部材
  6
Continuous
100
AcDbLine
 10
-4.60894
 20
-63.87628
 30
0.0
 11
-4.60894
 21
-70.209613
 31
0.0
  0
LINE
  5
18D
330
7D
100
AcDbEntity
  8
別途部材
  6
Continuous
100
AcDbLine
 10
-8.608940000000001
 20
-63.87628
 30
0.0
 11
-8.608940000000001
 21
-70.209613
 31
0.0
  0
LINE
  5
18E
330
7D
100
AcDbEntity
  8
別途部材
  6
Continuous
100
AcDbLine
 10
-7.60894
 20
-64.87627999999999
 30
0.0
 11
-7.60894
 21
-70.209613
 31
0.0
  0
LINE
  5
18F
330
7D
100
AcDbEntity
  8
別途部材
  6
Continuous
100
AcDbLine
 10
-6.60894
 20
-64.87627999999999
 30
0.0
 11
-6.60894
 21
-70.209613
 31
0.0
  0
LINE
  5
190
330
7D
100
AcDbEntity
  8
別途部材
  6
Continuous
100
AcDbLine
 10
-5.60894
 20
-63.87628
 30
0.0
 11
-5.60894
 21
-70.209613
 31
0.0
  0
LINE
  5
191
330
7D
100
AcDbEntity
  8
別途部材
  6
Continuous
100
AcDbLine
 10
-3.60894
 20
-64.87627999999999
 30
0.0
 11
-3.60894
 21
-70.209613
 31
0.0
  0
LINE
  5
192
330
7D
100
AcDbEntity
  8
別途部材
  6
Continuous
100
AcDbLine
 10
-10.60894
 20
-64.87627999999999
 30
0.0
 11
-10.60894
 21
-70.209613
 31
0.0
  0
LINE
  5
193
330
7D
100
AcDbEntity
  8
別途部材
  6
Continuous
100
AcDbLine
 10
-9.608940000000001
 20
-63.87628
 30
0.0
 11
-9.608940000000001
 21
-70.209613
 31
0.0
  0
LINE
  5
194
330
7D
100
AcDbEntity
  8
別途部材
  6
Continuous
100
AcDbLine
 10
-11.60894
 20
-64.87627999999999
 30
0.0
 11
-11.60894
 21
-70.209613
 31
0.0
  0
LINE
  5
195
330
7D
100
AcDbEntity
  8
別途部材
  6
Continuous
100
AcDbLine
 10
-12.60894
 20
-63.87628
 30
0.0
 11
-12.60894
 21
-70.209613
 31
0.0
  0
LINE
  5
196
330
7D
100
AcDbEntity
  8
別途部材
  6
Continuous
100
AcDbLine
 10
-16.60894
 20
-63.87628
 30
0.0
 11
-16.60894
 21
-70.209613
 31
0.0
  0
LINE
  5
197
330
7D
100
AcDbEntity
  8
別途部材
  6
Continuous
100
AcDbLine
 10
-17.60894
 20
-63.87628
 30
0.0
 11
-17.60894
 21
-70.209613
 31
0.0
  0
LINE
  5
198
330
7D
100
AcDbEntity
  8
別途部材
  6
Continuous
100
AcDbLine
 10
-15.60894
 20
-64.87627999999999
 30
0.0
 11
-15.60894
 21
-70.209613
 31
0.0
  0
LINE
  5
199
330
7D
100
AcDbEntity
  8
別途部材
  6
Continuous
100
AcDbLine
 10
-14.60894
 20
-64.87627999999999
 30
0.0
 11
-14.60894
 21
-70.209613
 31
0.0
  0
LINE
  5
19A
330
7D
100
AcDbEntity
  8
別途部材
  6
Continuous
100
AcDbLine
 10
-13.60894
 20
-63.87628
 30
0.0
 11
-13.60894
 21
-70.209613
 31
0.0
  0
LINE
  5
19B
330
7D
100
AcDbEntity
  8
別途部材
  6
Continuous
100
AcDbLine
 10
-18.60894
 20
-64.87627999999999
 30
0.0
 11
-18.60894
 21
-70.209613
 31
0.0
  0
LINE
  5
19C
330
7D
100
AcDbEntity
  8
別途部材
  6
Continuous
100
AcDbLine
 10
-20.60894
 20
-63.87628
 30
0.0
 11
-20.60894
 21
-70.209613
 31
0.0
  0
LINE
  5
19D
330
7D
100
AcDbEntity
  8
別途部材
  6
Continuous
100
AcDbLine
 10
-21.60894
 20
-63.87628
 30
0.0
 11
-21.60894
 21
-70.209613
 31
0.0
  0
LINE
  5
19E
330
7D
100
AcDbEntity
  8
別途部材
  6
Continuous
100
AcDbLine
 10
-22.60894
 20
-64.87627999999999
 30
0.0
 11
-22.60894
 21
-70.209613
 31
0.0
  0
LINE
  5
19F
330
7D
100
AcDbEntity
  8
別途部材
  6
Continuous
100
AcDbLine
 10
-23.60894
 20
-64.87627999999999
 30
0.0
 11
-23.60894
 21
-70.209613
 31
0.0
  0
LINE
  5
1A0
330
7D
100
AcDbEntity
  8
別途部材
  6
Continuous
100
AcDbLine
 10
-24.60894
 20
-63.87628
 30
0.0
 11
-24.60894
 21
-70.209613
 31
0.0
  0
LINE
  5
1A1
330
7D
100
AcDbEntity
  8
別途部材
  6
Continuous
100
AcDbLine
 10
-19.60894
 20
-64.87627999999999
 30
0.0
 11
-19.60894
 21
-70.209613
 31
0.0
  0
LINE
  5
1A2
330
7D
100
AcDbEntity
  8
別途部材
  6
Continuous
100
AcDbLine
 10
-25.60894
 20
-63.87628
 30
0.0
 11
-25.60894
 21
-70.209613
 31
0.0
  0
LINE
  5
1A3
330
7D
100
AcDbEntity
  8
別途部材
  6
Continuous
100
AcDbLine
 10
-26.60894
 20
-64.87627999999999
 30
0.0
 11
-26.60894
 21
-70.209613
 31
0.0
  0
LINE
  5
1A4
330
7D
100
AcDbEntity
  8
別途部材
  6
Continuous
100
AcDbLine
 10
-27.60894
 20
-64.87627999999999
 30
0.0
 11
-27.60894
 21
-70.209613
 31
0.0
  0
LINE
  5
1A5
330
7D
100
AcDbEntity
  8
別途部材
  6
Continuous
100
AcDbLine
 10
-29.60894
 20
-63.87628
 30
0.0
 11
-29.60894
 21
-70.209613
 31
0.0
  0
LINE
  5
1A6
330
7D
100
AcDbEntity
  8
別途部材
  6
Continuous
100
AcDbLine
 10
-31.60894
 20
-64.87627999999999
 30
0.0
 11
-31.60894
 21
-70.209613
 31
0.0
  0
LINE
  5
1A7
330
7D
100
AcDbEntity
  8
別途部材
  6
Continuous
100
AcDbLine
 10
-32.60894
 20
-63.87628
 30
0.0
 11
-32.60894
 21
-70.209613
 31
0.0
  0
LINE
  5
1A8
330
7D
100
AcDbEntity
  8
別途部材
  6
Continuous
100
AcDbLine
 10
-34.60894
 20
-64.87627999999999
 30
0.0
 11
-34.60894
 21
-70.209613
 31
0.0
  0
LINE
  5
1A9
330
7D
100
AcDbEntity
  8
別途部材
  6
Continuous
100
AcDbLine
 10
-35.60894
 20
-64.87627999999999
 30
0.0
 11
-35.60894
 21
-70.209613
 31
0.0
  0
LINE
  5
1AA
330
7D
100
AcDbEntity
  8
別途部材
  6
Continuous
100
AcDbLine
 10
-36.60894
 20
-63.87628
 30
0.0
 11
-36.60894
 21
-70.209613
 31
0.0
  0
LINE
  5
1AB
330
7D
100
AcDbEntity
  8
別途部材
  6
Continuous
100
AcDbLine
 10
-33.60894
 20
-63.87628
 30
0.0
 11
-33.60894
 21
-70.209613
 31
0.0
  0
LINE
  5
1AC
330
7D
100
AcDbEntity
  8
別途部材
  6
Continuous
100
AcDbLine
 10
-30.60894
 20
-64.87627999999999
 30
0.0
 11
-30.60894
 21
-70.209613
 31
0.0
  0
LINE
  5
1AD
330
7D
100
AcDbEntity
  8
別途部材
  6
Continuous
100
AcDbLine
 10
-28.60894
 20
-63.87628
 30
0.0
 11
-28.60894
 21
-70.209613
 31
0.0
  0
ENDBLK
  5
1AE
330
7D
100
AcDbEntity
  8
0
100
AcDbBlockEnd
  0
BLOCK
  5
1AF
330
1B0
100
AcDbEntity
  8
0
100
AcDbBlockBegin
  2
*U5
 70
     1
 71
     0
 10
0.0
 20
0.0
 30
0.0
  3
*U5
  1

  0
LINE
  5
1B1
330
1B0
100
AcDbEntity
  8
寸法
  6
ByBlock
 62
     0
100
AcDbLine
 10
80.24404300000001
 20
22.814033
 30
0.0
 11
80.24404300000001
 21
42.814033
 31
0.0
  0
POINT
  5
1B2
330
1B0
100
AcDbEntity
  8
寸法
 62
     0
100
AcDbPoint
 10
80.24404300000001
 20
22.814033
 30
0.0
  0
POINT
  5
1B3
330
1B0
100
AcDbEntity
  8
寸法
 62
     0
100
AcDbPoint
 10
80.24404300000001
 20
42.814033
 30
0.0
  0
TEXT
  5
1B4
330
1B0
100
AcDbEntity
  8
寸法
  6
Continuous
 62
     0
100
AcDbText
 10
79.84999999999999
 20
21.925
 30
0.0
 40
3.0
  1
呼称寸法　600
 50
90.0
  7
TextStyle03
 72
     5
 11
79.84999999999999
 21
43.675
 31
0.0
100
AcDbText
  0
ENDBLK
  5
1B5
330
1B0
100
AcDbEntity
  8
0
100
AcDbBlockEnd
  0
BLOCK
  5
1B6
330
1B7
100
AcDbEntity
  8
0
100
AcDbBlockBegin
  2
*U6
 70
     1
 71
     0
 10
0.0
 20
0.0
 30
0.0
  3
*U6
  1

  0
LINE
  5
1B8
330
1B7
100
AcDbEntity
  8
寸法
  6
ByBlock
 62
     0
100
AcDbLine
 10
130.424325
 20
33.814033
 30
0.0
 11
130.424325
 21
60.666798
 31
0.0
  0
LINE
  5
1B9
330
1B7
100
AcDbEntity
  8
寸法
  6
ByBlock
 62
     0
100
AcDbLine
 10
135.757657
 20
60.666798
 30
0.0
 11
130.424325
 21
60.666798
 31
0.0
  0
POINT
  5
1BA
330
1B7
100
AcDbEntity
  8
寸法
 62
     0
100
AcDbPoint
 10
135.757657
 20
60.666798
 30
0.0
  0
POINT
  5
1BB
330
1B7
100
AcDbEntity
  8
寸法
 62
     0
100
AcDbPoint
 10
130.424325
 20
60.666798
 30
0.0
  0
TEXT
  5
1BC
330
1B7
100
AcDbEntity
  8
寸法
  6
Continuous
 62
     0
100
AcDbText
 10
130.6375
 20
61.025
 30
0.0
 40
3.0
  1
160
  7
TextStyle03
 72
     5
 11
135.5125
 21
61.025
 31
0.0
100
AcDbText
  0
ENDBLK
  5
1BD
330
1B7
100
AcDbEntity
  8
0
100
AcDbBlockEnd
  0
BLOCK
  5
1BE
330
1BF
100
AcDbEntity
  8
0
100
AcDbBlockBegin
  2
*U7
 70
     1
 71
     0
 10
0.0
 20
0.0
 30
0.0
  3
*U7
  1

  0
LINE
  5
1C0
330
1BF
100
AcDbEntity
  8
寸法
  6
ByBlock
 62
     0
100
AcDbLine
 10
135.757657
 20
47.4807
 30
0.0
 11
135.757657
 21
60.666798
 31
0.0
  0
LINE
  5
1C1
330
1BF
100
AcDbEntity
  8
寸法
  6
ByBlock
 62
     0
100
AcDbLine
 10
139.59123
 20
49.147367
 30
0.0
 11
139.59123
 21
60.666798
 31
0.0
  0
LINE
  5
1C2
330
1BF
100
AcDbEntity
  8
寸法
  6
ByBlock
 62
     0
100
AcDbLine
 10
135.757657
 20
60.666798
 30
0.0
 11
139.59123
 21
60.666798
 31
0.0
  0
POINT
  5
1C3
330
1BF
100
AcDbEntity
  8
寸法
 62
     0
100
AcDbPoint
 10
135.757657
 20
60.666798
 30
0.0
  0
POINT
  5
1C4
330
1BF
100
AcDbEntity
  8
寸法
 62
     0
100
AcDbPoint
 10
139.59123
 20
60.666798
 30
0.0
  0
TEXT
  5
1C5
330
1BF
100
AcDbEntity
  8
寸法
  6
Continuous
 62
     0
100
AcDbText
 10
140.2625
 20
61.025
 30
0.0
 40
3.0
  1
115
  7
TextStyle03
 72
     5
 11
145.1375
 21
61.025
 31
0.0
100
AcDbText
  0
ENDBLK
  5
1C6
330
1BF
100
AcDbEntity
  8
0
100
AcDbBlockEnd
  0
BLOCK
  5
1C7
330
1C8
100
AcDbEntity
  8
0
100
AcDbBlockBegin
  2
*U8
 70
     1
 71
     0
 10
0.0
 20
0.0
 30
0.0
  3
*U8
  1

  0
LINE
  5
1C9
330
1C8
100
AcDbEntity
  8
寸法
  6
ByBlock
 62
     0
100
AcDbLine
 10
37.22439
 20
-64.87627999999999
 30
0.0
 11
62.19404
 21
-64.87627999999999
 31
0.0
  0
LINE
  5
1CA
330
1C8
100
AcDbEntity
  8
寸法
  6
ByBlock
 62
     0
100
AcDbLine
 10
62.19404
 20
-70.209613
 30
0.0
 11
62.19404
 21
-64.87627999999999
 31
0.0
  0
POINT
  5
1CB
330
1C8
100
AcDbEntity
  8
寸法
 62
     0
100
AcDbPoint
 10
62.19404
 20
-70.209613
 30
0.0
  0
POINT
  5
1CC
330
1C8
100
AcDbEntity
  8
寸法
 62
     0
100
AcDbPoint
 10
62.19404
 20
-64.87627999999999
 30
0.0
  0
TEXT
  5
1CD
330
1C8
100
AcDbEntity
  8
寸法
  6
Continuous
 62
     0
100
AcDbText
 10
61.8
 20
-69.9875
 30
0.0
 40
3.0
  1
160
 50
90.0
  7
TextStyle03
 72
     5
 11
61.8
 21
-65.1125
 31
0.0
100
AcDbText
  0
ENDBLK
  5
1CE
330
1C8
100
AcDbEntity
  8
0
100
AcDbBlockEnd
  0
BLOCK
  5
1CF
330
1D0
100
AcDbEntity
  8
0
100
AcDbBlockBegin
  2
*U9
 70
     1
 71
     0
 10
0.0
 20
0.0
 30
0.0
  3
*U9
  1

  0
LINE
  5
1D1
330
1D0
100
AcDbEntity
  8
寸法
  6
ByBlock
 62
     0
100
AcDbLine
 10
50.891057
 20
-70.209613
 30
0.0
 11
62.19404
 21
-70.209613
 31
0.0
  0
LINE
  5
1D2
330
1D0
100
AcDbEntity
  8
寸法
  6
ByBlock
 62
     0
100
AcDbLine
 10
52.557725
 20
-74.04318499999999
 30
0.0
 11
62.19404
 21
-74.04318499999999
 31
0.0
  0
LINE
  5
1D3
330
1D0
100
AcDbEntity
  8
寸法
  6
ByBlock
 62
     0
100
AcDbLine
 10
62.19404
 20
-70.209613
 30
0.0
 11
62.19404
 21
-74.04318499999999
 31
0.0
  0
POINT
  5
1D4
330
1D0
100
AcDbEntity
  8
寸法
 62
     0
100
AcDbPoint
 10
62.19404
 20
-70.209613
 30
0.0
  0
POINT
  5
1D5
330
1D0
100
AcDbEntity
  8
寸法
 62
     0
100
AcDbPoint
 10
62.19404
 20
-74.04318499999999
 30
0.0
  0
TEXT
  5
1D6
330
1D0
100
AcDbEntity
  8
寸法
  6
Continuous
 62
     0
100
AcDbText
 10
61.8
 20
-79.6375
 30
0.0
 40
3.0
  1
115
 50
90.0
  7
TextStyle03
 72
     5
 11
61.8
 21
-74.7625
 31
0.0
100
AcDbText
  0
ENDBLK
  5
1D7
330
1D0
100
AcDbEntity
  8
0
100
AcDbBlockEnd
  0
BLOCK
  5
1D8
330
1D9
100
AcDbEntity
  8
0
100
AcDbBlockBegin
  2
*U10
 70
     1
 71
     0
 10
0.0
 20
0.0
 30
0.0
  3
*U10
  1

  0
LINE
  5
1DA
330
1D9
100
AcDbEntity
  8
寸法
  6
ByBlock
 62
     0
100
AcDbLine
 10
-123.442275
 20
39.4807
 30
0.0
 11
-136.735113
 21
39.4807
 31
0.0
  0
LINE
  5
1DB
330
1D9
100
AcDbEntity
  8
寸法
  6
ByBlock
 62
     0
100
AcDbLine
 10
-123.442275
 20
26.147365
 30
0.0
 11
-136.735113
 21
26.147365
 31
0.0
  0
LINE
  5
1DC
330
1D9
100
AcDbEntity
  8
寸法
  6
ByBlock
 62
     0
100
AcDbLine
 10
-136.735113
 20
39.4807
 30
0.0
 11
-136.735113
 21
26.147365
 31
0.0
  0
POINT
  5
1DD
330
1D9
100
AcDbEntity
  8
寸法
 62
     0
100
AcDbPoint
 10
-136.735113
 20
39.4807
 30
0.0
  0
POINT
  5
1DE
330
1D9
100
AcDbEntity
  8
寸法
 62
     0
100
AcDbPoint
 10
-136.735113
 20
26.147365
 30
0.0
  0
TEXT
  5
1DF
330
1D9
100
AcDbEntity
  8
寸法
  6
Continuous
 62
     0
100
AcDbText
 10
-137.125
 20
30.3625
 30
0.0
 40
3.0
  1
400
 50
90.0
  7
TextStyle03
 72
     5
 11
-137.125
 21
35.2375
 31
0.0
100
AcDbText
  0
ENDBLK
  5
1E0
330
1D9
100
AcDbEntity
  8
0
100
AcDbBlockEnd
  0
BLOCK
  5
1E1
330
1E2
100
AcDbEntity
  8
0
100
AcDbBlockBegin
  2
*U11
 70
     1
 71
     0
 10
0.0
 20
0.0
 30
0.0
  3
*U11
  1

  0
LINE
  5
1E3
330
1E2
100
AcDbEntity
  8
寸法
  6
ByBlock
 62
     0
100
AcDbLine
 10
-112.10894
 20
45.814033
 30
0.0
 11
-112.10894
 21
74.922105
 31
0.0
  0
LINE
  5
1E4
330
1E2
100
AcDbEntity
  8
寸法
  6
ByBlock
 62
     0
100
AcDbLine
 10
-87.10894
 20
45.814033
 30
0.0
 11
-87.10894
 21
74.922105
 31
0.0
  0
LINE
  5
1E5
330
1E2
100
AcDbEntity
  8
寸法
  6
ByBlock
 62
     0
100
AcDbLine
 10
-112.10894
 20
74.922105
 30
0.0
 11
-87.10894
 21
74.922105
 31
0.0
  0
POINT
  5
1E6
330
1E2
100
AcDbEntity
  8
寸法
 62
     0
100
AcDbPoint
 10
-112.10894
 20
74.922105
 30
0.0
  0
POINT
  5
1E7
330
1E2
100
AcDbEntity
  8
寸法
 62
     0
100
AcDbPoint
 10
-87.10894
 20
74.922105
 30
0.0
  0
TEXT
  5
1E8
330
1E2
100
AcDbEntity
  8
寸法
  6
Continuous
 62
     0
100
AcDbText
 10
-102.0875
 20
75.27500000000001
 30
0.0
 40
3.0
  1
750
  7
TextStyle03
 72
     5
 11
-97.21250000000001
 21
75.27500000000001
 31
0.0
100
AcDbText
  0
ENDBLK
  5
1E9
330
1E2
100
AcDbEntity
  8
0
100
AcDbBlockEnd
  0
BLOCK
  5
1EA
330
1EB
100
AcDbEntity
  8
0
100
AcDbBlockBegin
  2
*U12
 70
     1
 71
     0
 10
0.0
 20
0.0
 30
0.0
  3
*U12
  1

  0
LINE
  5
1EC
330
1EB
100
AcDbEntity
  8
寸法
  6
ByBlock
 62
     0
100
AcDbLine
 10
-62.10894
 20
45.814033
 30
0.0
 11
-62.10894
 21
74.922105
 31
0.0
  0
LINE
  5
1ED
330
1EB
100
AcDbEntity
  8
寸法
  6
ByBlock
 62
     0
100
AcDbLine
 10
-87.10894
 20
74.922105
 30
0.0
 11
-62.10894
 21
74.922105
 31
0.0
  0
POINT
  5
1EE
330
1EB
100
AcDbEntity
  8
寸法
 62
     0
100
AcDbPoint
 10
-62.10894
 20
74.922105
 30
0.0
  0
TEXT
  5
1EF
330
1EB
100
AcDbEntity
  8
寸法
  6
Continuous
 62
     0
100
AcDbText
 10
-77.08750000000001
 20
75.27500000000001
 30
0.0
 40
3.0
  1
750
  7
TextStyle03
 72
     5
 11
-72.21250000000001
 21
75.27500000000001
 31
0.0
100
AcDbText
  0
ENDBLK
  5
1F0
330
1EB
100
AcDbEntity
  8
0
100
AcDbBlockEnd
  0
BLOCK
  5
1F1
330
1F2
100
AcDbEntity
  8
0
100
AcDbBlockBegin
  2
*U13
 70
     1
 71
     0
 10
0.0
 20
0.0
 30
0.0
  3
*U13
  1

  0
LINE
  5
1F3
330
1F2
100
AcDbEntity
  8
寸法
  6
ByBlock
 62
     0
100
AcDbLine
 10
-37.10894
 20
45.814033
 30
0.0
 11
-37.10894
 21
74.922105
 31
0.0
  0
LINE
  5
1F4
330
1F2
100
AcDbEntity
  8
寸法
  6
ByBlock
 62
     0
100
AcDbLine
 10
-62.10894
 20
74.922105
 30
0.0
 11
-37.10894
 21
74.922105
 31
0.0
  0
POINT
  5
1F5
330
1F2
100
AcDbEntity
  8
寸法
 62
     0
100
AcDbPoint
 10
-37.10894
 20
74.922105
 30
0.0
  0
TEXT
  5
1F6
330
1F2
100
AcDbEntity
  8
寸法
  6
Continuous
 62
     0
100
AcDbText
 10
-52.0875
 20
75.27500000000001
 30
0.0
 40
3.0
  1
750
  7
TextStyle03
 72
     5
 11
-47.2125
 21
75.27500000000001
 31
0.0
100
AcDbText
  0
ENDBLK
  5
1F7
330
1F2
100
AcDbEntity
  8
0
100
AcDbBlockEnd
  0
BLOCK
  5
1F8
330
1F9
100
AcDbEntity
  8
0
100
AcDbBlockBegin
  2
*U14
 70
     1
 71
     0
 10
0.0
 20
0.0
 30
0.0
  3
*U14
  1

  0
LINE
  5
1FA
330
1F9
100
AcDbEntity
  8
寸法
  6
ByBlock
 62
     0
100
AcDbLine
 10
-12.10894
 20
45.814033
 30
0.0
 11
-12.10894
 21
74.922105
 31
0.0
  0
LINE
  5
1FB
330
1F9
100
AcDbEntity
  8
寸法
  6
ByBlock
 62
     0
100
AcDbLine
 10
-37.10894
 20
74.922105
 30
0.0
 11
-12.10894
 21
74.922105
 31
0.0
  0
POINT
  5
1FC
330
1F9
100
AcDbEntity
  8
寸法
 62
     0
100
AcDbPoint
 10
-12.10894
 20
74.922105
 30
0.0
  0
TEXT
  5
1FD
330
1F9
100
AcDbEntity
  8
寸法
  6
Continuous
 62
     0
100
AcDbText
 10
-27.0875
 20
75.27500000000001
 30
0.0
 40
3.0
  1
750
  7
TextStyle03
 72
     5
 11
-22.2125
 21
75.27500000000001
 31
0.0
100
AcDbText
  0
ENDBLK
  5
1FE
330
1F9
100
AcDbEntity
  8
0
100
AcDbBlockEnd
  0
BLOCK
  5
1FF
330
200
100
AcDbEntity
  8
0
100
AcDbBlockBegin
  2
*U15
 70
     1
 71
     0
 10
0.0
 20
0.0
 30
0.0
  3
*U15
  1

  0
LINE
  5
201
330
200
100
AcDbEntity
  8
寸法
  6
ByBlock
 62
     0
100
AcDbLine
 10
12.89106
 20
45.814033
 30
0.0
 11
12.89106
 21
74.922105
 31
0.0
  0
LINE
  5
202
330
200
100
AcDbEntity
  8
寸法
  6
ByBlock
 62
     0
100
AcDbLine
 10
-12.10894
 20
74.922105
 30
0.0
 11
12.89106
 21
74.922105
 31
0.0
  0
POINT
  5
203
330
200
100
AcDbEntity
  8
寸法
 62
     0
100
AcDbPoint
 10
12.89106
 20
74.922105
 30
0.0
  0
TEXT
  5
204
330
200
100
AcDbEntity
  8
寸法
  6
Continuous
 62
     0
100
AcDbText
 10
-2.0875
 20
75.27500000000001
 30
0.0
 40
3.0
  1
750
  7
TextStyle03
 72
     5
 11
2.7875
 21
75.27500000000001
 31
0.0
100
AcDbText
  0
ENDBLK
  5
205
330
200
100
AcDbEntity
  8
0
100
AcDbBlockEnd
  0
BLOCK
  5
206
330
207
100
AcDbEntity
  8
0
100
AcDbBlockBegin
  2
*U16
 70
     1
 71
     0
 10
0.0
 20
0.0
 30
0.0
  3
*U16
  1

  0
LINE
  5
208
330
207
100
AcDbEntity
  8
寸法
  6
ByBlock
 62
     0
100
AcDbLine
 10
37.89106
 20
45.814033
 30
0.0
 11
37.89106
 21
74.922105
 31
0.0
  0
LINE
  5
209
330
207
100
AcDbEntity
  8
寸法
  6
ByBlock
 62
     0
100
AcDbLine
 10
12.89106
 20
74.922105
 30
0.0
 11
37.89106
 21
74.922105
 31
0.0
  0
POINT
  5
20A
330
207
100
AcDbEntity
  8
寸法
 62
     0
100
AcDbPoint
 10
37.89106
 20
74.922105
 30
0.0
  0
TEXT
  5
20B
330
207
100
AcDbEntity
  8
寸法
  6
Continuous
 62
     0
100
AcDbText
 10
22.9125
 20
75.27500000000001
 30
0.0
 40
3.0
  1
750
  7
TextStyle03
 72
     5
 11
27.7875
 21
75.27500000000001
 31
0.0
100
AcDbText
  0
ENDBLK
  5
20C
330
207
100
AcDbEntity
  8
0
100
AcDbBlockEnd
  0
BLOCK
  5
20D
330
20E
100
AcDbEntity
  8
0
100
AcDbBlockBegin
  2
*U17
 70
     1
 71
     0
 10
0.0
 20
0.0
 30
0.0
  3
*U17
  1

  0
LINE
  5
20F
330
20E
100
AcDbEntity
  8
寸法
  6
ByBlock
 62
     0
100
AcDbLine
 10
-123.608937
 20
-71.04318499999999
 30
0.0
 11
-123.608937
 21
-13.121378
 31
0.0
  0
LINE
  5
210
330
20E
100
AcDbEntity
  8
寸法
  6
ByBlock
 62
     0
100
AcDbLine
 10
-120.442275
 20
-13.121378
 30
0.0
 11
-123.608937
 21
-13.121378
 31
0.0
  0
POINT
  5
211
330
20E
100
AcDbEntity
  8
寸法
 62
     0
100
AcDbPoint
 10
-120.442275
 20
-13.121378
 30
0.0
  0
POINT
  5
212
330
20E
100
AcDbEntity
  8
寸法
 62
     0
100
AcDbPoint
 10
-123.608937
 20
-13.121378
 30
0.0
  0
TEXT
  5
213
330
20E
100
AcDbEntity
  8
寸法
  6
Continuous
 62
     0
100
AcDbText
 10
-123.64375
 20
-12.75
 30
0.0
 40
3.0
  1
95
  7
TextStyle03
 72
     5
 11
-120.45625
 21
-12.75
 31
0.0
100
AcDbText
  0
ENDBLK
  5
214
330
20E
100
AcDbEntity
  8
0
100
AcDbBlockEnd
  0
BLOCK
  5
215
330
216
100
AcDbEntity
  8
0
100
AcDbBlockBegin
  2
*U18
 70
     1
 71
     0
 10
0.0
 20
0.0
 30
0.0
  3
*U18
  1

  0
LINE
  5
217
330
216
100
AcDbEntity
  8
寸法
  6
ByBlock
 62
     0
100
AcDbLine
 10
49.39106
 20
-70.54318499999999
 30
0.0
 11
49.39106
 21
-13.121378
 31
0.0
  0
LINE
  5
218
330
216
100
AcDbEntity
  8
寸法
  6
ByBlock
 62
     0
100
AcDbLine
 10
46.224393
 20
-13.121378
 30
0.0
 11
49.39106
 21
-13.121378
 31
0.0
  0
POINT
  5
219
330
216
100
AcDbEntity
  8
寸法
 62
     0
100
AcDbPoint
 10
46.224393
 20
-13.121378
 30
0.0
  0
POINT
  5
21A
330
216
100
AcDbEntity
  8
寸法
 62
     0
100
AcDbPoint
 10
49.39106
 20
-13.121378
 30
0.0
  0
TEXT
  5
21B
330
216
100
AcDbEntity
  8
寸法
  6
Continuous
 62
     0
100
AcDbText
 10
46.20625
 20
-12.75
 30
0.0
 40
3.0
  1
95
  7
TextStyle03
 72
     5
 11
49.39375
 21
-12.75
 31
0.0
100
AcDbText
  0
ENDBLK
  5
21C
330
216
100
AcDbEntity
  8
0
100
AcDbBlockEnd
  0
BLOCK
  5
21D
330
21E
100
AcDbEntity
  8
0
100
AcDbBlockBegin
  2
*U19
 70
     1
 71
     0
 10
0.0
 20
0.0
 30
0.0
  3
*U19
  1

  0
LINE
  5
21F
330
21E
100
AcDbEntity
  8
寸法
  6
ByBlock
 62
     0
100
AcDbLine
 10
136.09123
 20
19.647365
 30
0.0
 11
80.24404300000001
 21
19.647365
 31
0.0
  0
LINE
  5
220
330
21E
100
AcDbEntity
  8
寸法
  6
ByBlock
 62
     0
100
AcDbLine
 10
80.24404300000001
 20
22.814033
 30
0.0
 11
80.24404300000001
 21
19.647365
 31
0.0
  0
POINT
  5
221
330
21E
100
AcDbEntity
  8
寸法
 62
     0
100
AcDbPoint
 10
80.24404300000001
 20
22.814033
 30
0.0
  0
POINT
  5
222
330
21E
100
AcDbEntity
  8
寸法
 62
     0
100
AcDbPoint
 10
80.24404300000001
 20
19.647365
 30
0.0
  0
TEXT
  5
223
330
21E
100
AcDbEntity
  8
寸法
  6
Continuous
 62
     0
100
AcDbText
 10
79.84999999999999
 20
16.25625
 30
0.0
 40
3.0
  1
95
 50
90.0
  7
TextStyle03
 72
     5
 11
79.84999999999999
 21
19.44375
 31
0.0
100
AcDbText
  0
ENDBLK
  5
224
330
21E
100
AcDbEntity
  8
0
100
AcDbBlockEnd
  0
BLOCK
  5
225
330
226
100
AcDbEntity
  8
0
100
AcDbBlockBegin
  2
*U20
 70
     1
 71
     0
 10
0.0
 20
0.0
 30
0.0
  3
*U20
  1

  0
LINE
  5
227
330
226
100
AcDbEntity
  8
寸法
  6
ByBlock
 62
     0
100
AcDbLine
 10
136.09123
 20
45.9807
 30
0.0
 11
80.24404300000001
 21
45.9807
 31
0.0
  0
LINE
  5
228
330
226
100
AcDbEntity
  8
寸法
  6
ByBlock
 62
     0
100
AcDbLine
 10
80.24404300000001
 20
42.814033
 30
0.0
 11
80.24404300000001
 21
45.9807
 31
0.0
  0
POINT
  5
229
330
226
100
AcDbEntity
  8
寸法
 62
     0
100
AcDbPoint
 10
80.24404300000001
 20
42.814033
 30
0.0
  0
POINT
  5
22A
330
226
100
AcDbEntity
  8
寸法
 62
     0
100
AcDbPoint
 10
80.24404300000001
 20
45.9807
 30
0.0
  0
TEXT
  5
22B
330
226
100
AcDbEntity
  8
寸法
  6
Continuous
 62
     0
100
AcDbText
 10
79.84999999999999
 20
46.15625
 30
0.0
 40
3.0
  1
95
 50
90.0
  7
TextStyle03
 72
     5
 11
79.84999999999999
 21
49.34375
 31
0.0
100
AcDbText
  0
ENDBLK
  5
22C
330
226
100
AcDbEntity
  8
0
100
AcDbBlockEnd
  0
BLOCK
  5
22D
330
22E
100
AcDbEntity
  8
0
100
AcDbBlockBegin
  2
*U21
 70
     1
 71
     0
 10
0.0
 20
0.0
 30
0.0
  3
*U21
  1

  0
LINE
  5
22F
330
22E
100
AcDbEntity
  8
寸法
  6
ByBlock
 62
     0
100
AcDbLine
 10
158.537835
 20
-49.533713
 30
0.0
 11
165.404422
 21
-49.533713
 31
0.0
  0
LINE
  5
230
330
22E
100
AcDbEntity
  8
寸法
  6
ByBlock
 62
     0
100
AcDbLine
 10
158.537835
 20
-69.20038
 30
0.0
 11
165.404422
 21
-69.20038
 31
0.0
  0
LINE
  5
231
330
22E
100
AcDbEntity
  8
寸法
  6
ByBlock
 62
     0
100
AcDbLine
 10
165.404422
 20
-49.533713
 30
0.0
 11
165.404422
 21
-69.20038
 31
0.0
  0
POINT
  5
232
330
22E
100
AcDbEntity
  8
寸法
 62
     0
100
AcDbPoint
 10
165.404422
 20
-49.533713
 30
0.0
  0
POINT
  5
233
330
22E
100
AcDbEntity
  8
寸法
 62
     0
100
AcDbPoint
 10
165.404422
 20
-69.20038
 30
0.0
  0
TEXT
  5
234
330
22E
100
AcDbEntity
  8
寸法
  6
Continuous
 62
     0
100
AcDbText
 10
165.025
 20
-62.625
 30
0.0
 40
4.0
  1
590
 50
90.0
  7
TextStyle03
 72
     5
 11
165.025
 21
-56.125
 31
0.0
100
AcDbText
  0
ENDBLK
  5
235
330
22E
100
AcDbEntity
  8
0
100
AcDbBlockEnd
  0
BLOCK
  5
236
330
237
100
AcDbEntity
  8
0
100
AcDbBlockBegin
  2
*U22
 70
     1
 71
     0
 10
0.0
 20
0.0
 30
0.0
  3
*U22
  1

  0
LINE
  5
238
330
237
100
AcDbEntity
  8
寸法
  6
ByBlock
 62
     0
100
AcDbLine
 10
123.124503
 20
-46.533713
 30
0.0
 11
123.124503
 21
-41.626515
 31
0.0
  0
LINE
  5
239
330
237
100
AcDbEntity
  8
寸法
  6
ByBlock
 62
     0
100
AcDbLine
 10
155.537835
 20
-46.533713
 30
0.0
 11
155.537835
 21
-41.626515
 31
0.0
  0
LINE
  5
23A
330
237
100
AcDbEntity
  8
寸法
  6
ByBlock
 62
     0
100
AcDbLine
 10
123.124503
 20
-41.626515
 30
0.0
 11
155.537835
 21
-41.626515
 31
0.0
  0
POINT
  5
23B
330
237
100
AcDbEntity
  8
寸法
 62
     0
100
AcDbPoint
 10
123.124503
 20
-41.626515
 30
0.0
  0
POINT
  5
23C
330
237
100
AcDbEntity
  8
寸法
 62
     0
100
AcDbPoint
 10
155.537835
 20
-41.626515
 30
0.0
  0
TEXT
  5
23D
330
237
100
AcDbEntity
  8
寸法
  6
Continuous
 62
     0
100
AcDbText
 10
135.2
 20
-41.275
 30
0.0
 40
3.0
  1
972.4
  7
TextStyle03
 72
     5
 11
143.45
 21
-41.275
 31
0.0
100
AcDbText
  0
ENDBLK
  5
23E
330
237
100
AcDbEntity
  8
0
100
AcDbBlockEnd
  0
BLOCK
  5
23F
330
240
100
AcDbEntity
  8
0
100
AcDbBlockBegin
  2
*U23
 70
     1
 71
     0
 10
0.0
 20
0.0
 30
0.0
  3
*U23
  1

  0
LINE
  5
241
330
240
100
AcDbEntity
  8
ボルト／ビス
  6
Continuous
100
AcDbLine
 10
-121.10894
 20
-70.209613
 30
0.0
 11
-121.10894
 21
-69.74294500000001
 31
0.0
  0
LINE
  5
242
330
240
100
AcDbEntity
  8
ボルト／ビス
  6
Continuous
100
AcDbLine
 10
-121.475605
 20
-70.209613
 30
0.0
 11
-121.475605
 21
-70.142945
 31
0.0
  0
LINE
  5
243
330
240
100
AcDbEntity
  8
ボルト／ビス
  6
Continuous
100
AcDbLine
 10
-121.475605
 20
-70.142945
 30
0.0
 11
-120.742273
 21
-70.142945
 31
0.0
  0
LINE
  5
244
330
240
100
AcDbEntity
  8
ボルト／ビス
  6
Continuous
100
AcDbLine
 10
-120.742273
 20
-70.142945
 30
0.0
 11
-120.742273
 21
-70.209613
 31
0.0
  0
LINE
  5
245
330
240
100
AcDbEntity
  8
ボルト／ビス
  6
Continuous
100
AcDbLine
 10
-121.475605
 20
-70.209613
 30
0.0
 11
-120.742273
 21
-70.209613
 31
0.0
  0
LINE
  5
246
330
240
100
AcDbEntity
  8
ボルト／ビス
  6
Continuous
100
AcDbLine
 10
-121.40894
 20
-70.109612
 30
0.0
 11
-121.40894
 21
-70.142945
 31
0.0
  0
LINE
  5
247
330
240
100
AcDbEntity
  8
ボルト／ビス
  6
Continuous
100
AcDbLine
 10
-121.40894
 20
-70.109612
 30
0.0
 11
-120.80894
 21
-70.109612
 31
0.0
  0
LINE
  5
248
330
240
100
AcDbEntity
  8
ボルト／ビス
  6
Continuous
100
AcDbLine
 10
-120.80894
 20
-70.109612
 30
0.0
 11
-120.80894
 21
-70.142945
 31
0.0
  0
LINE
  5
249
330
240
100
AcDbEntity
  8
ボルト／ビス
  6
Continuous
 62
    64
100
AcDbLine
 10
-121.269315
 20
-69.90961299999999
 30
0.0
 11
-121.30139
 21
-69.921288
 31
0.0
  0
ARC
  5
24A
330
240
100
AcDbEntity
  8
ボルト／ビス
  6
Continuous
 62
    64
100
AcDbCircle
 10
-121.253275
 20
-70.01459
 30
0.0
 40
0.104978
100
AcDbArc
 50
62.721967
 51
90.0
  0
ARC
  5
24B
330
240
100
AcDbEntity
  8
ボルト／ビス
  6
Continuous
 62
    64
100
AcDbCircle
 10
-121.108938
 20
-70.31201400000001
 30
0.0
 40
0.402402
100
AcDbArc
 50
76.165002
 51
103.834985
  0
LINE
  5
24C
330
240
100
AcDbEntity
  8
ボルト／ビス
  6
Continuous
 62
    64
100
AcDbLine
 10
-120.948565
 20
-69.90961299999999
 30
0.0
 11
-120.91649
 21
-69.921288
 31
0.0
  0
ARC
  5
24D
330
240
100
AcDbEntity
  8
ボルト／ビス
  6
Continuous
 62
    64
100
AcDbCircle
 10
-120.9646
 20
-70.01459
 30
0.0
 40
0.104978
100
AcDbArc
 50
90.0
 51
117.278033
  0
LINE
  5
24E
330
240
100
AcDbEntity
  8
ボルト／ビス
  6
Continuous
 62
    64
100
AcDbLine
 10
-121.269315
 20
-69.90961299999999
 30
0.0
 11
-120.948565
 21
-69.90961299999999
 31
0.0
  0
LINE
  5
24F
330
240
100
AcDbEntity
  8
ボルト／ビス
  6
Continuous
 62
    64
100
AcDbLine
 10
-120.91649
 20
-69.921288
 30
0.0
 11
-120.91649
 21
-70.042945
 31
0.0
  0
LINE
  5
250
330
240
100
AcDbEntity
  8
ボルト／ビス
  6
Continuous
 62
    64
100
AcDbLine
 10
-121.012715
 20
-69.921288
 30
0.0
 11
-121.012715
 21
-70.042945
 31
0.0
  0
LINE
  5
251
330
240
100
AcDbEntity
  8
ボルト／ビス
  6
Continuous
 62
    64
100
AcDbLine
 10
-121.30139
 20
-69.921288
 30
0.0
 11
-121.30139
 21
-70.042945
 31
0.0
  0
LINE
  5
252
330
240
100
AcDbEntity
  8
ボルト／ビス
  6
Continuous
 62
    64
100
AcDbLine
 10
-121.205165
 20
-69.921288
 30
0.0
 11
-121.205165
 21
-70.042945
 31
0.0
  0
LINE
  5
253
330
240
100
AcDbEntity
  8
ボルト／ビス
  6
Continuous
100
AcDbLine
 10
-121.30139
 20
-70.042945
 30
0.0
 11
-120.91649
 21
-70.042945
 31
0.0
  0
LINE
  5
254
330
240
100
AcDbEntity
  8
ボルト／ビス
  6
Continuous
100
AcDbLine
 10
-121.30894
 20
-70.042945
 30
0.0
 11
-121.30894
 21
-70.109612
 31
0.0
  0
LINE
  5
255
330
240
100
AcDbEntity
  8
ボルト／ビス
  6
Continuous
100
AcDbLine
 10
-121.30894
 20
-70.042945
 30
0.0
 11
-120.90894
 21
-70.042945
 31
0.0
  0
LINE
  5
256
330
240
100
AcDbEntity
  8
ボルト／ビス
  6
Continuous
100
AcDbLine
 10
-120.90894
 20
-70.042945
 30
0.0
 11
-120.90894
 21
-70.109612
 31
0.0
  0
ENDBLK
  5
257
330
240
100
AcDbEntity
  8
0
100
AcDbBlockEnd
  0
BLOCK
  5
258
330
259
100
AcDbEntity
  8
0
100
AcDbBlockBegin
  2
*U24
 70
     1
 71
     0
 10
0.0
 20
0.0
 30
0.0
  3
*U24
  1

  0
LINE
  5
25A
330
259
100
AcDbEntity
  8
ボルト／ビス
  6
Continuous
100
AcDbLine
 10
46.89106
 20
-70.209613
 30
0.0
 11
46.89106
 21
-69.74294500000001
 31
0.0
  0
LINE
  5
25B
330
259
100
AcDbEntity
  8
ボルト／ビス
  6
Continuous
100
AcDbLine
 10
46.524395
 20
-70.209613
 30
0.0
 11
46.524395
 21
-70.142945
 31
0.0
  0
LINE
  5
25C
330
259
100
AcDbEntity
  8
ボルト／ビス
  6
Continuous
100
AcDbLine
 10
46.524395
 20
-70.142945
 30
0.0
 11
47.257727
 21
-70.142945
 31
0.0
  0
LINE
  5
25D
330
259
100
AcDbEntity
  8
ボルト／ビス
  6
Continuous
100
AcDbLine
 10
47.257727
 20
-70.142945
 30
0.0
 11
47.257727
 21
-70.209613
 31
0.0
  0
LINE
  5
25E
330
259
100
AcDbEntity
  8
ボルト／ビス
  6
Continuous
100
AcDbLine
 10
46.524395
 20
-70.209613
 30
0.0
 11
47.257727
 21
-70.209613
 31
0.0
  0
LINE
  5
25F
330
259
100
AcDbEntity
  8
ボルト／ビス
  6
Continuous
100
AcDbLine
 10
46.59106
 20
-70.109612
 30
0.0
 11
46.59106
 21
-70.142945
 31
0.0
  0
LINE
  5
260
330
259
100
AcDbEntity
  8
ボルト／ビス
  6
Continuous
100
AcDbLine
 10
46.59106
 20
-70.109612
 30
0.0
 11
47.19106
 21
-70.109612
 31
0.0
  0
LINE
  5
261
330
259
100
AcDbEntity
  8
ボルト／ビス
  6
Continuous
100
AcDbLine
 10
47.19106
 20
-70.109612
 30
0.0
 11
47.19106
 21
-70.142945
 31
0.0
  0
LINE
  5
262
330
259
100
AcDbEntity
  8
ボルト／ビス
  6
Continuous
 62
    64
100
AcDbLine
 10
46.730685
 20
-69.90961299999999
 30
0.0
 11
46.69861
 21
-69.921288
 31
0.0
  0
ARC
  5
263
330
259
100
AcDbEntity
  8
ボルト／ビス
  6
Continuous
 62
    64
100
AcDbCircle
 10
46.746725
 20
-70.01459
 30
0.0
 40
0.104978
100
AcDbArc
 50
62.721967
 51
90.0
  0
ARC
  5
264
330
259
100
AcDbEntity
  8
ボルト／ビス
  6
Continuous
 62
    64
100
AcDbCircle
 10
46.891062
 20
-70.31201400000001
 30
0.0
 40
0.402402
100
AcDbArc
 50
76.165002
 51
103.834985
  0
LINE
  5
265
330
259
100
AcDbEntity
  8
ボルト／ビス
  6
Continuous
 62
    64
100
AcDbLine
 10
47.051435
 20
-69.90961299999999
 30
0.0
 11
47.08351
 21
-69.921288
 31
0.0
  0
ARC
  5
266
330
259
100
AcDbEntity
  8
ボルト／ビス
  6
Continuous
 62
    64
100
AcDbCircle
 10
47.0354
 20
-70.01459
 30
0.0
 40
0.104978
100
AcDbArc
 50
90.0
 51
117.278033
  0
LINE
  5
267
330
259
100
AcDbEntity
  8
ボルト／ビス
  6
Continuous
 62
    64
100
AcDbLine
 10
46.730685
 20
-69.90961299999999
 30
0.0
 11
47.051435
 21
-69.90961299999999
 31
0.0
  0
LINE
  5
268
330
259
100
AcDbEntity
  8
ボルト／ビス
  6
Continuous
 62
    64
100
AcDbLine
 10
47.08351
 20
-69.921288
 30
0.0
 11
47.08351
 21
-70.042945
 31
0.0
  0
LINE
  5
269
330
259
100
AcDbEntity
  8
ボルト／ビス
  6
Continuous
 62
    64
100
AcDbLine
 10
46.987285
 20
-69.921288
 30
0.0
 11
46.987285
 21
-70.042945
 31
0.0
  0
LINE
  5
26A
330
259
100
AcDbEntity
  8
ボルト／ビス
  6
Continuous
 62
    64
100
AcDbLine
 10
46.69861
 20
-69.921288
 30
0.0
 11
46.69861
 21
-70.042945
 31
0.0
  0
LINE
  5
26B
330
259
100
AcDbEntity
  8
ボルト／ビス
  6
Continuous
 62
    64
100
AcDbLine
 10
46.794835
 20
-69.921288
 30
0.0
 11
46.794835
 21
-70.042945
 31
0.0
  0
LINE
  5
26C
330
259
100
AcDbEntity
  8
ボルト／ビス
  6
Continuous
100
AcDbLine
 10
46.69861
 20
-70.042945
 30
0.0
 11
47.08351
 21
-70.042945
 31
0.0
  0
LINE
  5
26D
330
259
100
AcDbEntity
  8
ボルト／ビス
  6
Continuous
100
AcDbLine
 10
46.69106
 20
-70.042945
 30
0.0
 11
46.69106
 21
-70.109612
 31
0.0
  0
LINE
  5
26E
330
259
100
AcDbEntity
  8
ボルト／ビス
  6
Continuous
100
AcDbLine
 10
46.69106
 20
-70.042945
 30
0.0
 11
47.09106
 21
-70.042945
 31
0.0
  0
LINE
  5
26F
330
259
100
AcDbEntity
  8
ボルト／ビス
  6
Continuous
100
AcDbLine
 10
47.09106
 20
-70.042945
 30
0.0
 11
47.09106
 21
-70.109612
 31
0.0
  0
ENDBLK
  5
270
330
259
100
AcDbEntity
  8
0
100
AcDbBlockEnd
  0
BLOCK
  5
271
330
272
100
AcDbEntity
  8
0
100
AcDbBlockBegin
  2
*U25
 70
     1
 71
     0
 10
0.0
 20
0.0
 30
0.0
  3
*U25
  1

  0
LINE
  5
273
330
272
100
AcDbEntity
  8
ボルト／ビス
  6
Continuous
100
AcDbLine
 10
135.757657
 20
22.147365
 30
0.0
 11
135.29099
 21
22.147365
 31
0.0
  0
LINE
  5
274
330
272
100
AcDbEntity
  8
ボルト／ビス
  6
Continuous
100
AcDbLine
 10
135.757657
 20
21.7807
 30
0.0
 11
135.69099
 21
21.7807
 31
0.0
  0
LINE
  5
275
330
272
100
AcDbEntity
  8
ボルト／ビス
  6
Continuous
100
AcDbLine
 10
135.69099
 20
21.7807
 30
0.0
 11
135.69099
 21
22.514033
 31
0.0
  0
LINE
  5
276
330
272
100
AcDbEntity
  8
ボルト／ビス
  6
Continuous
100
AcDbLine
 10
135.69099
 20
22.514033
 30
0.0
 11
135.757657
 21
22.514033
 31
0.0
  0
LINE
  5
277
330
272
100
AcDbEntity
  8
ボルト／ビス
  6
Continuous
100
AcDbLine
 10
135.757657
 20
21.7807
 30
0.0
 11
135.757657
 21
22.514033
 31
0.0
  0
LINE
  5
278
330
272
100
AcDbEntity
  8
ボルト／ビス
  6
Continuous
100
AcDbLine
 10
135.657657
 20
21.847365
 30
0.0
 11
135.69099
 21
21.847365
 31
0.0
  0
LINE
  5
279
330
272
100
AcDbEntity
  8
ボルト／ビス
  6
Continuous
100
AcDbLine
 10
135.657657
 20
21.847365
 30
0.0
 11
135.657657
 21
22.447365
 31
0.0
  0
LINE
  5
27A
330
272
100
AcDbEntity
  8
ボルト／ビス
  6
Continuous
100
AcDbLine
 10
135.657657
 20
22.447365
 30
0.0
 11
135.69099
 21
22.447365
 31
0.0
  0
LINE
  5
27B
330
272
100
AcDbEntity
  8
ボルト／ビス
  6
Continuous
 62
    64
100
AcDbLine
 10
135.457657
 20
21.98699
 30
0.0
 11
135.469333
 21
21.954915
 31
0.0
  0
ARC
  5
27C
330
272
100
AcDbEntity
  8
ボルト／ビス
  6
Continuous
 62
    64
100
AcDbCircle
 10
135.562633
 20
22.00303
 30
0.0
 40
0.104978
100
AcDbArc
 50
152.721967
 51
180.0
  0
ARC
  5
27D
330
272
100
AcDbEntity
  8
ボルト／ビス
  6
Continuous
 62
    64
100
AcDbCircle
 10
135.860057
 20
22.147368
 30
0.0
 40
0.402402
100
AcDbArc
 50
166.165002
 51
193.834985
  0
LINE
  5
27E
330
272
100
AcDbEntity
  8
ボルト／ビス
  6
Continuous
 62
    64
100
AcDbLine
 10
135.457657
 20
22.30774
 30
0.0
 11
135.469333
 21
22.339815
 31
0.0
  0
ARC
  5
27F
330
272
100
AcDbEntity
  8
ボルト／ビス
  6
Continuous
 62
    64
100
AcDbCircle
 10
135.562633
 20
22.291705
 30
0.0
 40
0.104978
100
AcDbArc
 50
180.0
 51
207.278033
  0
LINE
  5
280
330
272
100
AcDbEntity
  8
ボルト／ビス
  6
Continuous
 62
    64
100
AcDbLine
 10
135.457657
 20
21.98699
 30
0.0
 11
135.457657
 21
22.30774
 31
0.0
  0
LINE
  5
281
330
272
100
AcDbEntity
  8
ボルト／ビス
  6
Continuous
 62
    64
100
AcDbLine
 10
135.469333
 20
22.339815
 30
0.0
 11
135.59099
 21
22.339815
 31
0.0
  0
LINE
  5
282
330
272
100
AcDbEntity
  8
ボルト／ビス
  6
Continuous
 62
    64
100
AcDbLine
 10
135.469333
 20
22.24359
 30
0.0
 11
135.59099
 21
22.24359
 31
0.0
  0
LINE
  5
283
330
272
100
AcDbEntity
  8
ボルト／ビス
  6
Continuous
 62
    64
100
AcDbLine
 10
135.469333
 20
21.954915
 30
0.0
 11
135.59099
 21
21.954915
 31
0.0
  0
LINE
  5
284
330
272
100
AcDbEntity
  8
ボルト／ビス
  6
Continuous
 62
    64
100
AcDbLine
 10
135.469333
 20
22.05114
 30
0.0
 11
135.59099
 21
22.05114
 31
0.0
  0
LINE
  5
285
330
272
100
AcDbEntity
  8
ボルト／ビス
  6
Continuous
100
AcDbLine
 10
135.59099
 20
21.954915
 30
0.0
 11
135.59099
 21
22.339815
 31
0.0
  0
LINE
  5
286
330
272
100
AcDbEntity
  8
ボルト／ビス
  6
Continuous
100
AcDbLine
 10
135.59099
 20
21.947365
 30
0.0
 11
135.657657
 21
21.947365
 31
0.0
  0
LINE
  5
287
330
272
100
AcDbEntity
  8
ボルト／ビス
  6
Continuous
100
AcDbLine
 10
135.59099
 20
21.947365
 30
0.0
 11
135.59099
 21
22.347365
 31
0.0
  0
LINE
  5
288
330
272
100
AcDbEntity
  8
ボルト／ビス
  6
Continuous
100
AcDbLine
 10
135.59099
 20
22.347365
 30
0.0
 11
135.657657
 21
22.347365
 31
0.0
  0
ENDBLK
  5
289
330
272
100
AcDbEntity
  8
0
100
AcDbBlockEnd
  0
BLOCK
  5
28A
330
28B
100
AcDbEntity
  8
0
100
AcDbBlockBegin
  2
*U26
 70
     1
 71
     0
 10
0.0
 20
0.0
 30
0.0
  3
*U26
  1

  0
LINE
  5
28C
330
28B
100
AcDbEntity
  8
ボルト／ビス
  6
Continuous
100
AcDbLine
 10
135.757657
 20
43.4807
 30
0.0
 11
135.29099
 21
43.4807
 31
0.0
  0
LINE
  5
28D
330
28B
100
AcDbEntity
  8
ボルト／ビス
  6
Continuous
100
AcDbLine
 10
135.757657
 20
43.114035
 30
0.0
 11
135.69099
 21
43.114035
 31
0.0
  0
LINE
  5
28E
330
28B
100
AcDbEntity
  8
ボルト／ビス
  6
Continuous
100
AcDbLine
 10
135.69099
 20
43.114035
 30
0.0
 11
135.69099
 21
43.847367
 31
0.0
  0
LINE
  5
28F
330
28B
100
AcDbEntity
  8
ボルト／ビス
  6
Continuous
100
AcDbLine
 10
135.69099
 20
43.847367
 30
0.0
 11
135.757657
 21
43.847367
 31
0.0
  0
LINE
  5
290
330
28B
100
AcDbEntity
  8
ボルト／ビス
  6
Continuous
100
AcDbLine
 10
135.757657
 20
43.114035
 30
0.0
 11
135.757657
 21
43.847367
 31
0.0
  0
LINE
  5
291
330
28B
100
AcDbEntity
  8
ボルト／ビス
  6
Continuous
100
AcDbLine
 10
135.657657
 20
43.1807
 30
0.0
 11
135.69099
 21
43.1807
 31
0.0
  0
LINE
  5
292
330
28B
100
AcDbEntity
  8
ボルト／ビス
  6
Continuous
100
AcDbLine
 10
135.657657
 20
43.1807
 30
0.0
 11
135.657657
 21
43.7807
 31
0.0
  0
LINE
  5
293
330
28B
100
AcDbEntity
  8
ボルト／ビス
  6
Continuous
100
AcDbLine
 10
135.657657
 20
43.7807
 30
0.0
 11
135.69099
 21
43.7807
 31
0.0
  0
LINE
  5
294
330
28B
100
AcDbEntity
  8
ボルト／ビス
  6
Continuous
 62
    64
100
AcDbLine
 10
135.457657
 20
43.320325
 30
0.0
 11
135.469333
 21
43.28825
 31
0.0
  0
ARC
  5
295
330
28B
100
AcDbEntity
  8
ボルト／ビス
  6
Continuous
 62
    64
100
AcDbCircle
 10
135.562633
 20
43.336365
 30
0.0
 40
0.104978
100
AcDbArc
 50
152.721967
 51
180.0
  0
ARC
  5
296
330
28B
100
AcDbEntity
  8
ボルト／ビス
  6
Continuous
 62
    64
100
AcDbCircle
 10
135.860057
 20
43.480703
 30
0.0
 40
0.402402
100
AcDbArc
 50
166.165002
 51
193.834985
  0
LINE
  5
297
330
28B
100
AcDbEntity
  8
ボルト／ビス
  6
Continuous
 62
    64
100
AcDbLine
 10
135.457657
 20
43.641075
 30
0.0
 11
135.469333
 21
43.67315
 31
0.0
  0
ARC
  5
298
330
28B
100
AcDbEntity
  8
ボルト／ビス
  6
Continuous
 62
    64
100
AcDbCircle
 10
135.562633
 20
43.62504
 30
0.0
 40
0.104978
100
AcDbArc
 50
180.0
 51
207.278033
  0
LINE
  5
299
330
28B
100
AcDbEntity
  8
ボルト／ビス
  6
Continuous
 62
    64
100
AcDbLine
 10
135.457657
 20
43.320325
 30
0.0
 11
135.457657
 21
43.641075
 31
0.0
  0
LINE
  5
29A
330
28B
100
AcDbEntity
  8
ボルト／ビス
  6
Continuous
 62
    64
100
AcDbLine
 10
135.469333
 20
43.67315
 30
0.0
 11
135.59099
 21
43.67315
 31
0.0
  0
LINE
  5
29B
330
28B
100
AcDbEntity
  8
ボルト／ビス
  6
Continuous
 62
    64
100
AcDbLine
 10
135.469333
 20
43.576925
 30
0.0
 11
135.59099
 21
43.576925
 31
0.0
  0
LINE
  5
29C
330
28B
100
AcDbEntity
  8
ボルト／ビス
  6
Continuous
 62
    64
100
AcDbLine
 10
135.469333
 20
43.28825
 30
0.0
 11
135.59099
 21
43.28825
 31
0.0
  0
LINE
  5
29D
330
28B
100
AcDbEntity
  8
ボルト／ビス
  6
Continuous
 62
    64
100
AcDbLine
 10
135.469333
 20
43.384475
 30
0.0
 11
135.59099
 21
43.384475
 31
0.0
  0
LINE
  5
29E
330
28B
100
AcDbEntity
  8
ボルト／ビス
  6
Continuous
100
AcDbLine
 10
135.59099
 20
43.28825
 30
0.0
 11
135.59099
 21
43.67315
 31
0.0
  0
LINE
  5
29F
330
28B
100
AcDbEntity
  8
ボルト／ビス
  6
Continuous
100
AcDbLine
 10
135.59099
 20
43.2807
 30
0.0
 11
135.657657
 21
43.2807
 31
0.0
  0
LINE
  5
2A0
330
28B
100
AcDbEntity
  8
ボルト／ビス
  6
Continuous
100
AcDbLine
 10
135.59099
 20
43.2807
 30
0.0
 11
135.59099
 21
43.6807
 31
0.0
  0
LINE
  5
2A1
330
28B
100
AcDbEntity
  8
ボルト／ビス
  6
Continuous
100
AcDbLine
 10
135.59099
 20
43.6807
 30
0.0
 11
135.657657
 21
43.6807
 31
0.0
  0
ENDBLK
  5
2A2
330
28B
100
AcDbEntity
  8
0
100
AcDbBlockEnd
  0
ENDSEC
  0
SECTION
  2
ENTITIES
  0
LWPOLYLINE
  5
2A3
330
1D
100
AcDbEntity
  8
通り芯
  6
Continuous
100
AcDbPolyline
 90
        4
 70
     1
 43
0.0
 10
-210.0
 20
-148.5
 10
210.0
 20
-148.5
 10
210.0
 20
148.5
 10
-210.0
 20
148.5
  0
INSERT
  5
2A9
330
1D
100
AcDbEntity
  8
型材断面
  6
Continuous
100
AcDbBlockReference
  2
*U0
 10
0.0
 20
0.0
 30
0.0
  0
LINE
  5
2AA
330
1D
100
AcDbEntity
  8
型材断面
  6
DASHDOT
100
AcDbLine
 10
46.224393
 20
-77.83644200000001
 30
0.0
 11
46.224393
 21
42.814033
 31
0.0
  0
LINE
  5
2AB
330
1D
100
AcDbEntity
  8
型材断面
  6
DASHDOT
100
AcDbLine
 10
-37.10894
 20
-77.83644200000001
 30
0.0
 11
-37.10894
 21
42.814033
 31
0.0
  0
LINE
  5
2AC
330
1D
100
AcDbEntity
  8
型材断面
  6
DASHDOT
100
AcDbLine
 10
-120.442275
 20
-77.83644200000001
 30
0.0
 11
-120.442275
 21
42.814033
 31
0.0
  0
LINE
  5
2AD
330
1D
100
AcDbEntity
  8
型材断面
  6
DASHDOT
100
AcDbLine
 10
143.901155
 20
22.814033
 30
0.0
 11
-120.442275
 21
22.814033
 31
0.0
  0
LINE
  5
2AE
330
1D
100
AcDbEntity
  8
型材断面
  6
DASHDOT
100
AcDbLine
 10
143.901155
 20
32.814033
 30
0.0
 11
-120.442275
 21
32.814033
 31
0.0
  0
LINE
  5
2AF
330
1D
100
AcDbEntity
  8
型材断面
  6
DASHDOT
100
AcDbLine
 10
143.901155
 20
42.814033
 30
0.0
 11
-120.442275
 21
42.814033
 31
0.0
  0
LINE
  5
2B0
330
1D
100
AcDbEntity
  8
型材断面
  6
Continuous
100
AcDbLine
 10
-103.775608
 20
45.444162
 30
0.0
 11
-105.271238
 21
48.03467
 31
0.0
  0
LINE
  5
2B1
330
1D
100
AcDbEntity
  8
型材断面
  6
Continuous
100
AcDbLine
 10
-103.775608
 20
45.444162
 30
0.0
 11
-102.279978
 21
48.03467
 31
0.0
  0
LINE
  5
2B2
330
1D
100
AcDbEntity
  8
型材断面
  6
Continuous
100
AcDbLine
 10
-102.279978
 20
48.03467
 30
0.0
 11
-105.271238
 21
48.03467
 31
0.0
  0
LINE
  5
2B3
330
1D
100
AcDbEntity
  8
型材断面
  6
Continuous
100
AcDbLine
 10
-161.294482
 20
87.32138000000001
 30
0.0
 11
-162.790113
 21
84.730873
 31
0.0
  0
LINE
  5
2B4
330
1D
100
AcDbEntity
  8
型材断面
  6
Continuous
100
AcDbLine
 10
-161.294482
 20
87.32138000000001
 30
0.0
 11
-159.798852
 21
84.730873
 31
0.0
  0
LINE
  5
2B5
330
1D
100
AcDbEntity
  8
型材断面
  6
Continuous
100
AcDbLine
 10
-159.798852
 20
84.730873
 30
0.0
 11
-162.790113
 21
84.730873
 31
0.0
  0
LINE
  5
2B6
330
1D
100
AcDbEntity
  8
型材断面
  6
Continuous
100
AcDbLine
 10
-167.31707
 20
83.792277
 30
0.0
 11
-121.075292
 21
83.792277
 31
0.0
  0
LINE
  5
2B7
330
1D
100
AcDbEntity
  8
型材断面
  6
Continuous
100
AcDbLine
 10
-123.072405
 20
32.814033
 30
0.0
 11
-125.662913
 21
34.309663
 31
0.0
  0
LINE
  5
2B8
330
1D
100
AcDbEntity
  8
型材断面
  6
Continuous
100
AcDbLine
 10
-123.072405
 20
32.814033
 30
0.0
 11
-125.662913
 21
31.318403
 31
0.0
  0
LINE
  5
2B9
330
1D
100
AcDbEntity
  8
型材断面
  6
Continuous
100
AcDbLine
 10
-125.662913
 20
31.318403
 30
0.0
 11
-125.662913
 21
34.309663
 31
0.0
  0
LINE
  5
2BA
330
1D
100
AcDbEntity
  8
型材断面
  6
Continuous
100
AcDbLine
 10
-103.775608
 20
20.183902
 30
0.0
 11
-105.271238
 21
17.593395
 31
0.0
  0
LINE
  5
2BB
330
1D
100
AcDbEntity
  8
型材断面
  6
Continuous
100
AcDbLine
 10
-103.775608
 20
20.183902
 30
0.0
 11
-102.279978
 21
17.593395
 31
0.0
  0
LINE
  5
2BC
330
1D
100
AcDbEntity
  8
型材断面
  6
Continuous
100
AcDbLine
 10
-102.279978
 20
17.593395
 30
0.0
 11
-105.271238
 21
17.593395
 31
0.0
  0
LINE
  5
2BD
330
1D
100
AcDbEntity
  8
型材断面
  6
Continuous
100
AcDbLine
 10
29.557727
 20
45.444162
 30
0.0
 11
31.053357
 21
48.03467
 31
0.0
  0
LINE
  5
2BE
330
1D
100
AcDbEntity
  8
型材断面
  6
Continuous
100
AcDbLine
 10
29.557727
 20
45.444162
 30
0.0
 11
28.062097
 21
48.03467
 31
0.0
  0
LINE
  5
2BF
330
1D
100
AcDbEntity
  8
型材断面
  6
Continuous
100
AcDbLine
 10
28.062097
 20
48.03467
 30
0.0
 11
31.053357
 21
48.03467
 31
0.0
  0
LINE
  5
2C0
330
1D
100
AcDbEntity
  8
型材断面
  6
Continuous
100
AcDbLine
 10
48.854525
 20
32.814033
 30
0.0
 11
51.445032
 21
34.309663
 31
0.0
  0
LINE
  5
2C1
330
1D
100
AcDbEntity
  8
型材断面
  6
Continuous
100
AcDbLine
 10
48.854525
 20
32.814033
 30
0.0
 11
51.445032
 21
31.318403
 31
0.0
  0
LINE
  5
2C2
330
1D
100
AcDbEntity
  8
型材断面
  6
Continuous
100
AcDbLine
 10
51.445032
 20
31.318403
 30
0.0
 11
51.445032
 21
34.309663
 31
0.0
  0
LINE
  5
2C3
330
1D
100
AcDbEntity
  8
型材断面
  6
Continuous
100
AcDbLine
 10
29.557727
 20
20.183902
 30
0.0
 11
31.053357
 21
17.593395
 31
0.0
  0
LINE
  5
2C4
330
1D
100
AcDbEntity
  8
型材断面
  6
Continuous
100
AcDbLine
 10
29.557727
 20
20.183902
 30
0.0
 11
28.062097
 21
17.593395
 31
0.0
  0
LINE
  5
2C5
330
1D
100
AcDbEntity
  8
型材断面
  6
Continuous
100
AcDbLine
 10
28.062097
 20
17.593395
 30
0.0
 11
31.053357
 21
17.593395
 31
0.0
  0
LINE
  5
2C6
330
1D
100
AcDbEntity
  8
型材断面
  6
Continuous
100
AcDbLine
 10
-37.10894
 20
45.44416
 30
0.0
 11
-35.61331
 21
48.034668
 31
0.0
  0
LINE
  5
2C7
330
1D
100
AcDbEntity
  8
型材断面
  6
Continuous
100
AcDbLine
 10
-37.10894
 20
45.44416
 30
0.0
 11
-38.60457
 21
48.034668
 31
0.0
  0
LINE
  5
2C8
330
1D
100
AcDbEntity
  8
型材断面
  6
Continuous
100
AcDbLine
 10
-38.60457
 20
48.034668
 30
0.0
 11
-35.61331
 21
48.034668
 31
0.0
  0
LINE
  5
2C9
330
1D
100
AcDbEntity
  8
型材断面
  6
Continuous
100
AcDbLine
 10
-37.10894
 20
20.1839
 30
0.0
 11
-35.61331
 21
17.593392
 31
0.0
  0
LINE
  5
2CA
330
1D
100
AcDbEntity
  8
型材断面
  6
Continuous
100
AcDbLine
 10
-37.10894
 20
20.1839
 30
0.0
 11
-38.60457
 21
17.593392
 31
0.0
  0
LINE
  5
2CB
330
1D
100
AcDbEntity
  8
型材断面
  6
Continuous
100
AcDbLine
 10
-38.60457
 20
17.593392
 30
0.0
 11
-35.61331
 21
17.593392
 31
0.0
  0
LINE
  5
2CC
330
1D
100
AcDbEntity
  8
型材断面
  6
Continuous
100
AcDbLine
 10
-167.31707
 20
78.188112
 30
0.0
 11
-121.075292
 21
78.188112
 31
0.0
  0
LINE
  5
2CD
330
1D
100
AcDbEntity
  8
型材断面
  6
Continuous
100
AcDbLine
 10
48.29106
 20
20.747365
 30
0.0
 11
49.39106
 21
19.647365
 31
0.0
  0
LINE
  5
2CE
330
1D
100
AcDbEntity
  8
型材断面
  6
Continuous
100
AcDbLine
 10
48.29106
 20
44.8807
 30
0.0
 11
49.39106
 21
45.9807
 31
0.0
  0
LINE
  5
2CF
330
1D
100
AcDbEntity
  8
型材断面
  6
Continuous
100
AcDbLine
 10
49.39106
 20
19.647365
 30
0.0
 11
49.39106
 21
45.9807
 31
0.0
  0
LINE
  5
2D0
330
1D
100
AcDbEntity
  8
型材断面
  6
Continuous
100
AcDbLine
 10
49.39106
 20
45.9807
 30
0.0
 11
-123.60894
 21
45.9807
 31
0.0
  0
LINE
  5
2D1
330
1D
100
AcDbEntity
  8
型材断面
  6
Continuous
100
AcDbLine
 10
-122.50894
 20
44.8807
 30
0.0
 11
-123.60894
 21
45.9807
 31
0.0
  0
LINE
  5
2D2
330
1D
100
AcDbEntity
  8
型材断面
  6
Continuous
100
AcDbLine
 10
-123.60894
 20
45.9807
 30
0.0
 11
-123.60894
 21
19.647365
 31
0.0
  0
LINE
  5
2D3
330
1D
100
AcDbEntity
  8
型材断面
  6
Continuous
100
AcDbLine
 10
49.39106
 20
19.647365
 30
0.0
 11
-123.60894
 21
19.647365
 31
0.0
  0
LINE
  5
2D4
330
1D
100
AcDbEntity
  8
型材断面
  6
Continuous
100
AcDbLine
 10
-122.50894
 20
20.747365
 30
0.0
 11
-123.60894
 21
19.647365
 31
0.0
  0
LINE
  5
2D5
330
1D
100
AcDbEntity
  8
型材断面
  6
DOT
100
AcDbLine
 10
-86.078942
 20
22.814033
 30
0.0
 11
-86.078942
 21
42.814033
 31
0.0
  0
LINE
  5
2D6
330
1D
100
AcDbEntity
  8
型材断面
  6
DASHDOT
100
AcDbLine
 10
-87.328942
 20
22.814033
 30
0.0
 11
-87.328942
 21
42.814033
 31
0.0
  0
LINE
  5
2D7
330
1D
100
AcDbEntity
  8
型材断面
  6
DOT
100
AcDbLine
 10
-88.578942
 20
22.814033
 30
0.0
 11
-88.578942
 21
42.814033
 31
0.0
  0
LINE
  5
2D8
330
1D
100
AcDbEntity
  8
型材断面
  6
DOT
100
AcDbLine
 10
-52.598942
 20
22.814033
 30
0.0
 11
-52.598942
 21
42.814033
 31
0.0
  0
LINE
  5
2D9
330
1D
100
AcDbEntity
  8
型材断面
  6
DASHDOT
100
AcDbLine
 10
-53.848942
 20
22.814033
 30
0.0
 11
-53.848942
 21
42.814033
 31
0.0
  0
LINE
  5
2DA
330
1D
100
AcDbEntity
  8
型材断面
  6
DOT
100
AcDbLine
 10
-55.098942
 20
22.814033
 30
0.0
 11
-55.098942
 21
42.814033
 31
0.0
  0
LINE
  5
2DB
330
1D
100
AcDbEntity
  8
型材断面
  6
DOT
100
AcDbLine
 10
11.861062
 20
22.814033
 30
0.0
 11
11.861062
 21
42.814033
 31
0.0
  0
LINE
  5
2DC
330
1D
100
AcDbEntity
  8
型材断面
  6
DASHDOT
100
AcDbLine
 10
13.111062
 20
22.814033
 30
0.0
 11
13.111062
 21
42.814033
 31
0.0
  0
LINE
  5
2DD
330
1D
100
AcDbEntity
  8
型材断面
  6
DOT
100
AcDbLine
 10
14.361062
 20
22.814033
 30
0.0
 11
14.361062
 21
42.814033
 31
0.0
  0
LINE
  5
2DE
330
1D
100
AcDbEntity
  8
型材断面
  6
DOT
100
AcDbLine
 10
-21.618937
 20
22.814033
 30
0.0
 11
-21.618937
 21
42.814033
 31
0.0
  0
LINE
  5
2DF
330
1D
100
AcDbEntity
  8
型材断面
  6
DASHDOT
100
AcDbLine
 10
-20.368937
 20
22.814033
 30
0.0
 11
-20.368937
 21
42.814033
 31
0.0
  0
LINE
  5
2E0
330
1D
100
AcDbEntity
  8
型材断面
  6
DOT
100
AcDbLine
 10
-19.118937
 20
22.814033
 30
0.0
 11
-19.118937
 21
42.814033
 31
0.0
  0
LINE
  5
2E1
330
1D
100
AcDbEntity
  8
型材断面
  6
Continuous
 62
    14
100
AcDbLine
 10
139.591228
 20
45.980697
 30
0.0
 11
139.091228
 21
45.980697
 31
0.0
  0
LINE
  5
2E2
330
1D
100
AcDbEntity
  8
型材断面
  6
Continuous
100
AcDbLine
 10
138.924562
 20
44.147363
 30
0.0
 11
139.091228
 21
45.980697
 31
0.0
  0
LINE
  5
2E3
330
1D
100
AcDbEntity
  8
型材断面
  6
Continuous
100
AcDbLine
 10
139.091228
 20
45.980697
 30
0.0
 11
139.591228
 21
45.980697
 31
0.0
  0
LINE
  5
2E4
330
1D
100
AcDbEntity
  8
型材断面
  6
Continuous
100
AcDbLine
 10
139.591228
 20
45.147363
 30
0.0
 11
139.924562
 21
45.147363
 31
0.0
  0
LWPOLYLINE
  5
2E5
330
1D
100
AcDbEntity
  8
型材断面
  6
Continuous
100
AcDbPolyline
 90
        3
 70
     0
 43
0.0
 10
136.757657
 20
44.014035
 10
137.107895
 20
44.014035
 10
137.241228
 20
44.147367
  0
LINE
  5
2EA
330
1D
100
AcDbEntity
  8
型材断面
  6
Continuous
100
AcDbLine
 10
138.924562
 20
44.147363
 30
0.0
 11
137.241222
 21
44.147363
 31
0.0
  0
LINE
  5
2EB
330
1D
100
AcDbEntity
  8
型材断面
  6
Continuous
 62
    14
100
AcDbLine
 10
139.591228
 20
19.647372
 30
0.0
 11
139.091228
 21
19.647372
 31
0.0
  0
LINE
  5
2EC
330
1D
100
AcDbEntity
  8
型材断面
  6
Continuous
100
AcDbLine
 10
138.924562
 20
21.480708
 30
0.0
 11
139.091228
 21
19.647372
 31
0.0
  0
LINE
  5
2ED
330
1D
100
AcDbEntity
  8
型材断面
  6
Continuous
100
AcDbLine
 10
139.091228
 20
19.647372
 30
0.0
 11
139.591228
 21
19.647372
 31
0.0
  0
LINE
  5
2EE
330
1D
100
AcDbEntity
  8
型材断面
  6
Continuous
100
AcDbLine
 10
139.591228
 20
20.480708
 30
0.0
 11
139.924562
 21
20.480708
 31
0.0
  0
LWPOLYLINE
  5
2EF
330
1D
100
AcDbEntity
  8
型材断面
  6
Continuous
100
AcDbPolyline
 90
        3
 70
     0
 43
0.0
 10
136.757657
 20
21.614035
 10
137.107895
 20
21.614035
 10
137.241228
 20
21.480703
  0
LINE
  5
2F4
330
1D
100
AcDbEntity
  8
型材断面
  6
Continuous
100
AcDbLine
 10
138.924562
 20
21.480708
 30
0.0
 11
137.241222
 21
21.480708
 31
0.0
  0
LINE
  5
2F5
330
1D
100
AcDbEntity
  8
型材断面
  6
Continuous
100
AcDbLine
 10
139.091228
 20
45.980697
 30
0.0
 11
139.091228
 21
19.647372
 31
0.0
  0
LINE
  5
2F6
330
1D
100
AcDbEntity
  8
型材断面
  6
Continuous
100
AcDbLine
 10
139.591228
 20
45.980697
 30
0.0
 11
139.591228
 21
19.647372
 31
0.0
  0
LINE
  5
2F7
330
1D
100
AcDbEntity
  8
型材断面
  6
Continuous
100
AcDbLine
 10
139.92456
 20
45.147363
 30
0.0
 11
139.92456
 21
20.480708
 31
0.0
  0
LINE
  5
2F8
330
1D
100
AcDbEntity
  8
型材断面
  6
Continuous
100
AcDbLine
 10
138.924562
 20
44.147363
 30
0.0
 11
138.924562
 21
21.480708
 31
0.0
  0
LINE
  5
2F9
330
1D
100
AcDbEntity
  8
型材断面
  6
Continuous
100
AcDbLine
 10
137.107895
 20
44.014035
 30
0.0
 11
137.107895
 21
21.614035
 31
0.0
  0
LINE
  5
2FA
330
1D
100
AcDbEntity
  8
型材断面
  6
Continuous
100
AcDbLine
 10
137.241228
 20
44.147367
 30
0.0
 11
137.241228
 21
21.480703
 31
0.0
  0
LINE
  5
2FB
330
1D
100
AcDbEntity
  8
型材断面
  6
Continuous
 62
    14
100
AcDbLine
 10
49.391057
 20
-74.043182
 30
0.0
 11
49.391057
 21
-73.543182
 31
0.0
  0
LINE
  5
2FC
330
1D
100
AcDbEntity
  8
型材断面
  6
Continuous
100
AcDbLine
 10
47.557723
 20
-73.376518
 30
0.0
 11
49.391057
 21
-73.543182
 31
0.0
  0
LINE
  5
2FD
330
1D
100
AcDbEntity
  8
型材断面
  6
Continuous
100
AcDbLine
 10
49.391057
 20
-73.543182
 30
0.0
 11
49.391057
 21
-74.043182
 31
0.0
  0
LINE
  5
2FE
330
1D
100
AcDbEntity
  8
型材断面
  6
Continuous
100
AcDbLine
 10
48.557723
 20
-74.043182
 30
0.0
 11
48.557723
 21
-74.376518
 31
0.0
  0
LWPOLYLINE
  5
2FF
330
1D
100
AcDbEntity
  8
型材断面
  6
Continuous
100
AcDbPolyline
 90
        3
 70
     0
 43
0.0
 10
47.424395
 20
-71.209613
 10
47.424395
 20
-71.55985
 10
47.557727
 20
-71.69318199999999
  0
LINE
  5
304
330
1D
100
AcDbEntity
  8
型材断面
  6
Continuous
100
AcDbLine
 10
47.557723
 20
-73.376518
 30
0.0
 11
47.557723
 21
-71.693178
 31
0.0
  0
LINE
  5
305
330
1D
100
AcDbEntity
  8
型材断面
  6
Continuous
 62
    14
100
AcDbLine
 10
-123.608932
 20
-74.043182
 30
0.0
 11
-123.608932
 21
-73.543182
 31
0.0
  0
LINE
  5
306
330
1D
100
AcDbEntity
  8
型材断面
  6
Continuous
100
AcDbLine
 10
-121.775598
 20
-73.376518
 30
0.0
 11
-123.608932
 21
-73.543182
 31
0.0
  0
LINE
  5
307
330
1D
100
AcDbEntity
  8
型材断面
  6
Continuous
100
AcDbLine
 10
-123.608932
 20
-73.543182
 30
0.0
 11
-123.608932
 21
-74.043182
 31
0.0
  0
LINE
  5
308
330
1D
100
AcDbEntity
  8
型材断面
  6
Continuous
100
AcDbLine
 10
-122.775598
 20
-74.043182
 30
0.0
 11
-122.775598
 21
-74.376518
 31
0.0
  0
LWPOLYLINE
  5
309
330
1D
100
AcDbEntity
  8
型材断面
  6
Continuous
100
AcDbPolyline
 90
        3
 70
     0
 43
0.0
 10
-121.64227
 20
-71.209613
 10
-121.64227
 20
-71.55985
 10
-121.775602
 20
-71.69318199999999
  0
LINE
  5
30E
330
1D
100
AcDbEntity
  8
型材断面
  6
Continuous
100
AcDbLine
 10
-121.775598
 20
-73.376518
 30
0.0
 11
-121.775598
 21
-71.693178
 31
0.0
  0
LINE
  5
30F
330
1D
100
AcDbEntity
  8
型材断面
  6
Continuous
100
AcDbLine
 10
49.391057
 20
-73.543182
 30
0.0
 11
-123.608932
 21
-73.543182
 31
0.0
  0
LINE
  5
310
330
1D
100
AcDbEntity
  8
型材断面
  6
Continuous
100
AcDbLine
 10
49.391057
 20
-74.043182
 30
0.0
 11
-123.608932
 21
-74.043182
 31
0.0
  0
LINE
  5
311
330
1D
100
AcDbEntity
  8
型材断面
  6
Continuous
100
AcDbLine
 10
48.557723
 20
-74.376515
 30
0.0
 11
-122.775598
 21
-74.376515
 31
0.0
  0
LINE
  5
312
330
1D
100
AcDbEntity
  8
型材断面
  6
Continuous
100
AcDbLine
 10
47.557723
 20
-73.376518
 30
0.0
 11
-121.775598
 21
-73.376518
 31
0.0
  0
LINE
  5
313
330
1D
100
AcDbEntity
  8
型材断面
  6
Continuous
100
AcDbLine
 10
47.424395
 20
-71.55985
 30
0.0
 11
-121.64227
 21
-71.55985
 31
0.0
  0
LINE
  5
314
330
1D
100
AcDbEntity
  8
型材断面
  6
Continuous
100
AcDbLine
 10
47.557727
 20
-71.69318199999999
 30
0.0
 11
-121.775602
 21
-71.69318199999999
 31
0.0
  0
TEXT
  5
315
330
1D
100
AcDbEntity
  8
文字
  6
Continuous
100
AcDbText
 10
-158.45
 20
84.95
 30
0.0
 40
3.0
  1
は排水穴位置を示す
  7
TextStyle03
 72
     5
 11
-128.45
 21
84.95
 31
0.0
100
AcDbText
  0
TEXT
  5
316
330
1D
100
AcDbEntity
  8
文字
  6
Continuous
100
AcDbText
 10
137.0
 20
-62.775
 30
0.0
 40
3.0
  1
網入り6.8t
  7
TextStyle03
 72
     5
 11
153.6875
 21
-62.775
 31
0.0
100
AcDbText
  0
TEXT
  5
317
330
1D
100
AcDbEntity
  8
文字
  6
Continuous
100
AcDbText
 10
143.675
 20
-67.45
 30
0.0
 40
3.0
  1
×５枚
  7
TextStyle03
 72
     5
 11
153.425
 21
-67.45
 31
0.0
100
AcDbText
  0
TEXT
  5
318
330
1D
100
AcDbEntity
  8
文字
  6
Continuous
100
AcDbText
 10
-141.475
 20
11.275
 30
0.0
 40
3.0
  1
アンカーピッチ
 50
90.0
  7
TextStyle03
 72
     5
 11
-141.475
 21
34.525
 31
0.0
100
AcDbText
  0
TEXT
  5
319
330
1D
100
AcDbEntity
  8
文字
  6
Continuous
100
AcDbText
 10
-109.725
 20
80.25
 30
0.0
 40
3.0
  1
アンカーピッチ
  7
TextStyle03
 72
     5
 11
-86.47499999999999
 21
80.25
 31
0.0
100
AcDbText
  0
TEXT
  5
31A
330
1D
100
AcDbEntity
  8
文字
  6
Continuous
100
AcDbText
 10
-162.175
 20
79.125
 30
0.0
 40
3.0
  1
アンカー数量　１８ヶ所
  7
TextStyle03
 72
     5
 11
-125.425
 21
79.125
 31
0.0
100
AcDbText
  0
TEXT
  5
31B
330
1D
100
AcDbEntity
  8
文字
  6
Continuous
100
AcDbText
 10
77.65000000000001
 20
104.325
 30
0.0
 40
5.0
  1
ＮＳコード：ＮＳＫＬ
  7
TextStyle03
 72
     5
 11
133.275
 21
104.325
 31
0.0
100
AcDbText
  0
TEXT
  5
31C
330
1D
100
AcDbEntity
  8
文字
  6
Continuous
100
AcDbText
 10
78.09999999999999
 20
125.25
 30
0.0
 40
5.0
  1
シリーズ：ＴＤ１ＫＬ
  7
TextStyle03
 72
     5
 11
133.725
 21
125.25
 31
0.0
100
AcDbText
  0
TEXT
  5
31D
330
1D
100
AcDbEntity
  8
文字
  6
Continuous
100
AcDbText
 10
78.09999999999999
 20
119.625
 30
0.0
 40
5.0
  1
　　　　　（固定）600×5000タイプ
  7
TextStyle03
 72
     5
 11
170.2875
 21
119.625
 31
0.0
100
AcDbText
  0
TEXT
  5
31E
330
1D
100
AcDbEntity
  8
文字
  6
Continuous
100
AcDbText
 10
78.09999999999999
 20
114.0
 30
0.0
 40
5.0
  1
図面名　：外観姿図
  7
TextStyle03
 72
     5
 11
128.1
 21
114.0
 31
0.0
100
AcDbText
  0
TEXT
  5
31F
330
1D
100
AcDbEntity
  8
文字
  6
Continuous
100
AcDbText
 10
78.09999999999999
 20
108.375
 30
0.0
 40
5.0
  1
　　　　　　
  7
TextStyle03
 72
     5
 11
111.225
 21
108.375
 31
0.0
100
AcDbText
  0
INSERT
  5
320
330
1D
100
AcDbEntity
  8
寸法
  6
Continuous
100
AcDbBlockReference
  2
*U1
 10
0.0
 20
0.0
 30
0.0
  0
INSERT
  5
321
330
1D
100
AcDbEntity
  8
寸法
  6
Continuous
100
AcDbBlockReference
  2
*U2
 10
0.0
 20
0.0
 30
0.0
  0
INSERT
  5
322
330
1D
100
AcDbEntity
  8
寸法
  6
Continuous
100
AcDbBlockReference
  2
*U3
 10
0.0
 20
0.0
 30
0.0
  0
INSERT
  5
323
330
1D
100
AcDbEntity
  8
寸法
  6
Continuous
100
AcDbBlockReference
  2
*U5
 10
0.0
 20
0.0
 30
0.0
  0
INSERT
  5
324
330
1D
100
AcDbEntity
  8
寸法
  6
Continuous
100
AcDbBlockReference
  2
*U6
 10
0.0
 20
0.0
 30
0.0
  0
INSERT
  5
325
330
1D
100
AcDbEntity
  8
寸法
  6
Continuous
100
AcDbBlockReference
  2
*U7
 10
0.0
 20
0.0
 30
0.0
  0
INSERT
  5
326
330
1D
100
AcDbEntity
  8
寸法
  6
Continuous
100
AcDbBlockReference
  2
*U8
 10
0.0
 20
0.0
 30
0.0
  0
INSERT
  5
327
330
1D
100
AcDbEntity
  8
寸法
  6
Continuous
100
AcDbBlockReference
  2
*U9
 10
0.0
 20
0.0
 30
0.0
  0
INSERT
  5
328
330
1D
100
AcDbEntity
  8
寸法
  6
Continuous
100
AcDbBlockReference
  2
*U10
 10
0.0
 20
0.0
 30
0.0
  0
INSERT
  5
329
330
1D
100
AcDbEntity
  8
寸法
  6
Continuous
100
AcDbBlockReference
  2
*U11
 10
0.0
 20
0.0
 30
0.0
  0
INSERT
  5
32A
330
1D
100
AcDbEntity
  8
寸法
  6
Continuous
100
AcDbBlockReference
  2
*U12
 10
0.0
 20
0.0
 30
0.0
  0
INSERT
  5
32B
330
1D
100
AcDbEntity
  8
寸法
  6
Continuous
100
AcDbBlockReference
  2
*U13
 10
0.0
 20
0.0
 30
0.0
  0
INSERT
  5
32C
330
1D
100
AcDbEntity
  8
寸法
  6
Continuous
100
AcDbBlockReference
  2
*U14
 10
0.0
 20
0.0
 30
0.0
  0
INSERT
  5
32D
330
1D
100
AcDbEntity
  8
寸法
  6
Continuous
100
AcDbBlockReference
  2
*U15
 10
0.0
 20
0.0
 30
0.0
  0
INSERT
  5
32E
330
1D
100
AcDbEntity
  8
寸法
  6
Continuous
100
AcDbBlockReference
  2
*U16
 10
0.0
 20
0.0
 30
0.0
  0
INSERT
  5
32F
330
1D
100
AcDbEntity
  8
寸法
  6
Continuous
100
AcDbBlockReference
  2
*U17
 10
0.0
 20
0.0
 30
0.0
  0
INSERT
  5
330
330
1D
100
AcDbEntity
  8
寸法
  6
Continuous
100
AcDbBlockReference
  2
*U18
 10
0.0
 20
0.0
 30
0.0
  0
INSERT
  5
331
330
1D
100
AcDbEntity
  8
寸法
  6
Continuous
100
AcDbBlockReference
  2
*U19
 10
0.0
 20
0.0
 30
0.0
  0
INSERT
  5
332
330
1D
100
AcDbEntity
  8
寸法
  6
Continuous
100
AcDbBlockReference
  2
*U20
 10
0.0
 20
0.0
 30
0.0
  0
INSERT
  5
333
330
1D
100
AcDbEntity
  8
寸法
  6
Continuous
100
AcDbBlockReference
  2
*U21
 10
0.0
 20
0.0
 30
0.0
  0
INSERT
  5
334
330
1D
100
AcDbEntity
  8
寸法
  6
Continuous
100
AcDbBlockReference
  2
*U22
 10
0.0
 20
0.0
 30
0.0
  0
LINE
  5
335
330
1D
100
AcDbEntity
  8
別途部材
  6
Continuous
100
AcDbLine
 10
48.29106
 20
20.747365
 30
0.0
 11
47.89106
 21
21.147365
 31
0.0
  0
LINE
  5
336
330
1D
100
AcDbEntity
  8
別途部材
  6
Continuous
100
AcDbLine
 10
46.224393
 20
22.814033
 30
0.0
 11
38.165137
 21
30.87329
 31
0.0
  0
LINE
  5
337
330
1D
100
AcDbEntity
  8
別途部材
  6
Continuous
 62
    96
100
AcDbLine
 10
135.757657
 20
21.147365
 30
0.0
 11
136.757657
 21
20.747365
 31
0.0
  0
LINE
  5
338
330
1D
100
AcDbEntity
  8
別途部材
  6
Continuous
 62
    96
100
AcDbLine
 10
135.757657
 20
21.147365
 30
0.0
 11
135.757657
 21
32.814033
 31
0.0
  0
LINE
  5
339
330
1D
100
AcDbEntity
  8
別途部材
  6
Continuous
100
AcDbLine
 10
136.757657
 20
20.747365
 30
0.0
 11
136.757657
 21
32.814033
 31
0.0
  0
LINE
  5
33A
330
1D
100
AcDbEntity
  8
別途部材
  6
Continuous
 62
    96
100
AcDbLine
 10
135.757657
 20
44.4807
 30
0.0
 11
136.757657
 21
44.8807
 31
0.0
  0
LINE
  5
33B
330
1D
100
AcDbEntity
  8
別途部材
  6
Continuous
 62
    96
100
AcDbLine
 10
135.757657
 20
44.4807
 30
0.0
 11
135.757657
 21
32.814033
 31
0.0
  0
LINE
  5
33C
330
1D
100
AcDbEntity
  8
別途部材
  6
Continuous
100
AcDbLine
 10
136.757657
 20
44.8807
 30
0.0
 11
136.757657
 21
32.814033
 31
0.0
  0
ARC
  5
33D
330
1D
100
AcDbEntity
  8
別途部材
  6
Continuous
100
AcDbCircle
 10
142.465993
 20
32.814033
 30
0.0
 40
12.041667
100
AcDbArc
 50
123.855033
 51
236.144967
  0
LINE
  5
33E
330
1D
100
AcDbEntity
  8
別途部材
  6
Continuous
100
AcDbLine
 10
47.89106
 20
21.147365
 30
0.0
 11
47.89106
 21
32.814033
 31
0.0
  0
LINE
  5
33F
330
1D
100
AcDbEntity
  8
別途部材
  6
Continuous
100
AcDbLine
 10
48.29106
 20
20.747365
 30
0.0
 11
48.29106
 21
32.814033
 31
0.0
  0
LINE
  5
340
330
1D
100
AcDbEntity
  8
別途部材
  6
Continuous
100
AcDbLine
 10
48.29106
 20
44.8807
 30
0.0
 11
47.89106
 21
44.4807
 31
0.0
  0
LINE
  5
341
330
1D
100
AcDbEntity
  8
別途部材
  6
Continuous
100
AcDbLine
 10
46.224393
 20
42.814033
 30
0.0
 11
38.165137
 21
34.754775
 31
0.0
  0
LINE
  5
342
330
1D
100
AcDbEntity
  8
別途部材
  6
Continuous
100
AcDbLine
 10
47.89106
 20
44.4807
 30
0.0
 11
47.89106
 21
32.814033
 31
0.0
  0
LINE
  5
343
330
1D
100
AcDbEntity
  8
別途部材
  6
Continuous
100
AcDbLine
 10
48.29106
 20
44.8807
 30
0.0
 11
48.29106
 21
32.814033
 31
0.0
  0
LINE
  5
344
330
1D
100
AcDbEntity
  8
別途部材
  6
Continuous
100
AcDbLine
 10
47.89106
 20
44.4807
 30
0.0
 11
-37.10894
 21
44.4807
 31
0.0
  0
LINE
  5
345
330
1D
100
AcDbEntity
  8
別途部材
  6
Continuous
100
AcDbLine
 10
48.29106
 20
44.8807
 30
0.0
 11
-37.10894
 21
44.8807
 31
0.0
  0
LINE
  5
346
330
1D
100
AcDbEntity
  8
別途部材
  6
Continuous
100
AcDbLine
 10
48.29106
 20
20.747365
 30
0.0
 11
-37.10894
 21
20.747365
 31
0.0
  0
LINE
  5
347
330
1D
100
AcDbEntity
  8
別途部材
  6
Continuous
100
AcDbLine
 10
47.89106
 20
21.147365
 30
0.0
 11
-37.10894
 21
21.147365
 31
0.0
  0
LINE
  5
348
330
1D
100
AcDbEntity
  8
別途部材
  6
Continuous
100
AcDbLine
 10
-122.50894
 20
20.747365
 30
0.0
 11
-122.10894
 21
21.147365
 31
0.0
  0
LINE
  5
349
330
1D
100
AcDbEntity
  8
別途部材
  6
Continuous
100
AcDbLine
 10
-120.442273
 20
22.814033
 30
0.0
 11
-112.383018
 21
30.87329
 31
0.0
  0
LINE
  5
34A
330
1D
100
AcDbEntity
  8
別途部材
  6
Continuous
100
AcDbLine
 10
-122.10894
 20
21.147365
 30
0.0
 11
-122.10894
 21
32.814033
 31
0.0
  0
LINE
  5
34B
330
1D
100
AcDbEntity
  8
別途部材
  6
Continuous
100
AcDbLine
 10
-122.50894
 20
20.747365
 30
0.0
 11
-122.50894
 21
32.814033
 31
0.0
  0
LINE
  5
34C
330
1D
100
AcDbEntity
  8
別途部材
  6
Continuous
100
AcDbLine
 10
-122.50894
 20
44.8807
 30
0.0
 11
-122.10894
 21
44.4807
 31
0.0
  0
LINE
  5
34D
330
1D
100
AcDbEntity
  8
別途部材
  6
Continuous
100
AcDbLine
 10
-120.442273
 20
42.814033
 30
0.0
 11
-112.383018
 21
34.754775
 31
0.0
  0
LINE
  5
34E
330
1D
100
AcDbEntity
  8
別途部材
  6
Continuous
100
AcDbLine
 10
-122.10894
 20
44.4807
 30
0.0
 11
-122.10894
 21
32.814033
 31
0.0
  0
LINE
  5
34F
330
1D
100
AcDbEntity
  8
別途部材
  6
Continuous
100
AcDbLine
 10
-122.50894
 20
44.8807
 30
0.0
 11
-122.50894
 21
32.814033
 31
0.0
  0
LINE
  5
350
330
1D
100
AcDbEntity
  8
別途部材
  6
Continuous
100
AcDbLine
 10
-122.10894
 20
44.4807
 30
0.0
 11
-37.10894
 21
44.4807
 31
0.0
  0
LINE
  5
351
330
1D
100
AcDbEntity
  8
別途部材
  6
Continuous
100
AcDbLine
 10
-122.50894
 20
44.8807
 30
0.0
 11
-37.10894
 21
44.8807
 31
0.0
  0
LINE
  5
352
330
1D
100
AcDbEntity
  8
別途部材
  6
Continuous
100
AcDbLine
 10
-122.50894
 20
20.747365
 30
0.0
 11
-37.10894
 21
20.747365
 31
0.0
  0
LINE
  5
353
330
1D
100
AcDbEntity
  8
別途部材
  6
Continuous
100
AcDbLine
 10
-122.10894
 20
21.147365
 30
0.0
 11
-37.10894
 21
21.147365
 31
0.0
  0
INSERT
  5
354
330
1D
100
AcDbEntity
  8
別途部材
  6
Continuous
100
AcDbBlockReference
  2
*U4
 10
0.0
 20
0.0
 30
0.0
  0
INSERT
  5
355
330
1D
100
AcDbEntity
  8
別途部材
  6
DOT
100
AcDbBlockReference
  2
*U23
 10
0.0
 20
0.0
 30
0.0
  0
INSERT
  5
356
330
1D
100
AcDbEntity
  8
別途部材
  6
DOT
100
AcDbBlockReference
  2
*U24
 10
0.0
 20
0.0
 30
0.0
  0
INSERT
  5
357
330
1D
100
AcDbEntity
  8
別途部材
  6
DOT
100
AcDbBlockReference
  2
*U25
 10
0.0
 20
0.0
 30
0.0
  0
INSERT
  5
358
330
1D
100
AcDbEntity
  8
別途部材
  6
DOT
100
AcDbBlockReference
  2
*U26
 10
0.0
 20
0.0
 30
0.0
  0
LINE
  5
359
330
1D
100
AcDbEntity
  8
曲げ物
  6
Continuous
100
AcDbLine
 10
155.537835
 20
-69.20038
 30
0.0
 11
155.537835
 21
-49.533713
 31
0.0
  0
LINE
  5
35A
330
1D
100
AcDbEntity
  8
曲げ物
  6
Continuous
100
AcDbLine
 10
155.537835
 20
-49.533713
 30
0.0
 11
123.124503
 21
-49.533713
 31
0.0
  0
LINE
  5
35B
330
1D
100
AcDbEntity
  8
曲げ物
  6
Continuous
100
AcDbLine
 10
123.124503
 20
-49.533713
 30
0.0
 11
123.124503
 21
-69.20038
 31
0.0
  0
LINE
  5
35C
330
1D
100
AcDbEntity
  8
曲げ物
  6
Continuous
100
AcDbLine
 10
155.537835
 20
-69.20038
 30
0.0
 11
123.124503
 21
-69.20038
 31
0.0
  0
ENDSEC
  0
SECTION
  2
OBJECTS
  0
DICTIONARY
  5
C
330
0
100
AcDbDictionary
281
     1
  3
ACAD_GROUP
350
D
  3
ACAD_LAYOUT
350
1A
  3
ACAD_MLINESTYLE
350
17
  3
ACAD_PLOTSETTINGS
350
19
  3
ACAD_PLOTSTYLENAME
350
E
  0
DICTIONARY
  5
D
102
{ACAD_REACTORS
330
C
102
}
330
C
100
AcDbDictionary
281
     1
  0
DICTIONARY
  5
1A
102
{ACAD_REACTORS
330
C
102
}
330
C
100
AcDbDictionary
281
     1
  3
Layout1
350
1C
  3
Model
350
1E
  0
DICTIONARY
  5
17
102
{ACAD_REACTORS
330
C
102
}
330
C
100
AcDbDictionary
281
     1
  3
Standard
350
18
  0
DICTIONARY
  5
19
102
{ACAD_REACTORS
330
C
102
}
330
C
100
AcDbDictionary
281
     1
  0
ACDBDICTIONARYWDFLT
  5
E
102
{ACAD_REACTORS
330
C
102
}
330
C
100
AcDbDictionary
281
     1
  3
Normal
350
F
100
AcDbDictionaryWithDefault
340
F
  0
LAYOUT
  5
1C
102
{ACAD_REACTORS
330
1A
102
}
330
1A
100
AcDbPlotSettings
  1

  2

  4

  6

 40
0.0
 41
0.0
 42
0.0
 43
0.0
 44
0.0
 45
0.0
 46
0.0
 47
0.0
 48
0.0
 49
0.0
140
0.0
141
0.0
142
1.0
143
1.0
 70
   688
 72
     0
 73
     0
 74
     5
  7

 75
    16
 76
     0
 77
     2
 78
   300
147
1.0
148
0.0
149
0.0
100
AcDbLayout
  1
Layout1
 70
     1
 71
     1
 10
0.0
 20
0.0
 11
12.0
 21
9.0
 12
0.0
 22
0.0
 32
0.0
 14
1.000000000000000E+20
 24
1.000000000000000E+20
 34
1.000000000000000E+20
 15
-1.000000000000000E+20
 25
-1.000000000000000E+20
 35
-1.000000000000000E+20
146
0.0
 13
0.0
 23
0.0
 33
0.0
 16
1.0
 26
0.0
 36
0.0
 17
0.0
 27
1.0
 37
0.0
 76
     0
330
1B
  0
LAYOUT
  5
1E
102
{ACAD_REACTORS
330
1A
102
}
330
1A
100
AcDbPlotSettings
  1

  2

  4

  6

 40
0.0
 41
0.0
 42
0.0
 43
0.0
 44
0.0
 45
0.0
 46
0.0
 47
0.0
 48
0.0
 49
0.0
140
0.0
141
0.0
142
1.0
143
1.0
 70
  1712
 72
     0
 73
     0
 74
     0
  7

 75
     0
 76
     0
 77
     2
 78
   300
147
1.0
148
0.0
149
0.0
100
AcDbLayout
  1
Model
 70
     1
 71
     0
 10
0.0
 20
0.0
 11
0.0
 21
0.0
 12
0.0
 22
0.0
 32
0.0
 14
-210.0
 24
-148.5
 34
0.0
 15
210.0
 25
148.5
 35
0.0
146
0.0
 13
0.0
 23
0.0
 33
0.0
 16
1.0
 26
0.0
 36
0.0
 17
0.0
 27
1.0
 37
0.0
 76
     0
330
1D
  0
MLINESTYLE
  5
18
102
{ACAD_REACTORS
330
17
102
}
330
17
100
AcDbMlineStyle
  2
Standard
 70
     0
  3

 62
   256
 51
90.0
 52
90.0
 71
     2
 49
0.5
 62
   256
  6
BYLAYER
 49
-0.5
 62
   256
  6
BYLAYER
  0
ACDBPLACEHOLDER
  5
F
102
{ACAD_REACTORS
330
E
102
}
330
E
  0
ENDSEC
  0
EOF
