  0
SECTION
  2
HEADER
  9
$ACADVER
  1
AC1018
  9
$ACADMAINTVER
 70
     0
  9
$DWGCODEPAGE
  3
ANSI_932
  9
$INSBASE
 10
0.0
 20
0.0
 30
0.0
  9
$EXTMIN
 10
-210.0
 20
-148.5
 30
0.0
  9
$EXTMAX
 10
210.0
 20
148.5
 30
0.0
  9
$LIMMIN
 10
0.0
 20
0.0
  9
$LIMMAX
 10
12.0
 20
9.0
  9
$ORTHOMODE
 70
     0
  9
$REGENMODE
 70
     1
  9
$FILLMODE
 70
     1
  9
$QTEXTMODE
 70
     0
  9
$MIRRTEXT
 70
     1
  9
$LTSCALE
 40
10.0
  9
$ATTMODE
 70
     1
  9
$TEXTSIZE
 40
0.2
  9
$TRACEWID
 40
0.05
  9
$TEXTSTYLE
  7
STANDARD
  9
$CLAYER
  8
0
  9
$CELTYPE
  6
ByBlock
  9
$CECOLOR
 62
   256
  9
$CELTSCALE
 40
1.0
  9
$DISPSILH
 70
     0
  9
$DIMSCALE
 40
1.0
  9
$DIMASZ
 40
0.18
  9
$DIMEXO
 40
0.0625
  9
$DIMDLI
 40
0.38
  9
$DIMRND
 40
0.0
  9
$DIMDLE
 40
0.0
  9
$DIMEXE
 40
0.18
  9
$DIMTP
 40
0.0
  9
$DIMTM
 40
0.0
  9
$DIMTXT
 40
0.18
  9
$DIMCEN
 40
0.09
  9
$DIMTSZ
 40
0.0
  9
$DIMTOL
 70
     0
  9
$DIMLIM
 70
     0
  9
$DIMTIH
 70
     1
  9
$DIMTOH
 70
     1
  9
$DIMSE1
 70
     0
  9
$DIMSE2
 70
     0
  9
$DIMTAD
 70
     0
  9
$DIMZIN
 70
     0
  9
$DIMBLK
  1

  9
$DIMASO
 70
     1
  9
$DIMSHO
 70
     1
  9
$DIMPOST
  1

  9
$DIMAPOST
  1

  9
$DIMALT
 70
     0
  9
$DIMALTD
 70
     2
  9
$DIMALTF
 40
25.4
  9
$DIMLFAC
 40
1.0
  9
$DIMTOFL
 70
     0
  9
$DIMTVP
 40
0.0
  9
$DIMTIX
 70
     0
  9
$DIMSOXD
 70
     0
  9
$DIMSAH
 70
     0
  9
$DIMBLK1
  1

  9
$DIMBLK2
  1

  9
$DIMSTYLE
  2
Standard
  9
$DIMCLRD
 70
     0
  9
$DIMCLRE
 70
     0
  9
$DIMCLRT
 70
     0
  9
$DIMTFAC
 40
1.0
  9
$DIMGAP
 40
0.09
  9
$DIMJUST
 70
     0
  9
$DIMSD1
 70
     0
  9
$DIMSD2
 70
     0
  9
$DIMTOLJ
 70
     1
  9
$DIMTZIN
 70
     0
  9
$DIMALTZ
 70
     0
  9
$DIMALTTZ
 70
     0
  9
$DIMUPT
 70
     0
  9
$DIMDEC
 70
     4
  9
$DIMTDEC
 70
     4
  9
$DIMALTU
 70
     2
  9
$DIMALTTD
 70
     2
  9
$DIMTXSTY
  7
STANDARD
  9
$DIMAUNIT
 70
     0
  9
$DIMADEC
 70
     0
  9
$DIMALTRND
 40
0.0
  9
$DIMAZIN
 70
     0
  9
$DIMDSEP
 70
    46
  9
$DIMATFIT
 70
     3
  9
$DIMFRAC
 70
     0
  9
$DIMLDRBLK
  1

  9
$DIMLUNIT
 70
     2
  9
$DIMLWD
 70
    -2
  9
$DIMLWE
 70
    -2
  9
$DIMTMOVE
 70
     0
  9
$LUNITS
 70
     2
  9
$LUPREC
 70
     4
  9
$SKETCHINC
 40
0.1
  9
$FILLETRAD
 40
0.5
  9
$AUNITS
 70
     0
  9
$AUPREC
 70
     0
  9
$MENU
  1
.
  9
$ELEVATION
 40
0.0
  9
$PELEVATION
 40
0.0
  9
$THICKNESS
 40
0.0
  9
$LIMCHECK
 70
     0
  9
$CHAMFERA
 40
0.5
  9
$CHAMFERB
 40
0.5
  9
$CHAMFERC
 40
1.0
  9
$CHAMFERD
 40
0.0
  9
$SKPOLY
 70
     0
  9
$TDCREATE
 40
2460242.409766493
  9
$TDUCREATE
 40
2460242.034766493
  9
$TDUPDATE
 40
2460242.409766505
  9
$TDUUPDATE
 40
2460242.034766505
  9
$TDINDWG
 40
0.0000000116
  9
$TDUSRTIMER
 40
0.0000000116
  9
$USRTIMER
 70
     1
  9
$ANGBASE
 50
0.0
  9
$ANGDIR
 70
     0
  9
$PDMODE
 70
    32
  9
$PDSIZE
 40
1.5
  9
$PLINEWID
 40
0.0
  9
$SPLFRAME
 70
     0
  9
$SPLINETYPE
 70
     6
  9
$SPLINESEGS
 70
     8
  9
$HANDSEED
  5
285
  9
$SURFTAB1
 70
     6
  9
$SURFTAB2
 70
     6
  9
$SURFTYPE
 70
     6
  9
$SURFU
 70
     6
  9
$SURFV
 70
     6
  9
$UCSBASE
  2

  9
$UCSNAME
  2

  9
$UCSORG
 10
0.0
 20
0.0
 30
0.0
  9
$UCSXDIR
 10
1.0
 20
0.0
 30
0.0
  9
$UCSYDIR
 10
0.0
 20
1.0
 30
0.0
  9
$UCSORTHOREF
  2

  9
$UCSORTHOVIEW
 70
     0
  9
$UCSORGTOP
 10
0.0
 20
0.0
 30
0.0
  9
$UCSORGBOTTOM
 10
0.0
 20
0.0
 30
0.0
  9
$UCSORGLEFT
 10
0.0
 20
0.0
 30
0.0
  9
$UCSORGRIGHT
 10
0.0
 20
0.0
 30
0.0
  9
$UCSORGFRONT
 10
0.0
 20
0.0
 30
0.0
  9
$UCSORGBACK
 10
0.0
 20
0.0
 30
0.0
  9
$PUCSBASE
  2

  9
$PUCSNAME
  2

  9
$PUCSORG
 10
0.0
 20
0.0
 30
0.0
  9
$PUCSXDIR
 10
1.0
 20
0.0
 30
0.0
  9
$PUCSYDIR
 10
0.0
 20
1.0
 30
0.0
  9
$PUCSORTHOREF
  2

  9
$PUCSORTHOVIEW
 70
     0
  9
$PUCSORGTOP
 10
0.0
 20
0.0
 30
0.0
  9
$PUCSORGBOTTOM
 10
0.0
 20
0.0
 30
0.0
  9
$PUCSORGLEFT
 10
0.0
 20
0.0
 30
0.0
  9
$PUCSORGRIGHT
 10
0.0
 20
0.0
 30
0.0
  9
$PUCSORGFRONT
 10
0.0
 20
0.0
 30
0.0
  9
$PUCSORGBACK
 10
0.0
 20
0.0
 30
0.0
  9
$USERI1
 70
     0
  9
$USERI2
 70
     0
  9
$USERI3
 70
     0
  9
$USERI4
 70
     0
  9
$USERI5
 70
     0
  9
$USERR1
 40
0.0
  9
$USERR2
 40
0.0
  9
$USERR3
 40
0.0
  9
$USERR4
 40
0.0
  9
$USERR5
 40
0.0
  9
$WORLDVIEW
 70
     1
  9
$SHADEDGE
 70
     3
  9
$SHADEDIF
 70
    70
  9
$TILEMODE
 70
     1
  9
$MAXACTVP
 70
    64
  9
$PINSBASE
 10
0.0
 20
0.0
 30
0.0
  9
$PLIMCHECK
 70
     0
  9
$PEXTMIN
 10
1.000000000000000E+20
 20
1.000000000000000E+20
 30
1.000000000000000E+20
  9
$PEXTMAX
 10
-1.000000000000000E+20
 20
-1.000000000000000E+20
 30
-1.000000000000000E+20
  9
$PLIMMIN
 10
0.0
 20
0.0
  9
$PLIMMAX
 10
12.0
 20
9.0
  9
$UNITMODE
 70
     0
  9
$VISRETAIN
 70
     1
  9
$PLINEGEN
 70
     0
  9
$PSLTSCALE
 70
     1
  9
$TREEDEPTH
 70
  3020
  9
$CMLSTYLE
  2
Standard
  9
$CMLJUST
 70
     0
  9
$CMLSCALE
 40
1.0
  9
$PROXYGRAPHICS
 70
     1
  9
$MEASUREMENT
 70
     0
  9
$CELWEIGHT
370
    -1
  9
$ENDCAPS
280
     0
  9
$JOINSTYLE
280
     0
  9
$LWDISPLAY
290
     0
  9
$INSUNITS
 70
     0
  9
$HYPERLINKBASE
  1

  9
$STYLESHEET
  1

  9
$XEDIT
290
     1
  9
$CEPSNTYPE
380
     0
  9
$PSTYLEMODE
290
     1
  9
$FINGERPRINTGUID
  2
{9EA97DE6-4CC2-452F-8E46-4600CD6B0EB7}
  9
$VERSIONGUID
  2
{FAEB1C32-E019-11D5-929B-00C0DF256EC4}
  9
$EXTNAMES
290
     1
  9
$PSVPSCALE
 40
0.0
  9
$OLESTARTUP
290
     0
  9
$SORTENTS
280
   127
  9
$INDEXCTL
280
     0
  9
$HIDETEXT
280
     1
  9
$XCLIPFRAME
290
     0
  9
$HALOGAP
280
     0
  9
$OBSCOLOR
 70
   257
  9
$OBSLTYPE
280
     0
  9
$INTERSECTIONDISPLAY
280
     0
  9
$INTERSECTIONCOLOR
 70
   257
  9
$DIMASSOC
280
     2
  9
$PROJECTNAME
  1

  0
ENDSEC
  0
SECTION
  2
CLASSES
  0
CLASS
  1
ACDBDICTIONARYWDFLT
  2
AcDbDictionaryWithDefault
  3
ObjectDBX Classes
 90
        0
 91
        3
280
     0
281
     0
  0
ENDSEC
  0
SECTION
  2
TABLES
  0
TABLE
  2
VPORT
  5
8
330
0
100
AcDbSymbolTable
 70
     1
  0
VPORT
  5
280
330
8
100
AcDbSymbolTableRecord
100
AcDbViewportTableRecord
  2
*Active
 70
     0
 10
0.0
 20
0.0
 11
1.0
 21
1.0
 12
10.42990654205607
 22
4.5
 13
0.0
 23
0.0
 14
0.5
 24
0.5
 15
0.5
 25
0.5
 16
0.0
 26
0.0
 36
1.0
 17
0.0
 27
0.0
 37
0.0
 40
9.0
 41
1.972972972850329
 42
50.0
 43
0.0
 44
0.0
 50
0.0
 51
0.0
 71
     0
 72
   100
 73
     1
 74
     3
 75
     0
 76
     0
 77
     0
 78
     0
281
     0
 65
     1
110
0.0
120
0.0
130
0.0
111
1.0
121
0.0
131
0.0
112
0.0
122
1.0
132
0.0
 79
     0
146
0.0
  0
ENDTAB
  0
TABLE
  2
LTYPE
  5
5
330
0
100
AcDbSymbolTable
 70
     9
  0
LTYPE
  5
14
330
5
100
AcDbSymbolTableRecord
100
AcDbLinetypeTableRecord
  2
ByBlock
 70
     0
  3

 72
    65
 73
     0
 40
0.0
  0
LTYPE
  5
15
330
5
100
AcDbSymbolTableRecord
100
AcDbLinetypeTableRecord
  2
ByLayer
 70
     0
  3

 72
    65
 73
     0
 40
0.0
  0
LTYPE
  5
16
330
5
100
AcDbSymbolTableRecord
100
AcDbLinetypeTableRecord
  2
CONTINUOUS
 70
     0
  3
実線
 72
    65
 73
     0
 40
0.0
  0
LTYPE
  5
21
330
5
100
AcDbSymbolTableRecord
100
AcDbLinetypeTableRecord
  2
DASHED
 70
     0
  3
破線A
 72
    65
 73
     2
 40
0.6000000000000001
 49
0.4
 74
     0
 49
-0.2
 74
     0
  0
LTYPE
  5
22
330
5
100
AcDbSymbolTableRecord
100
AcDbLinetypeTableRecord
  2
DASHEDX2
 70
     0
  3
破線B
 72
    65
 73
     2
 40
1.3
 49
0.9
 74
     0
 49
-0.4
 74
     0
  0
LTYPE
  5
23
330
5
100
AcDbSymbolTableRecord
100
AcDbLinetypeTableRecord
  2
DASHDOT
 70
     0
  3
１点鎖線A
 72
    65
 73
     4
 40
0.5375
 49
0.375
 74
     0
 49
-0.05
 74
     0
 49
0.0625
 74
     0
 49
-0.05
 74
     0
  0
LTYPE
  5
24
330
5
100
AcDbSymbolTableRecord
100
AcDbLinetypeTableRecord
  2
DASHDOTX2
 70
     0
  3
１点鎖線B
 72
    65
 73
     4
 40
1.075
 49
0.75
 74
     0
 49
-0.1
 74
     0
 49
0.125
 74
     0
 49
-0.1
 74
     0
  0
LTYPE
  5
25
330
5
100
AcDbSymbolTableRecord
100
AcDbLinetypeTableRecord
  2
DIVIDE2
 70
     0
  3
２点鎖線A
 72
    65
 73
     6
 40
0.5125
 49
0.3
 74
     0
 49
-0.0375
 74
     0
 49
0.05
 74
     0
 49
-0.0375
 74
     0
 49
0.05
 74
     0
 49
-0.0375
 74
     0
  0
LTYPE
  5
26
330
5
100
AcDbSymbolTableRecord
100
AcDbLinetypeTableRecord
  2
DIVIDE
 70
     0
  3
２点鎖線B
 72
    65
 73
     6
 40
1.05
 49
0.55
 74
     0
 49
-0.1
 74
     0
 49
0.1
 74
     0
 49
-0.1
 74
     0
 49
0.1
 74
     0
 49
-0.1
 74
     0
  0
LTYPE
  5
27
330
5
100
AcDbSymbolTableRecord
100
AcDbLinetypeTableRecord
  2
DOT
 70
     0
  3
点線A
 72
    65
 73
     2
 40
0.1125
 49
0.0625
 74
     0
 49
-0.05
 74
     0
  0
LTYPE
  5
28
330
5
100
AcDbSymbolTableRecord
100
AcDbLinetypeTableRecord
  2
DOTX2
 70
     0
  3
点線B
 72
    65
 73
     2
 40
0.275
 49
0.15
 74
     0
 49
-0.125
 74
     0
  0
ENDTAB
  0
TABLE
  2
LAYER
  5
2
330
0
100
AcDbSymbolTable
 70
    34
  0
LAYER
  5
10
330
2
100
AcDbSymbolTableRecord
100
AcDbLayerTableRecord
  2
0
 70
     0
 62
    17
  6
CONTINUOUS
370
    -3
390
F
  0
LAYER
  5
2F
330
2
100
AcDbSymbolTableRecord
100
AcDbLayerTableRecord
  2
通り芯
 70
     0
 62
    15
  6
CONTINUOUS
370
    -3
390
F
  0
LAYER
  5
30
330
2
100
AcDbSymbolTableRecord
100
AcDbLayerTableRecord
  2
補助線
 70
     0
 62
    16
  6
DOT
370
    -3
390
F
  0
LAYER
  5
31
330
2
100
AcDbSymbolTableRecord
100
AcDbLayerTableRecord
  2
躯体
 70
     0
 62
    31
  6
CONTINUOUS
370
    -3
390
F
  0
LAYER
  5
32
330
2
100
AcDbSymbolTableRecord
100
AcDbLayerTableRecord
  2
型材
 70
     0
 62
    32
  6
CONTINUOUS
370
    -3
390
F
  0
LAYER
  5
33
330
2
100
AcDbSymbolTableRecord
100
AcDbLayerTableRecord
  2
型材断面
 70
     0
 62
    47
  6
CONTINUOUS
370
    -3
390
F
  0
LAYER
  5
34
330
2
100
AcDbSymbolTableRecord
100
AcDbLayerTableRecord
  2
ガラス
 70
     0
 62
    48
  6
CONTINUOUS
370
    -3
390
F
  0
LAYER
  5
35
330
2
100
AcDbSymbolTableRecord
100
AcDbLayerTableRecord
  2
ゴム等
 70
     0
 62
    63
  6
CONTINUOUS
370
    -3
390
F
  0
LAYER
  5
36
330
2
100
AcDbSymbolTableRecord
100
AcDbLayerTableRecord
  2
ボルト／ビス
 70
     0
 62
    64
  6
CONTINUOUS
370
    -3
390
F
  0
LAYER
  5
37
330
2
100
AcDbSymbolTableRecord
100
AcDbLayerTableRecord
  2
文字
 70
     0
 62
    79
  6
CONTINUOUS
370
    -3
390
F
  0
LAYER
  5
38
330
2
100
AcDbSymbolTableRecord
100
AcDbLayerTableRecord
  2
寸法
 70
     0
 62
    80
  6
CONTINUOUS
370
    -3
390
F
  0
LAYER
  5
39
330
2
100
AcDbSymbolTableRecord
100
AcDbLayerTableRecord
  2
ﾊｯﾁﾝｸﾞ
 70
     0
 62
    95
  6
CONTINUOUS
370
    -3
390
F
  0
LAYER
  5
3A
330
2
100
AcDbSymbolTableRecord
100
AcDbLayerTableRecord
  2
別途部材
 70
     0
 62
    96
  6
CONTINUOUS
370
    -3
390
F
  0
LAYER
  5
3B
330
2
100
AcDbSymbolTableRecord
100
AcDbLayerTableRecord
  2
曲げ物
 70
     0
 62
   111
  6
CONTINUOUS
370
    -3
390
F
  0
LAYER
  5
3C
330
2
100
AcDbSymbolTableRecord
100
AcDbLayerTableRecord
  2
鉄骨等
 70
     0
 62
   112
  6
CONTINUOUS
370
    -3
390
F
  0
LAYER
  5
3D
330
2
100
AcDbSymbolTableRecord
100
AcDbLayerTableRecord
  2
St
 70
     0
 62
   127
  6
CONTINUOUS
370
    -3
390
F
  0
LAYER
  5
3E
330
2
100
AcDbSymbolTableRecord
100
AcDbLayerTableRecord
  2
その他部品等
 70
     0
 62
   128
  6
CONTINUOUS
370
    -3
390
F
  0
LAYER
  5
3F
330
2
100
AcDbSymbolTableRecord
100
AcDbLayerTableRecord
  2
ｶﾞｽｹｯﾄ
 70
     0
 62
   143
  6
CONTINUOUS
370
    -3
390
F
  0
LAYER
  5
40
330
2
100
AcDbSymbolTableRecord
100
AcDbLayerTableRecord
  2
ｽｹｯﾁ
 70
     0
 62
    14
  6
CONTINUOUS
370
    -3
390
F
  0
LAYER
  5
42
330
2
100
AcDbSymbolTableRecord
100
AcDbLayerTableRecord
  2
1
 70
     0
 62
    30
  6
CONTINUOUS
370
    -3
390
F
  0
LAYER
  5
43
330
2
100
AcDbSymbolTableRecord
100
AcDbLayerTableRecord
  2
4
 70
     0
 62
    33
  6
CONTINUOUS
370
    -3
390
F
  0
LAYER
  5
44
330
2
100
AcDbSymbolTableRecord
100
AcDbLayerTableRecord
  2
ﾚｲﾔ3
 70
     0
 62
    46
  6
CONTINUOUS
370
    -3
390
F
  0
LAYER
  5
45
330
2
100
AcDbSymbolTableRecord
100
AcDbLayerTableRecord
  2
外形線
 70
     0
 62
    49
  6
CONTINUOUS
370
    -3
390
F
  0
LAYER
  5
46
330
2
100
AcDbSymbolTableRecord
100
AcDbLayerTableRecord
  2
部品
 70
     0
 62
    14
  6
CONTINUOUS
370
    -3
390
F
  0
LAYER
  5
47
330
2
100
AcDbSymbolTableRecord
100
AcDbLayerTableRecord
  2
サッシ芯
 70
     0
 62
    17
  6
DASHDOTX2
370
    -3
390
F
  0
LAYER
  5
48
330
2
100
AcDbSymbolTableRecord
100
AcDbLayerTableRecord
  2
寸法線
 70
     0
 62
    62
  6
CONTINUOUS
370
    -3
390
F
  0
LAYER
  5
49
330
2
100
AcDbSymbolTableRecord
100
AcDbLayerTableRecord
  2
姿図外形線
 70
     0
 62
    65
  6
CONTINUOUS
370
    -3
390
F
  0
LAYER
  5
4A
330
2
100
AcDbSymbolTableRecord
100
AcDbLayerTableRecord
  2
姿補助線
 70
     0
 62
    30
  6
CONTINUOUS
370
    -3
390
F
  0
LAYER
  5
4B
330
2
100
AcDbSymbolTableRecord
100
AcDbLayerTableRecord
  2
透視線
 70
     0
 62
    78
  6
DOT
370
    -3
390
F
  0
LAYER
  5
4C
330
2
100
AcDbSymbolTableRecord
100
AcDbLayerTableRecord
  2
用紙
 70
     0
 62
    81
  6
CONTINUOUS
370
    -3
390
F
  0
LAYER
  5
4D
330
2
100
AcDbSymbolTableRecord
100
AcDbLayerTableRecord
  2
実線図枠
 70
     0
 62
    94
  6
CONTINUOUS
370
    -3
390
F
  0
LAYER
  5
4E
330
2
100
AcDbSymbolTableRecord
100
AcDbLayerTableRecord
  2
補助図枠
 70
     0
 62
    97
  6
CONTINUOUS
370
    -3
390
F
  0
LAYER
  5
4F
330
2
100
AcDbSymbolTableRecord
100
AcDbLayerTableRecord
  2
建具記号
 70
     0
 62
   110
  6
CONTINUOUS
370
    -3
390
F
  0
LAYER
  5
50
330
2
100
AcDbSymbolTableRecord
100
AcDbLayerTableRecord
  2
補助文字
 70
     0
 62
   113
  6
CONTINUOUS
370
    -3
390
F
  0
ENDTAB
  0
TABLE
  2
STYLE
  5
3
330
0
100
AcDbSymbolTable
 70
    10
  0
STYLE
  5
11
330
3
100
AcDbSymbolTableRecord
100
AcDbTextStyleTableRecord
  2
STANDARD
 70
     0
 40
1.0
 41
1.0
 50
0.0
 71
     0
 42
1.0
  3
TXT
  4
BIGFONT
  0
STYLE
  5
52
330
3
100
AcDbSymbolTableRecord
100
AcDbTextStyleTableRecord
  2
TATE
 70
     4
 40
1.0
 41
1.0
 50
0.0
 71
     0
 42
1.0
  3
TXT
  4
BIGFONT
  0
STYLE
  5
53
330
3
100
AcDbSymbolTableRecord
100
AcDbTextStyleTableRecord
  2
TextStyle03
 70
     0
 40
1.0
 41
1.0
 50
0.0
 71
     0
 42
1.0
  3
MONOTXT
  4
BIGFONT
  0
STYLE
  5
54
330
3
100
AcDbSymbolTableRecord
100
AcDbTextStyleTableRecord
  2
TextStyle04
 70
     0
 40
1.0
 41
1.0
 50
0.0
 71
     0
 42
1.0
  3
MONOTXT
  4
BIGFONT
  0
STYLE
  5
55
330
3
100
AcDbSymbolTableRecord
100
AcDbTextStyleTableRecord
  2
TextStyle05
 70
     0
 40
1.0
 41
1.0
 50
0.0
 71
     0
 42
1.0
  3
MONOTXT
  4
BIGFONT
  0
STYLE
  5
56
330
3
100
AcDbSymbolTableRecord
100
AcDbTextStyleTableRecord
  2
TextStyle06
 70
     0
 40
1.0
 41
1.0
 50
0.0
 71
     0
 42
1.0
  3
MONOTXT
  4
BIGFONT
  0
STYLE
  5
57
330
3
100
AcDbSymbolTableRecord
100
AcDbTextStyleTableRecord
  2
TextStyle07
 70
     0
 40
1.0
 41
1.0
 50
0.0
 71
     0
 42
1.0
  3
MONOTXT
  4
BIGFONT
  0
STYLE
  5
58
330
3
100
AcDbSymbolTableRecord
100
AcDbTextStyleTableRecord
  2
TextStyle08
 70
     0
 40
1.0
 41
1.0
 50
0.0
 71
     0
 42
1.0
  3
MONOTXT
  4
BIGFONT
  0
STYLE
  5
59
330
3
100
AcDbSymbolTableRecord
100
AcDbTextStyleTableRecord
  2
TextStyle09
 70
     0
 40
1.0
 41
1.0
 50
0.0
 71
     0
 42
1.0
  3
MONOTXT
  4
BIGFONT
  0
STYLE
  5
5A
330
3
100
AcDbSymbolTableRecord
100
AcDbTextStyleTableRecord
  2
TextStyle10
 70
     0
 40
1.0
 41
1.0
 50
0.0
 71
     0
 42
1.0
  3
MONOTXT
  4
BIGFONT
  0
ENDTAB
  0
TABLE
  2
VIEW
  5
6
330
0
100
AcDbSymbolTable
 70
     0
  0
ENDTAB
  0
TABLE
  2
UCS
  5
7
330
0
100
AcDbSymbolTable
 70
     0
  0
ENDTAB
  0
TABLE
  2
APPID
  5
9
330
0
100
AcDbSymbolTable
 70
     1
  0
APPID
  5
12
330
9
100
AcDbSymbolTableRecord
100
AcDbRegAppTableRecord
  2
ACAD
 70
     0
  0
ENDTAB
  0
TABLE
  2
DIMSTYLE
  5
A
330
0
100
AcDbSymbolTable
 70
     1
100
AcDbDimStyleTable
  0
DIMSTYLE
105
5B
330
A
100
AcDbSymbolTableRecord
100
AcDbDimStyleTableRecord
  2
Standard
 70
     0
340
11
  0
ENDTAB
  0
TABLE
  2
BLOCK_RECORD
  5
1
330
0
100
AcDbSymbolTable
 70
    23
  0
BLOCK_RECORD
  5
1D
330
1
100
AcDbSymbolTableRecord
100
AcDbBlockTableRecord
  2
*Model_Space
340
1E
  0
BLOCK_RECORD
  5
1B
330
1
100
AcDbSymbolTableRecord
100
AcDbBlockTableRecord
  2
*Paper_Space
340
1C
  0
BLOCK_RECORD
  5
5D
330
1
100
AcDbSymbolTableRecord
100
AcDbBlockTableRecord
  2
*U0
340
0
102
{BLKREFS
331
1DF
102
}
  0
BLOCK_RECORD
  5
66
330
1
100
AcDbSymbolTableRecord
100
AcDbBlockTableRecord
  2
*U1
340
0
102
{BLKREFS
331
247
102
}
  0
BLOCK_RECORD
  5
6D
330
1
100
AcDbSymbolTableRecord
100
AcDbBlockTableRecord
  2
*U2
340
0
102
{BLKREFS
331
248
102
}
  0
BLOCK_RECORD
  5
76
330
1
100
AcDbSymbolTableRecord
100
AcDbBlockTableRecord
  2
*U3
340
0
102
{BLKREFS
331
277
102
}
  0
BLOCK_RECORD
  5
FB
330
1
100
AcDbSymbolTableRecord
100
AcDbBlockTableRecord
  2
*U4
340
0
102
{BLKREFS
331
249
102
}
  0
BLOCK_RECORD
  5
102
330
1
100
AcDbSymbolTableRecord
100
AcDbBlockTableRecord
  2
*U5
340
0
102
{BLKREFS
331
24A
102
}
  0
BLOCK_RECORD
  5
10A
330
1
100
AcDbSymbolTableRecord
100
AcDbBlockTableRecord
  2
*U6
340
0
102
{BLKREFS
331
24B
102
}
  0
BLOCK_RECORD
  5
113
330
1
100
AcDbSymbolTableRecord
100
AcDbBlockTableRecord
  2
*U7
340
0
102
{BLKREFS
331
24C
102
}
  0
BLOCK_RECORD
  5
11B
330
1
100
AcDbSymbolTableRecord
100
AcDbBlockTableRecord
  2
*U8
340
0
102
{BLKREFS
331
24D
102
}
  0
BLOCK_RECORD
  5
124
330
1
100
AcDbSymbolTableRecord
100
AcDbBlockTableRecord
  2
*U9
340
0
102
{BLKREFS
331
24E
102
}
  0
BLOCK_RECORD
  5
12D
330
1
100
AcDbSymbolTableRecord
100
AcDbBlockTableRecord
  2
*U10
340
0
102
{BLKREFS
331
24F
102
}
  0
BLOCK_RECORD
  5
136
330
1
100
AcDbSymbolTableRecord
100
AcDbBlockTableRecord
  2
*U11
340
0
102
{BLKREFS
331
250
102
}
  0
BLOCK_RECORD
  5
13D
330
1
100
AcDbSymbolTableRecord
100
AcDbBlockTableRecord
  2
*U12
340
0
102
{BLKREFS
331
251
102
}
  0
BLOCK_RECORD
  5
144
330
1
100
AcDbSymbolTableRecord
100
AcDbBlockTableRecord
  2
*U13
340
0
102
{BLKREFS
331
252
102
}
  0
BLOCK_RECORD
  5
14C
330
1
100
AcDbSymbolTableRecord
100
AcDbBlockTableRecord
  2
*U14
340
0
102
{BLKREFS
331
253
102
}
  0
BLOCK_RECORD
  5
154
330
1
100
AcDbSymbolTableRecord
100
AcDbBlockTableRecord
  2
*U15
340
0
102
{BLKREFS
331
254
102
}
  0
BLOCK_RECORD
  5
15C
330
1
100
AcDbSymbolTableRecord
100
AcDbBlockTableRecord
  2
*U16
340
0
102
{BLKREFS
331
255
102
}
  0
BLOCK_RECORD
  5
165
330
1
100
AcDbSymbolTableRecord
100
AcDbBlockTableRecord
  2
*U17
340
0
102
{BLKREFS
331
256
102
}
  0
BLOCK_RECORD
  5
16E
330
1
100
AcDbSymbolTableRecord
100
AcDbBlockTableRecord
  2
*U18
340
0
102
{BLKREFS
331
257
102
}
  0
BLOCK_RECORD
  5
176
330
1
100
AcDbSymbolTableRecord
100
AcDbBlockTableRecord
  2
*U19
340
0
102
{BLKREFS
331
278
102
}
  0
BLOCK_RECORD
  5
18F
330
1
100
AcDbSymbolTableRecord
100
AcDbBlockTableRecord
  2
*U20
340
0
102
{BLKREFS
331
279
102
}
  0
BLOCK_RECORD
  5
1A8
330
1
100
AcDbSymbolTableRecord
100
AcDbBlockTableRecord
  2
*U21
340
0
102
{BLKREFS
331
27A
102
}
  0
BLOCK_RECORD
  5
1C1
330
1
100
AcDbSymbolTableRecord
100
AcDbBlockTableRecord
  2
*U22
340
0
102
{BLKREFS
331
27B
102
}
  0
ENDTAB
  0
ENDSEC
  0
SECTION
  2
BLOCKS
  0
BLOCK
  5
281
330
1D
100
AcDbEntity
  8
0
100
AcDbBlockBegin
  2
*Model_Space
 70
     0
 71
     0
 10
0.0
 20
0.0
 30
0.0
  3
*Model_Space
  1

  0
ENDBLK
  5
282
330
1D
100
AcDbEntity
  8
0
100
AcDbBlockEnd
  0
BLOCK
  5
283
330
1B
100
AcDbEntity
 67
     1
  8
0
100
AcDbBlockBegin
  2
*Paper_Space
 70
     0
 71
     0
 10
0.0
 20
0.0
 30
0.0
  3
*Paper_Space
  1

  0
ENDBLK
  5
284
330
1B
100
AcDbEntity
 67
     1
  8
0
100
AcDbBlockEnd
  0
BLOCK
  5
5C
330
5D
100
AcDbEntity
  8
0
100
AcDbBlockBegin
  2
*U0
 70
     1
 71
     0
 10
0.0
 20
0.0
 30
0.0
  3
*U0
  1

  0
LINE
  5
5E
330
5D
100
AcDbEntity
  8
型材断面
  6
Continuous
100
AcDbLine
 10
195.0
 20
133.5
 30
0.0
 11
195.0
 21
-133.5
 31
0.0
  0
LINE
  5
5F
330
5D
100
AcDbEntity
  8
型材断面
  6
Continuous
100
AcDbLine
 10
195.0
 20
-133.5
 30
0.0
 11
-185.0
 21
-133.5
 31
0.0
  0
LINE
  5
60
330
5D
100
AcDbEntity
  8
型材断面
  6
Continuous
100
AcDbLine
 10
-185.0
 20
-133.5
 30
0.0
 11
-185.0
 21
133.5
 31
0.0
  0
LINE
  5
61
330
5D
100
AcDbEntity
  8
型材断面
  6
Continuous
100
AcDbLine
 10
195.0
 20
133.5
 30
0.0
 11
-185.0
 21
133.5
 31
0.0
  0
LINE
  5
62
330
5D
100
AcDbEntity
  8
型材断面
  6
Continuous
100
AcDbLine
 10
145.0
 20
-133.5
 30
0.0
 11
145.0
 21
-118.5
 31
0.0
  0
LINE
  5
63
330
5D
100
AcDbEntity
  8
型材断面
  6
Continuous
100
AcDbLine
 10
195.0
 20
-118.5
 30
0.0
 11
145.0
 21
-118.5
 31
0.0
  0
ENDBLK
  5
64
330
5D
100
AcDbEntity
  8
0
100
AcDbBlockEnd
  0
BLOCK
  5
65
330
66
100
AcDbEntity
  8
0
100
AcDbBlockBegin
  2
*U1
 70
     1
 71
     0
 10
0.0
 20
0.0
 30
0.0
  3
*U1
  1

  0
LINE
  5
67
330
66
100
AcDbEntity
  8
寸法
  6
ByBlock
 62
     0
100
AcDbLine
 10
4.712865
 20
-13.121378
 30
0.0
 11
-78.62046700000001
 21
-13.121378
 31
0.0
  0
POINT
  5
68
330
66
100
AcDbEntity
  8
寸法
 62
     0
100
AcDbPoint
 10
4.712865
 20
-13.121378
 30
0.0
  0
POINT
  5
69
330
66
100
AcDbEntity
  8
寸法
 62
     0
100
AcDbPoint
 10
-78.62046700000001
 20
-13.121378
 30
0.0
  0
TEXT
  5
6A
330
66
100
AcDbEntity
  8
寸法
  6
Continuous
 62
     0
100
AcDbText
 10
-48.69375
 20
-12.75
 30
0.0
 40
3.0
  1
呼称寸法　2500
  7
TextStyle03
 72
     5
 11
-25.25625
 21
-12.75
 31
0.0
100
AcDbText
  0
ENDBLK
  5
6B
330
66
100
AcDbEntity
  8
0
100
AcDbBlockEnd
  0
BLOCK
  5
6C
330
6D
100
AcDbEntity
  8
0
100
AcDbBlockBegin
  2
*U2
 70
     1
 71
     0
 10
0.0
 20
0.0
 30
0.0
  3
*U2
  1

  0
LINE
  5
6E
330
6D
100
AcDbEntity
  8
寸法
  6
ByBlock
 62
     0
100
AcDbLine
 10
-61.9538
 20
19.183902
 30
0.0
 11
-61.9538
 21
14.01842
 31
0.0
  0
LINE
  5
6F
330
6D
100
AcDbEntity
  8
寸法
  6
ByBlock
 62
     0
100
AcDbLine
 10
-11.953805
 20
19.183902
 30
0.0
 11
-11.953805
 21
14.01842
 31
0.0
  0
LINE
  5
70
330
6D
100
AcDbEntity
  8
寸法
  6
ByBlock
 62
     0
100
AcDbLine
 10
-61.9538
 20
14.01842
 30
0.0
 11
-11.953805
 21
14.01842
 31
0.0
  0
POINT
  5
71
330
6D
100
AcDbEntity
  8
寸法
 62
     0
100
AcDbPoint
 10
-61.9538
 20
14.01842
 30
0.0
  0
POINT
  5
72
330
6D
100
AcDbEntity
  8
寸法
 62
     0
100
AcDbPoint
 10
-11.953805
 20
14.01842
 30
0.0
  0
TEXT
  5
73
330
6D
100
AcDbEntity
  8
寸法
  6
Continuous
 62
     0
100
AcDbText
 10
-40.23125
 20
14.375
 30
0.0
 40
3.0
  1
1500
  7
TextStyle03
 72
     5
 11
-33.66875
 21
14.375
 31
0.0
100
AcDbText
  0
ENDBLK
  5
74
330
6D
100
AcDbEntity
  8
0
100
AcDbBlockEnd
  0
BLOCK
  5
75
330
76
100
AcDbEntity
  8
0
100
AcDbBlockBegin
  2
*U3
 70
     1
 71
     0
 10
0.0
 20
0.0
 30
0.0
  3
*U3
  1

  0
LINE
  5
77
330
76
100
AcDbEntity
  8
別途部材
  6
Continuous
 62
    96
100
AcDbLine
 10
-80.28713500000001
 20
-70.209613
 30
0.0
 11
-80.687135
 21
-71.209613
 31
0.0
  0
ARC
  5
78
330
76
100
AcDbEntity
  8
別途部材
  6
Continuous
100
AcDbCircle
 10
-68.62047
 20
-76.917948
 30
0.0
 40
12.041668
100
AcDbArc
 50
90.0
 51
146.144967
  0
LINE
  5
79
330
76
100
AcDbEntity
  8
別途部材
  6
Continuous
100
AcDbLine
 10
-80.687135
 20
-71.209613
 30
0.0
 11
-36.9538
 21
-71.209613
 31
0.0
  0
LINE
  5
7A
330
76
100
AcDbEntity
  8
別途部材
  6
Continuous
 62
    96
100
AcDbLine
 10
-80.28713500000001
 20
-70.209613
 30
0.0
 11
-36.9538
 21
-70.209613
 31
0.0
  0
LINE
  5
7B
330
76
100
AcDbEntity
  8
別途部材
  6
Continuous
100
AcDbLine
 10
-37.4538
 20
-63.87628
 30
0.0
 11
-38.4538
 21
-64.87627999999999
 31
0.0
  0
LINE
  5
7C
330
76
100
AcDbEntity
  8
別途部材
  6
Continuous
100
AcDbLine
 10
-39.4538
 20
-64.87627999999999
 30
0.0
 11
-40.4538
 21
-63.87628
 31
0.0
  0
LINE
  5
7D
330
76
100
AcDbEntity
  8
別途部材
  6
Continuous
100
AcDbLine
 10
-41.4538
 20
-63.87628
 30
0.0
 11
-42.4538
 21
-64.87627999999999
 31
0.0
  0
LINE
  5
7E
330
76
100
AcDbEntity
  8
別途部材
  6
Continuous
100
AcDbLine
 10
-40.4538
 20
-63.87628
 30
0.0
 11
-41.4538
 21
-63.87628
 31
0.0
  0
LINE
  5
7F
330
76
100
AcDbEntity
  8
別途部材
  6
Continuous
100
AcDbLine
 10
-37.4538
 20
-63.87628
 30
0.0
 11
-36.9538
 21
-63.87628
 31
0.0
  0
LINE
  5
80
330
76
100
AcDbEntity
  8
別途部材
  6
Continuous
100
AcDbLine
 10
-43.4538
 20
-64.87627999999999
 30
0.0
 11
-44.4538
 21
-63.87628
 31
0.0
  0
LINE
  5
81
330
76
100
AcDbEntity
  8
別途部材
  6
Continuous
100
AcDbLine
 10
-45.4538
 20
-63.87628
 30
0.0
 11
-46.4538
 21
-64.87627999999999
 31
0.0
  0
LINE
  5
82
330
76
100
AcDbEntity
  8
別途部材
  6
Continuous
100
AcDbLine
 10
-44.4538
 20
-63.87628
 30
0.0
 11
-45.4538
 21
-63.87628
 31
0.0
  0
LINE
  5
83
330
76
100
AcDbEntity
  8
別途部材
  6
Continuous
100
AcDbLine
 10
-47.4538
 20
-64.87627999999999
 30
0.0
 11
-48.4538
 21
-63.87628
 31
0.0
  0
LINE
  5
84
330
76
100
AcDbEntity
  8
別途部材
  6
Continuous
100
AcDbLine
 10
-49.4538
 20
-63.87628
 30
0.0
 11
-50.4538
 21
-64.87627999999999
 31
0.0
  0
LINE
  5
85
330
76
100
AcDbEntity
  8
別途部材
  6
Continuous
100
AcDbLine
 10
-48.4538
 20
-63.87628
 30
0.0
 11
-49.4538
 21
-63.87628
 31
0.0
  0
LINE
  5
86
330
76
100
AcDbEntity
  8
別途部材
  6
Continuous
100
AcDbLine
 10
-51.4538
 20
-64.87627999999999
 30
0.0
 11
-52.4538
 21
-63.87628
 31
0.0
  0
LINE
  5
87
330
76
100
AcDbEntity
  8
別途部材
  6
Continuous
100
AcDbLine
 10
-53.4538
 20
-63.87628
 30
0.0
 11
-54.4538
 21
-64.87627999999999
 31
0.0
  0
LINE
  5
88
330
76
100
AcDbEntity
  8
別途部材
  6
Continuous
100
AcDbLine
 10
-52.4538
 20
-63.87628
 30
0.0
 11
-53.4538
 21
-63.87628
 31
0.0
  0
LINE
  5
89
330
76
100
AcDbEntity
  8
別途部材
  6
Continuous
100
AcDbLine
 10
-55.4538
 20
-64.87627999999999
 30
0.0
 11
-56.4538
 21
-63.87628
 31
0.0
  0
LINE
  5
8A
330
76
100
AcDbEntity
  8
別途部材
  6
Continuous
100
AcDbLine
 10
-57.4538
 20
-63.87628
 30
0.0
 11
-58.4538
 21
-64.87627999999999
 31
0.0
  0
LINE
  5
8B
330
76
100
AcDbEntity
  8
別途部材
  6
Continuous
100
AcDbLine
 10
-56.4538
 20
-63.87628
 30
0.0
 11
-57.4538
 21
-63.87628
 31
0.0
  0
LINE
  5
8C
330
76
100
AcDbEntity
  8
別途部材
  6
Continuous
100
AcDbLine
 10
-59.4538
 20
-64.87627999999999
 30
0.0
 11
-60.4538
 21
-63.87628
 31
0.0
  0
LINE
  5
8D
330
76
100
AcDbEntity
  8
別途部材
  6
Continuous
100
AcDbLine
 10
-61.4538
 20
-63.87628
 30
0.0
 11
-62.4538
 21
-64.87627999999999
 31
0.0
  0
LINE
  5
8E
330
76
100
AcDbEntity
  8
別途部材
  6
Continuous
100
AcDbLine
 10
-60.4538
 20
-63.87628
 30
0.0
 11
-61.4538
 21
-63.87628
 31
0.0
  0
LINE
  5
8F
330
76
100
AcDbEntity
  8
別途部材
  6
Continuous
100
AcDbLine
 10
-63.4538
 20
-64.87627999999999
 30
0.0
 11
-64.4538
 21
-63.87628
 31
0.0
  0
LINE
  5
90
330
76
100
AcDbEntity
  8
別途部材
  6
Continuous
100
AcDbLine
 10
-65.4538
 20
-63.87628
 30
0.0
 11
-66.4538
 21
-64.87627999999999
 31
0.0
  0
LINE
  5
91
330
76
100
AcDbEntity
  8
別途部材
  6
Continuous
100
AcDbLine
 10
-64.4538
 20
-63.87628
 30
0.0
 11
-65.4538
 21
-63.87628
 31
0.0
  0
LINE
  5
92
330
76
100
AcDbEntity
  8
別途部材
  6
Continuous
100
AcDbLine
 10
-62.4538
 20
-64.87627999999999
 30
0.0
 11
-63.4538
 21
-64.87627999999999
 31
0.0
  0
LINE
  5
93
330
76
100
AcDbEntity
  8
別途部材
  6
Continuous
100
AcDbLine
 10
-58.4538
 20
-64.87627999999999
 30
0.0
 11
-59.4538
 21
-64.87627999999999
 31
0.0
  0
LINE
  5
94
330
76
100
AcDbEntity
  8
別途部材
  6
Continuous
100
AcDbLine
 10
-54.4538
 20
-64.87627999999999
 30
0.0
 11
-55.4538
 21
-64.87627999999999
 31
0.0
  0
LINE
  5
95
330
76
100
AcDbEntity
  8
別途部材
  6
Continuous
100
AcDbLine
 10
-50.4538
 20
-64.87627999999999
 30
0.0
 11
-51.4538
 21
-64.87627999999999
 31
0.0
  0
LINE
  5
96
330
76
100
AcDbEntity
  8
別途部材
  6
Continuous
100
AcDbLine
 10
-46.4538
 20
-64.87627999999999
 30
0.0
 11
-47.4538
 21
-64.87627999999999
 31
0.0
  0
LINE
  5
97
330
76
100
AcDbEntity
  8
別途部材
  6
Continuous
100
AcDbLine
 10
-42.4538
 20
-64.87627999999999
 30
0.0
 11
-43.4538
 21
-64.87627999999999
 31
0.0
  0
LINE
  5
98
330
76
100
AcDbEntity
  8
別途部材
  6
Continuous
100
AcDbLine
 10
-39.4538
 20
-64.87627999999999
 30
0.0
 11
-38.4538
 21
-64.87627999999999
 31
0.0
  0
LINE
  5
99
330
76
100
AcDbEntity
  8
別途部材
  6
Continuous
100
AcDbLine
 10
-65.4538
 20
-63.87628
 30
0.0
 11
-65.4538
 21
-70.209613
 31
0.0
  0
LINE
  5
9A
330
76
100
AcDbEntity
  8
別途部材
  6
Continuous
100
AcDbLine
 10
-66.4538
 20
-64.87627999999999
 30
0.0
 11
-66.4538
 21
-70.209613
 31
0.0
  0
LINE
  5
9B
330
76
100
AcDbEntity
  8
別途部材
  6
Continuous
100
AcDbLine
 10
-63.4538
 20
-64.87627999999999
 30
0.0
 11
-63.4538
 21
-70.209613
 31
0.0
  0
LINE
  5
9C
330
76
100
AcDbEntity
  8
別途部材
  6
Continuous
100
AcDbLine
 10
-64.4538
 20
-63.87628
 30
0.0
 11
-64.4538
 21
-70.209613
 31
0.0
  0
LINE
  5
9D
330
76
100
AcDbEntity
  8
別途部材
  6
Continuous
100
AcDbLine
 10
-62.4538
 20
-64.87627999999999
 30
0.0
 11
-62.4538
 21
-70.209613
 31
0.0
  0
LINE
  5
9E
330
76
100
AcDbEntity
  8
別途部材
  6
Continuous
100
AcDbLine
 10
-61.4538
 20
-63.87628
 30
0.0
 11
-61.4538
 21
-70.209613
 31
0.0
  0
LINE
  5
9F
330
76
100
AcDbEntity
  8
別途部材
  6
Continuous
100
AcDbLine
 10
-57.4538
 20
-63.87628
 30
0.0
 11
-57.4538
 21
-70.209613
 31
0.0
  0
LINE
  5
A0
330
76
100
AcDbEntity
  8
別途部材
  6
Continuous
100
AcDbLine
 10
-56.4538
 20
-63.87628
 30
0.0
 11
-56.4538
 21
-70.209613
 31
0.0
  0
LINE
  5
A1
330
76
100
AcDbEntity
  8
別途部材
  6
Continuous
100
AcDbLine
 10
-58.4538
 20
-64.87627999999999
 30
0.0
 11
-58.4538
 21
-70.209613
 31
0.0
  0
LINE
  5
A2
330
76
100
AcDbEntity
  8
別途部材
  6
Continuous
100
AcDbLine
 10
-59.4538
 20
-64.87627999999999
 30
0.0
 11
-59.4538
 21
-70.209613
 31
0.0
  0
LINE
  5
A3
330
76
100
AcDbEntity
  8
別途部材
  6
Continuous
100
AcDbLine
 10
-60.4538
 20
-63.87628
 30
0.0
 11
-60.4538
 21
-70.209613
 31
0.0
  0
LINE
  5
A4
330
76
100
AcDbEntity
  8
別途部材
  6
Continuous
100
AcDbLine
 10
-55.4538
 20
-64.87627999999999
 30
0.0
 11
-55.4538
 21
-70.209613
 31
0.0
  0
LINE
  5
A5
330
76
100
AcDbEntity
  8
別途部材
  6
Continuous
100
AcDbLine
 10
-53.4538
 20
-63.87628
 30
0.0
 11
-53.4538
 21
-70.209613
 31
0.0
  0
LINE
  5
A6
330
76
100
AcDbEntity
  8
別途部材
  6
Continuous
100
AcDbLine
 10
-52.4538
 20
-63.87628
 30
0.0
 11
-52.4538
 21
-70.209613
 31
0.0
  0
LINE
  5
A7
330
76
100
AcDbEntity
  8
別途部材
  6
Continuous
100
AcDbLine
 10
-51.4538
 20
-64.87627999999999
 30
0.0
 11
-51.4538
 21
-70.209613
 31
0.0
  0
LINE
  5
A8
330
76
100
AcDbEntity
  8
別途部材
  6
Continuous
100
AcDbLine
 10
-50.4538
 20
-64.87627999999999
 30
0.0
 11
-50.4538
 21
-70.209613
 31
0.0
  0
LINE
  5
A9
330
76
100
AcDbEntity
  8
別途部材
  6
Continuous
100
AcDbLine
 10
-49.4538
 20
-63.87628
 30
0.0
 11
-49.4538
 21
-70.209613
 31
0.0
  0
LINE
  5
AA
330
76
100
AcDbEntity
  8
別途部材
  6
Continuous
100
AcDbLine
 10
-54.4538
 20
-64.87627999999999
 30
0.0
 11
-54.4538
 21
-70.209613
 31
0.0
  0
LINE
  5
AB
330
76
100
AcDbEntity
  8
別途部材
  6
Continuous
100
AcDbLine
 10
-48.4538
 20
-63.87628
 30
0.0
 11
-48.4538
 21
-70.209613
 31
0.0
  0
LINE
  5
AC
330
76
100
AcDbEntity
  8
別途部材
  6
Continuous
100
AcDbLine
 10
-47.4538
 20
-64.87627999999999
 30
0.0
 11
-47.4538
 21
-70.209613
 31
0.0
  0
LINE
  5
AD
330
76
100
AcDbEntity
  8
別途部材
  6
Continuous
100
AcDbLine
 10
-46.4538
 20
-64.87627999999999
 30
0.0
 11
-46.4538
 21
-70.209613
 31
0.0
  0
LINE
  5
AE
330
76
100
AcDbEntity
  8
別途部材
  6
Continuous
100
AcDbLine
 10
-44.4538
 20
-63.87628
 30
0.0
 11
-44.4538
 21
-70.209613
 31
0.0
  0
LINE
  5
AF
330
76
100
AcDbEntity
  8
別途部材
  6
Continuous
100
AcDbLine
 10
-42.4538
 20
-64.87627999999999
 30
0.0
 11
-42.4538
 21
-70.209613
 31
0.0
  0
LINE
  5
B0
330
76
100
AcDbEntity
  8
別途部材
  6
Continuous
100
AcDbLine
 10
-41.4538
 20
-63.87628
 30
0.0
 11
-41.4538
 21
-70.209613
 31
0.0
  0
LINE
  5
B1
330
76
100
AcDbEntity
  8
別途部材
  6
Continuous
100
AcDbLine
 10
-39.4538
 20
-64.87627999999999
 30
0.0
 11
-39.4538
 21
-70.209613
 31
0.0
  0
LINE
  5
B2
330
76
100
AcDbEntity
  8
別途部材
  6
Continuous
100
AcDbLine
 10
-38.4538
 20
-64.87627999999999
 30
0.0
 11
-38.4538
 21
-70.209613
 31
0.0
  0
LINE
  5
B3
330
76
100
AcDbEntity
  8
別途部材
  6
Continuous
100
AcDbLine
 10
-37.4538
 20
-63.87628
 30
0.0
 11
-37.4538
 21
-70.209613
 31
0.0
  0
LINE
  5
B4
330
76
100
AcDbEntity
  8
別途部材
  6
Continuous
100
AcDbLine
 10
-40.4538
 20
-63.87628
 30
0.0
 11
-40.4538
 21
-70.209613
 31
0.0
  0
LINE
  5
B5
330
76
100
AcDbEntity
  8
別途部材
  6
Continuous
100
AcDbLine
 10
-43.4538
 20
-64.87627999999999
 30
0.0
 11
-43.4538
 21
-70.209613
 31
0.0
  0
LINE
  5
B6
330
76
100
AcDbEntity
  8
別途部材
  6
Continuous
100
AcDbLine
 10
-45.4538
 20
-63.87628
 30
0.0
 11
-45.4538
 21
-70.209613
 31
0.0
  0
LINE
  5
B7
330
76
100
AcDbEntity
  8
別途部材
  6
Continuous
100
AcDbLine
 10
-66.4538
 20
-64.87627999999999
 30
0.0
 11
-68.62046700000001
 21
-64.87627999999999
 31
0.0
  0
LINE
  5
B8
330
76
100
AcDbEntity
  8
別途部材
  6
Continuous
 62
    96
100
AcDbLine
 10
6.379532
 20
-70.209613
 30
0.0
 11
6.779532
 21
-71.209613
 31
0.0
  0
ARC
  5
B9
330
76
100
AcDbEntity
  8
別途部材
  6
Continuous
100
AcDbCircle
 10
-5.287131
 20
-76.917948
 30
0.0
 40
12.041668
100
AcDbArc
 50
33.855033
 51
90.0
  0
LINE
  5
BA
330
76
100
AcDbEntity
  8
別途部材
  6
Continuous
100
AcDbLine
 10
6.779532
 20
-71.209613
 30
0.0
 11
-36.9538
 21
-71.209613
 31
0.0
  0
LINE
  5
BB
330
76
100
AcDbEntity
  8
別途部材
  6
Continuous
 62
    96
100
AcDbLine
 10
6.379532
 20
-70.209613
 30
0.0
 11
-36.9538
 21
-70.209613
 31
0.0
  0
LINE
  5
BC
330
76
100
AcDbEntity
  8
別途部材
  6
Continuous
100
AcDbLine
 10
-36.4538
 20
-63.87628
 30
0.0
 11
-35.4538
 21
-64.87627999999999
 31
0.0
  0
LINE
  5
BD
330
76
100
AcDbEntity
  8
別途部材
  6
Continuous
100
AcDbLine
 10
-34.4538
 20
-64.87627999999999
 30
0.0
 11
-33.4538
 21
-63.87628
 31
0.0
  0
LINE
  5
BE
330
76
100
AcDbEntity
  8
別途部材
  6
Continuous
100
AcDbLine
 10
-32.4538
 20
-63.87628
 30
0.0
 11
-31.4538
 21
-64.87627999999999
 31
0.0
  0
LINE
  5
BF
330
76
100
AcDbEntity
  8
別途部材
  6
Continuous
100
AcDbLine
 10
-33.4538
 20
-63.87628
 30
0.0
 11
-32.4538
 21
-63.87628
 31
0.0
  0
LINE
  5
C0
330
76
100
AcDbEntity
  8
別途部材
  6
Continuous
100
AcDbLine
 10
-36.4538
 20
-63.87628
 30
0.0
 11
-36.9538
 21
-63.87628
 31
0.0
  0
LINE
  5
C1
330
76
100
AcDbEntity
  8
別途部材
  6
Continuous
100
AcDbLine
 10
-30.4538
 20
-64.87627999999999
 30
0.0
 11
-29.4538
 21
-63.87628
 31
0.0
  0
LINE
  5
C2
330
76
100
AcDbEntity
  8
別途部材
  6
Continuous
100
AcDbLine
 10
-28.4538
 20
-63.87628
 30
0.0
 11
-27.4538
 21
-64.87627999999999
 31
0.0
  0
LINE
  5
C3
330
76
100
AcDbEntity
  8
別途部材
  6
Continuous
100
AcDbLine
 10
-29.4538
 20
-63.87628
 30
0.0
 11
-28.4538
 21
-63.87628
 31
0.0
  0
LINE
  5
C4
330
76
100
AcDbEntity
  8
別途部材
  6
Continuous
100
AcDbLine
 10
-26.4538
 20
-64.87627999999999
 30
0.0
 11
-25.4538
 21
-63.87628
 31
0.0
  0
LINE
  5
C5
330
76
100
AcDbEntity
  8
別途部材
  6
Continuous
100
AcDbLine
 10
-24.4538
 20
-63.87628
 30
0.0
 11
-23.4538
 21
-64.87627999999999
 31
0.0
  0
LINE
  5
C6
330
76
100
AcDbEntity
  8
別途部材
  6
Continuous
100
AcDbLine
 10
-25.4538
 20
-63.87628
 30
0.0
 11
-24.4538
 21
-63.87628
 31
0.0
  0
LINE
  5
C7
330
76
100
AcDbEntity
  8
別途部材
  6
Continuous
100
AcDbLine
 10
-22.4538
 20
-64.87627999999999
 30
0.0
 11
-21.4538
 21
-63.87628
 31
0.0
  0
LINE
  5
C8
330
76
100
AcDbEntity
  8
別途部材
  6
Continuous
100
AcDbLine
 10
-20.4538
 20
-63.87628
 30
0.0
 11
-19.4538
 21
-64.87627999999999
 31
0.0
  0
LINE
  5
C9
330
76
100
AcDbEntity
  8
別途部材
  6
Continuous
100
AcDbLine
 10
-21.4538
 20
-63.87628
 30
0.0
 11
-20.4538
 21
-63.87628
 31
0.0
  0
LINE
  5
CA
330
76
100
AcDbEntity
  8
別途部材
  6
Continuous
100
AcDbLine
 10
-18.4538
 20
-64.87627999999999
 30
0.0
 11
-17.4538
 21
-63.87628
 31
0.0
  0
LINE
  5
CB
330
76
100
AcDbEntity
  8
別途部材
  6
Continuous
100
AcDbLine
 10
-16.4538
 20
-63.87628
 30
0.0
 11
-15.4538
 21
-64.87627999999999
 31
0.0
  0
LINE
  5
CC
330
76
100
AcDbEntity
  8
別途部材
  6
Continuous
100
AcDbLine
 10
-17.4538
 20
-63.87628
 30
0.0
 11
-16.4538
 21
-63.87628
 31
0.0
  0
LINE
  5
CD
330
76
100
AcDbEntity
  8
別途部材
  6
Continuous
100
AcDbLine
 10
-14.4538
 20
-64.87627999999999
 30
0.0
 11
-13.4538
 21
-63.87628
 31
0.0
  0
LINE
  5
CE
330
76
100
AcDbEntity
  8
別途部材
  6
Continuous
100
AcDbLine
 10
-12.4538
 20
-63.87628
 30
0.0
 11
-11.4538
 21
-64.87627999999999
 31
0.0
  0
LINE
  5
CF
330
76
100
AcDbEntity
  8
別途部材
  6
Continuous
100
AcDbLine
 10
-13.4538
 20
-63.87628
 30
0.0
 11
-12.4538
 21
-63.87628
 31
0.0
  0
LINE
  5
D0
330
76
100
AcDbEntity
  8
別途部材
  6
Continuous
100
AcDbLine
 10
-10.4538
 20
-64.87627999999999
 30
0.0
 11
-9.453799999999999
 21
-63.87628
 31
0.0
  0
LINE
  5
D1
330
76
100
AcDbEntity
  8
別途部材
  6
Continuous
100
AcDbLine
 10
-8.453799999999999
 20
-63.87628
 30
0.0
 11
-7.4538
 21
-64.87627999999999
 31
0.0
  0
LINE
  5
D2
330
76
100
AcDbEntity
  8
別途部材
  6
Continuous
100
AcDbLine
 10
-9.453799999999999
 20
-63.87628
 30
0.0
 11
-8.453799999999999
 21
-63.87628
 31
0.0
  0
LINE
  5
D3
330
76
100
AcDbEntity
  8
別途部材
  6
Continuous
100
AcDbLine
 10
-11.4538
 20
-64.87627999999999
 30
0.0
 11
-10.4538
 21
-64.87627999999999
 31
0.0
  0
LINE
  5
D4
330
76
100
AcDbEntity
  8
別途部材
  6
Continuous
100
AcDbLine
 10
-15.4538
 20
-64.87627999999999
 30
0.0
 11
-14.4538
 21
-64.87627999999999
 31
0.0
  0
LINE
  5
D5
330
76
100
AcDbEntity
  8
別途部材
  6
Continuous
100
AcDbLine
 10
-19.4538
 20
-64.87627999999999
 30
0.0
 11
-18.4538
 21
-64.87627999999999
 31
0.0
  0
LINE
  5
D6
330
76
100
AcDbEntity
  8
別途部材
  6
Continuous
100
AcDbLine
 10
-23.4538
 20
-64.87627999999999
 30
0.0
 11
-22.4538
 21
-64.87627999999999
 31
0.0
  0
LINE
  5
D7
330
76
100
AcDbEntity
  8
別途部材
  6
Continuous
100
AcDbLine
 10
-27.4538
 20
-64.87627999999999
 30
0.0
 11
-26.4538
 21
-64.87627999999999
 31
0.0
  0
LINE
  5
D8
330
76
100
AcDbEntity
  8
別途部材
  6
Continuous
100
AcDbLine
 10
-31.4538
 20
-64.87627999999999
 30
0.0
 11
-30.4538
 21
-64.87627999999999
 31
0.0
  0
LINE
  5
D9
330
76
100
AcDbEntity
  8
別途部材
  6
Continuous
100
AcDbLine
 10
-34.4538
 20
-64.87627999999999
 30
0.0
 11
-35.4538
 21
-64.87627999999999
 31
0.0
  0
LINE
  5
DA
330
76
100
AcDbEntity
  8
別途部材
  6
Continuous
100
AcDbLine
 10
-8.453799999999999
 20
-63.87628
 30
0.0
 11
-8.453799999999999
 21
-70.209613
 31
0.0
  0
LINE
  5
DB
330
76
100
AcDbEntity
  8
別途部材
  6
Continuous
100
AcDbLine
 10
-7.4538
 20
-64.87627999999999
 30
0.0
 11
-7.4538
 21
-70.209613
 31
0.0
  0
LINE
  5
DC
330
76
100
AcDbEntity
  8
別途部材
  6
Continuous
100
AcDbLine
 10
-10.4538
 20
-64.87627999999999
 30
0.0
 11
-10.4538
 21
-70.209613
 31
0.0
  0
LINE
  5
DD
330
76
100
AcDbEntity
  8
別途部材
  6
Continuous
100
AcDbLine
 10
-9.453799999999999
 20
-63.87628
 30
0.0
 11
-9.453799999999999
 21
-70.209613
 31
0.0
  0
LINE
  5
DE
330
76
100
AcDbEntity
  8
別途部材
  6
Continuous
100
AcDbLine
 10
-11.4538
 20
-64.87627999999999
 30
0.0
 11
-11.4538
 21
-70.209613
 31
0.0
  0
LINE
  5
DF
330
76
100
AcDbEntity
  8
別途部材
  6
Continuous
100
AcDbLine
 10
-12.4538
 20
-63.87628
 30
0.0
 11
-12.4538
 21
-70.209613
 31
0.0
  0
LINE
  5
E0
330
76
100
AcDbEntity
  8
別途部材
  6
Continuous
100
AcDbLine
 10
-16.4538
 20
-63.87628
 30
0.0
 11
-16.4538
 21
-70.209613
 31
0.0
  0
LINE
  5
E1
330
76
100
AcDbEntity
  8
別途部材
  6
Continuous
100
AcDbLine
 10
-17.4538
 20
-63.87628
 30
0.0
 11
-17.4538
 21
-70.209613
 31
0.0
  0
LINE
  5
E2
330
76
100
AcDbEntity
  8
別途部材
  6
Continuous
100
AcDbLine
 10
-15.4538
 20
-64.87627999999999
 30
0.0
 11
-15.4538
 21
-70.209613
 31
0.0
  0
LINE
  5
E3
330
76
100
AcDbEntity
  8
別途部材
  6
Continuous
100
AcDbLine
 10
-14.4538
 20
-64.87627999999999
 30
0.0
 11
-14.4538
 21
-70.209613
 31
0.0
  0
LINE
  5
E4
330
76
100
AcDbEntity
  8
別途部材
  6
Continuous
100
AcDbLine
 10
-13.4538
 20
-63.87628
 30
0.0
 11
-13.4538
 21
-70.209613
 31
0.0
  0
LINE
  5
E5
330
76
100
AcDbEntity
  8
別途部材
  6
Continuous
100
AcDbLine
 10
-18.4538
 20
-64.87627999999999
 30
0.0
 11
-18.4538
 21
-70.209613
 31
0.0
  0
LINE
  5
E6
330
76
100
AcDbEntity
  8
別途部材
  6
Continuous
100
AcDbLine
 10
-20.4538
 20
-63.87628
 30
0.0
 11
-20.4538
 21
-70.209613
 31
0.0
  0
LINE
  5
E7
330
76
100
AcDbEntity
  8
別途部材
  6
Continuous
100
AcDbLine
 10
-21.4538
 20
-63.87628
 30
0.0
 11
-21.4538
 21
-70.209613
 31
0.0
  0
LINE
  5
E8
330
76
100
AcDbEntity
  8
別途部材
  6
Continuous
100
AcDbLine
 10
-22.4538
 20
-64.87627999999999
 30
0.0
 11
-22.4538
 21
-70.209613
 31
0.0
  0
LINE
  5
E9
330
76
100
AcDbEntity
  8
別途部材
  6
Continuous
100
AcDbLine
 10
-23.4538
 20
-64.87627999999999
 30
0.0
 11
-23.4538
 21
-70.209613
 31
0.0
  0
LINE
  5
EA
330
76
100
AcDbEntity
  8
別途部材
  6
Continuous
100
AcDbLine
 10
-24.4538
 20
-63.87628
 30
0.0
 11
-24.4538
 21
-70.209613
 31
0.0
  0
LINE
  5
EB
330
76
100
AcDbEntity
  8
別途部材
  6
Continuous
100
AcDbLine
 10
-19.4538
 20
-64.87627999999999
 30
0.0
 11
-19.4538
 21
-70.209613
 31
0.0
  0
LINE
  5
EC
330
76
100
AcDbEntity
  8
別途部材
  6
Continuous
100
AcDbLine
 10
-25.4538
 20
-63.87628
 30
0.0
 11
-25.4538
 21
-70.209613
 31
0.0
  0
LINE
  5
ED
330
76
100
AcDbEntity
  8
別途部材
  6
Continuous
100
AcDbLine
 10
-26.4538
 20
-64.87627999999999
 30
0.0
 11
-26.4538
 21
-70.209613
 31
0.0
  0
LINE
  5
EE
330
76
100
AcDbEntity
  8
別途部材
  6
Continuous
100
AcDbLine
 10
-27.4538
 20
-64.87627999999999
 30
0.0
 11
-27.4538
 21
-70.209613
 31
0.0
  0
LINE
  5
EF
330
76
100
AcDbEntity
  8
別途部材
  6
Continuous
100
AcDbLine
 10
-29.4538
 20
-63.87628
 30
0.0
 11
-29.4538
 21
-70.209613
 31
0.0
  0
LINE
  5
F0
330
76
100
AcDbEntity
  8
別途部材
  6
Continuous
100
AcDbLine
 10
-31.4538
 20
-64.87627999999999
 30
0.0
 11
-31.4538
 21
-70.209613
 31
0.0
  0
LINE
  5
F1
330
76
100
AcDbEntity
  8
別途部材
  6
Continuous
100
AcDbLine
 10
-32.4538
 20
-63.87628
 30
0.0
 11
-32.4538
 21
-70.209613
 31
0.0
  0
LINE
  5
F2
330
76
100
AcDbEntity
  8
別途部材
  6
Continuous
100
AcDbLine
 10
-34.4538
 20
-64.87627999999999
 30
0.0
 11
-34.4538
 21
-70.209613
 31
0.0
  0
LINE
  5
F3
330
76
100
AcDbEntity
  8
別途部材
  6
Continuous
100
AcDbLine
 10
-35.4538
 20
-64.87627999999999
 30
0.0
 11
-35.4538
 21
-70.209613
 31
0.0
  0
LINE
  5
F4
330
76
100
AcDbEntity
  8
別途部材
  6
Continuous
100
AcDbLine
 10
-36.4538
 20
-63.87628
 30
0.0
 11
-36.4538
 21
-70.209613
 31
0.0
  0
LINE
  5
F5
330
76
100
AcDbEntity
  8
別途部材
  6
Continuous
100
AcDbLine
 10
-33.4538
 20
-63.87628
 30
0.0
 11
-33.4538
 21
-70.209613
 31
0.0
  0
LINE
  5
F6
330
76
100
AcDbEntity
  8
別途部材
  6
Continuous
100
AcDbLine
 10
-30.4538
 20
-64.87627999999999
 30
0.0
 11
-30.4538
 21
-70.209613
 31
0.0
  0
LINE
  5
F7
330
76
100
AcDbEntity
  8
別途部材
  6
Continuous
100
AcDbLine
 10
-28.4538
 20
-63.87628
 30
0.0
 11
-28.4538
 21
-70.209613
 31
0.0
  0
LINE
  5
F8
330
76
100
AcDbEntity
  8
別途部材
  6
Continuous
100
AcDbLine
 10
-7.4538
 20
-64.87627999999999
 30
0.0
 11
-5.287135
 21
-64.87627999999999
 31
0.0
  0
ENDBLK
  5
F9
330
76
100
AcDbEntity
  8
0
100
AcDbBlockEnd
  0
BLOCK
  5
FA
330
FB
100
AcDbEntity
  8
0
100
AcDbBlockBegin
  2
*U4
 70
     1
 71
     0
 10
0.0
 20
0.0
 30
0.0
  3
*U4
  1

  0
LINE
  5
FC
330
FB
100
AcDbEntity
  8
寸法
  6
ByBlock
 62
     0
100
AcDbLine
 10
38.732515
 20
22.814033
 30
0.0
 11
38.732515
 21
42.814033
 31
0.0
  0
POINT
  5
FD
330
FB
100
AcDbEntity
  8
寸法
 62
     0
100
AcDbPoint
 10
38.732515
 20
22.814033
 30
0.0
  0
POINT
  5
FE
330
FB
100
AcDbEntity
  8
寸法
 62
     0
100
AcDbPoint
 10
38.732515
 20
42.814033
 30
0.0
  0
TEXT
  5
FF
330
FB
100
AcDbEntity
  8
寸法
  6
Continuous
 62
     0
100
AcDbText
 10
38.35
 20
21.925
 30
0.0
 40
3.0
  1
呼称寸法　600
 50
90.0
  7
TextStyle03
 72
     5
 11
38.35
 21
43.675
 31
0.0
100
AcDbText
  0
ENDBLK
  5
100
330
FB
100
AcDbEntity
  8
0
100
AcDbBlockEnd
  0
BLOCK
  5
101
330
102
100
AcDbEntity
  8
0
100
AcDbBlockBegin
  2
*U5
 70
     1
 71
     0
 10
0.0
 20
0.0
 30
0.0
  3
*U5
  1

  0
LINE
  5
103
330
102
100
AcDbEntity
  8
寸法
  6
ByBlock
 62
     0
100
AcDbLine
 10
88.912797
 20
33.814033
 30
0.0
 11
88.912797
 21
60.666798
 31
0.0
  0
LINE
  5
104
330
102
100
AcDbEntity
  8
寸法
  6
ByBlock
 62
     0
100
AcDbLine
 10
94.24612999999999
 20
60.666798
 30
0.0
 11
88.912797
 21
60.666798
 31
0.0
  0
POINT
  5
105
330
102
100
AcDbEntity
  8
寸法
 62
     0
100
AcDbPoint
 10
94.24612999999999
 20
60.666798
 30
0.0
  0
POINT
  5
106
330
102
100
AcDbEntity
  8
寸法
 62
     0
100
AcDbPoint
 10
88.912797
 20
60.666798
 30
0.0
  0
TEXT
  5
107
330
102
100
AcDbEntity
  8
寸法
  6
Continuous
 62
     0
100
AcDbText
 10
89.1375
 20
61.025
 30
0.0
 40
3.0
  1
160
  7
TextStyle03
 72
     5
 11
94.0125
 21
61.025
 31
0.0
100
AcDbText
  0
ENDBLK
  5
108
330
102
100
AcDbEntity
  8
0
100
AcDbBlockEnd
  0
BLOCK
  5
109
330
10A
100
AcDbEntity
  8
0
100
AcDbBlockBegin
  2
*U6
 70
     1
 71
     0
 10
0.0
 20
0.0
 30
0.0
  3
*U6
  1

  0
LINE
  5
10B
330
10A
100
AcDbEntity
  8
寸法
  6
ByBlock
 62
     0
100
AcDbLine
 10
94.24612999999999
 20
47.4807
 30
0.0
 11
94.24612999999999
 21
60.666798
 31
0.0
  0
LINE
  5
10C
330
10A
100
AcDbEntity
  8
寸法
  6
ByBlock
 62
     0
100
AcDbLine
 10
98.079702
 20
49.147367
 30
0.0
 11
98.079702
 21
60.666798
 31
0.0
  0
LINE
  5
10D
330
10A
100
AcDbEntity
  8
寸法
  6
ByBlock
 62
     0
100
AcDbLine
 10
94.24612999999999
 20
60.666798
 30
0.0
 11
98.079702
 21
60.666798
 31
0.0
  0
POINT
  5
10E
330
10A
100
AcDbEntity
  8
寸法
 62
     0
100
AcDbPoint
 10
94.24612999999999
 20
60.666798
 30
0.0
  0
POINT
  5
10F
330
10A
100
AcDbEntity
  8
寸法
 62
     0
100
AcDbPoint
 10
98.079702
 20
60.666798
 30
0.0
  0
TEXT
  5
110
330
10A
100
AcDbEntity
  8
寸法
  6
Continuous
 62
     0
100
AcDbText
 10
98.7625
 20
61.025
 30
0.0
 40
3.0
  1
115
  7
TextStyle03
 72
     5
 11
103.6375
 21
61.025
 31
0.0
100
AcDbText
  0
ENDBLK
  5
111
330
10A
100
AcDbEntity
  8
0
100
AcDbBlockEnd
  0
BLOCK
  5
112
330
113
100
AcDbEntity
  8
0
100
AcDbBlockBegin
  2
*U7
 70
     1
 71
     0
 10
0.0
 20
0.0
 30
0.0
  3
*U7
  1

  0
LINE
  5
114
330
113
100
AcDbEntity
  8
寸法
  6
ByBlock
 62
     0
100
AcDbLine
 10
-4.287135
 20
-64.87627999999999
 30
0.0
 11
20.682515
 21
-64.87627999999999
 31
0.0
  0
LINE
  5
115
330
113
100
AcDbEntity
  8
寸法
  6
ByBlock
 62
     0
100
AcDbLine
 10
20.682515
 20
-70.209613
 30
0.0
 11
20.682515
 21
-64.87627999999999
 31
0.0
  0
POINT
  5
116
330
113
100
AcDbEntity
  8
寸法
 62
     0
100
AcDbPoint
 10
20.682515
 20
-70.209613
 30
0.0
  0
POINT
  5
117
330
113
100
AcDbEntity
  8
寸法
 62
     0
100
AcDbPoint
 10
20.682515
 20
-64.87627999999999
 30
0.0
  0
TEXT
  5
118
330
113
100
AcDbEntity
  8
寸法
  6
Continuous
 62
     0
100
AcDbText
 10
20.3
 20
-69.9875
 30
0.0
 40
3.0
  1
160
 50
90.0
  7
TextStyle03
 72
     5
 11
20.3
 21
-65.1125
 31
0.0
100
AcDbText
  0
ENDBLK
  5
119
330
113
100
AcDbEntity
  8
0
100
AcDbBlockEnd
  0
BLOCK
  5
11A
330
11B
100
AcDbEntity
  8
0
100
AcDbBlockBegin
  2
*U8
 70
     1
 71
     0
 10
0.0
 20
0.0
 30
0.0
  3
*U8
  1

  0
LINE
  5
11C
330
11B
100
AcDbEntity
  8
寸法
  6
ByBlock
 62
     0
100
AcDbLine
 10
9.379531999999999
 20
-70.209613
 30
0.0
 11
20.682515
 21
-70.209613
 31
0.0
  0
LINE
  5
11D
330
11B
100
AcDbEntity
  8
寸法
  6
ByBlock
 62
     0
100
AcDbLine
 10
11.0462
 20
-74.04318499999999
 30
0.0
 11
20.682515
 21
-74.04318499999999
 31
0.0
  0
LINE
  5
11E
330
11B
100
AcDbEntity
  8
寸法
  6
ByBlock
 62
     0
100
AcDbLine
 10
20.682515
 20
-70.209613
 30
0.0
 11
20.682515
 21
-74.04318499999999
 31
0.0
  0
POINT
  5
11F
330
11B
100
AcDbEntity
  8
寸法
 62
     0
100
AcDbPoint
 10
20.682515
 20
-70.209613
 30
0.0
  0
POINT
  5
120
330
11B
100
AcDbEntity
  8
寸法
 62
     0
100
AcDbPoint
 10
20.682515
 20
-74.04318499999999
 30
0.0
  0
TEXT
  5
121
330
11B
100
AcDbEntity
  8
寸法
  6
Continuous
 62
     0
100
AcDbText
 10
20.3
 20
-79.6375
 30
0.0
 40
3.0
  1
115
 50
90.0
  7
TextStyle03
 72
     5
 11
20.3
 21
-74.7625
 31
0.0
100
AcDbText
  0
ENDBLK
  5
122
330
11B
100
AcDbEntity
  8
0
100
AcDbBlockEnd
  0
BLOCK
  5
123
330
124
100
AcDbEntity
  8
0
100
AcDbBlockBegin
  2
*U9
 70
     1
 71
     0
 10
0.0
 20
0.0
 30
0.0
  3
*U9
  1

  0
LINE
  5
125
330
124
100
AcDbEntity
  8
寸法
  6
ByBlock
 62
     0
100
AcDbLine
 10
-81.62046700000001
 20
39.4807
 30
0.0
 11
-94.91330499999999
 21
39.4807
 31
0.0
  0
LINE
  5
126
330
124
100
AcDbEntity
  8
寸法
  6
ByBlock
 62
     0
100
AcDbLine
 10
-81.62046700000001
 20
26.147365
 30
0.0
 11
-94.91330499999999
 21
26.147365
 31
0.0
  0
LINE
  5
127
330
124
100
AcDbEntity
  8
寸法
  6
ByBlock
 62
     0
100
AcDbLine
 10
-94.91330499999999
 20
39.4807
 30
0.0
 11
-94.91330499999999
 21
26.147365
 31
0.0
  0
POINT
  5
128
330
124
100
AcDbEntity
  8
寸法
 62
     0
100
AcDbPoint
 10
-94.91330499999999
 20
39.4807
 30
0.0
  0
POINT
  5
129
330
124
100
AcDbEntity
  8
寸法
 62
     0
100
AcDbPoint
 10
-94.91330499999999
 20
26.147365
 30
0.0
  0
TEXT
  5
12A
330
124
100
AcDbEntity
  8
寸法
  6
Continuous
 62
     0
100
AcDbText
 10
-95.34999999999999
 20
30.3625
 30
0.0
 40
3.0
  1
400
 50
90.0
  7
TextStyle03
 72
     5
 11
-95.34999999999999
 21
35.2375
 31
0.0
100
AcDbText
  0
ENDBLK
  5
12B
330
124
100
AcDbEntity
  8
0
100
AcDbBlockEnd
  0
BLOCK
  5
12C
330
12D
100
AcDbEntity
  8
0
100
AcDbBlockBegin
  2
*U10
 70
     1
 71
     0
 10
0.0
 20
0.0
 30
0.0
  3
*U10
  1

  0
LINE
  5
12E
330
12D
100
AcDbEntity
  8
寸法
  6
ByBlock
 62
     0
100
AcDbLine
 10
-71.953802
 20
45.814033
 30
0.0
 11
-71.953802
 21
75.561652
 31
0.0
  0
LINE
  5
12F
330
12D
100
AcDbEntity
  8
寸法
  6
ByBlock
 62
     0
100
AcDbLine
 10
-48.62047
 20
45.814033
 30
0.0
 11
-48.62047
 21
75.561652
 31
0.0
  0
LINE
  5
130
330
12D
100
AcDbEntity
  8
寸法
  6
ByBlock
 62
     0
100
AcDbLine
 10
-71.953802
 20
75.561652
 30
0.0
 11
-48.62047
 21
75.561652
 31
0.0
  0
POINT
  5
131
330
12D
100
AcDbEntity
  8
寸法
 62
     0
100
AcDbPoint
 10
-71.953802
 20
75.561652
 30
0.0
  0
POINT
  5
132
330
12D
100
AcDbEntity
  8
寸法
 62
     0
100
AcDbPoint
 10
-48.62047
 20
75.561652
 30
0.0
  0
TEXT
  5
133
330
12D
100
AcDbEntity
  8
寸法
  6
Continuous
 62
     0
100
AcDbText
 10
-62.7375
 20
75.925
 30
0.0
 40
3.0
  1
700
  7
TextStyle03
 72
     5
 11
-57.8625
 21
75.925
 31
0.0
100
AcDbText
  0
ENDBLK
  5
134
330
12D
100
AcDbEntity
  8
0
100
AcDbBlockEnd
  0
BLOCK
  5
135
330
136
100
AcDbEntity
  8
0
100
AcDbBlockBegin
  2
*U11
 70
     1
 71
     0
 10
0.0
 20
0.0
 30
0.0
  3
*U11
  1

  0
LINE
  5
137
330
136
100
AcDbEntity
  8
寸法
  6
ByBlock
 62
     0
100
AcDbLine
 10
-25.287135
 20
45.814033
 30
0.0
 11
-25.287135
 21
75.561652
 31
0.0
  0
LINE
  5
138
330
136
100
AcDbEntity
  8
寸法
  6
ByBlock
 62
     0
100
AcDbLine
 10
-48.62047
 20
75.561652
 30
0.0
 11
-25.287135
 21
75.561652
 31
0.0
  0
POINT
  5
139
330
136
100
AcDbEntity
  8
寸法
 62
     0
100
AcDbPoint
 10
-25.287135
 20
75.561652
 30
0.0
  0
TEXT
  5
13A
330
136
100
AcDbEntity
  8
寸法
  6
Continuous
 62
     0
100
AcDbText
 10
-39.4125
 20
75.925
 30
0.0
 40
3.0
  1
700
  7
TextStyle03
 72
     5
 11
-34.5375
 21
75.925
 31
0.0
100
AcDbText
  0
ENDBLK
  5
13B
330
136
100
AcDbEntity
  8
0
100
AcDbBlockEnd
  0
BLOCK
  5
13C
330
13D
100
AcDbEntity
  8
0
100
AcDbBlockBegin
  2
*U12
 70
     1
 71
     0
 10
0.0
 20
0.0
 30
0.0
  3
*U12
  1

  0
LINE
  5
13E
330
13D
100
AcDbEntity
  8
寸法
  6
ByBlock
 62
     0
100
AcDbLine
 10
-1.953802
 20
45.814033
 30
0.0
 11
-1.953802
 21
75.561652
 31
0.0
  0
LINE
  5
13F
330
13D
100
AcDbEntity
  8
寸法
  6
ByBlock
 62
     0
100
AcDbLine
 10
-25.287135
 20
75.561652
 30
0.0
 11
-1.953802
 21
75.561652
 31
0.0
  0
POINT
  5
140
330
13D
100
AcDbEntity
  8
寸法
 62
     0
100
AcDbPoint
 10
-1.953802
 20
75.561652
 30
0.0
  0
TEXT
  5
141
330
13D
100
AcDbEntity
  8
寸法
  6
Continuous
 62
     0
100
AcDbText
 10
-16.0625
 20
75.925
 30
0.0
 40
3.0
  1
700
  7
TextStyle03
 72
     5
 11
-11.1875
 21
75.925
 31
0.0
100
AcDbText
  0
ENDBLK
  5
142
330
13D
100
AcDbEntity
  8
0
100
AcDbBlockEnd
  0
BLOCK
  5
143
330
144
100
AcDbEntity
  8
0
100
AcDbBlockBegin
  2
*U13
 70
     1
 71
     0
 10
0.0
 20
0.0
 30
0.0
  3
*U13
  1

  0
LINE
  5
145
330
144
100
AcDbEntity
  8
寸法
  6
ByBlock
 62
     0
100
AcDbLine
 10
-81.787137
 20
-70.54318499999999
 30
0.0
 11
-81.787137
 21
-13.121378
 31
0.0
  0
LINE
  5
146
330
144
100
AcDbEntity
  8
寸法
  6
ByBlock
 62
     0
100
AcDbLine
 10
-78.62046700000001
 20
-13.121378
 30
0.0
 11
-81.787137
 21
-13.121378
 31
0.0
  0
POINT
  5
147
330
144
100
AcDbEntity
  8
寸法
 62
     0
100
AcDbPoint
 10
-78.62046700000001
 20
-13.121378
 30
0.0
  0
POINT
  5
148
330
144
100
AcDbEntity
  8
寸法
 62
     0
100
AcDbPoint
 10
-81.787137
 20
-13.121378
 30
0.0
  0
TEXT
  5
149
330
144
100
AcDbEntity
  8
寸法
  6
Continuous
 62
     0
100
AcDbText
 10
-81.81874999999999
 20
-12.75
 30
0.0
 40
3.0
  1
95
  7
TextStyle03
 72
     5
 11
-78.63124999999999
 21
-12.75
 31
0.0
100
AcDbText
  0
ENDBLK
  5
14A
330
144
100
AcDbEntity
  8
0
100
AcDbBlockEnd
  0
BLOCK
  5
14B
330
14C
100
AcDbEntity
  8
0
100
AcDbBlockBegin
  2
*U14
 70
     1
 71
     0
 10
0.0
 20
0.0
 30
0.0
  3
*U14
  1

  0
LINE
  5
14D
330
14C
100
AcDbEntity
  8
寸法
  6
ByBlock
 62
     0
100
AcDbLine
 10
7.879532
 20
-70.54318499999999
 30
0.0
 11
7.879532
 21
-13.121378
 31
0.0
  0
LINE
  5
14E
330
14C
100
AcDbEntity
  8
寸法
  6
ByBlock
 62
     0
100
AcDbLine
 10
4.712865
 20
-13.121378
 30
0.0
 11
7.879532
 21
-13.121378
 31
0.0
  0
POINT
  5
14F
330
14C
100
AcDbEntity
  8
寸法
 62
     0
100
AcDbPoint
 10
4.712865
 20
-13.121378
 30
0.0
  0
POINT
  5
150
330
14C
100
AcDbEntity
  8
寸法
 62
     0
100
AcDbPoint
 10
7.879532
 20
-13.121378
 30
0.0
  0
TEXT
  5
151
330
14C
100
AcDbEntity
  8
寸法
  6
Continuous
 62
     0
100
AcDbText
 10
4.68125
 20
-12.75
 30
0.0
 40
3.0
  1
95
  7
TextStyle03
 72
     5
 11
7.86875
 21
-12.75
 31
0.0
100
AcDbText
  0
ENDBLK
  5
152
330
14C
100
AcDbEntity
  8
0
100
AcDbBlockEnd
  0
BLOCK
  5
153
330
154
100
AcDbEntity
  8
0
100
AcDbBlockBegin
  2
*U15
 70
     1
 71
     0
 10
0.0
 20
0.0
 30
0.0
  3
*U15
  1

  0
LINE
  5
155
330
154
100
AcDbEntity
  8
寸法
  6
ByBlock
 62
     0
100
AcDbLine
 10
94.579702
 20
19.647365
 30
0.0
 11
38.732515
 21
19.647365
 31
0.0
  0
LINE
  5
156
330
154
100
AcDbEntity
  8
寸法
  6
ByBlock
 62
     0
100
AcDbLine
 10
38.732515
 20
22.814033
 30
0.0
 11
38.732515
 21
19.647365
 31
0.0
  0
POINT
  5
157
330
154
100
AcDbEntity
  8
寸法
 62
     0
100
AcDbPoint
 10
38.732515
 20
22.814033
 30
0.0
  0
POINT
  5
158
330
154
100
AcDbEntity
  8
寸法
 62
     0
100
AcDbPoint
 10
38.732515
 20
19.647365
 30
0.0
  0
TEXT
  5
159
330
154
100
AcDbEntity
  8
寸法
  6
Continuous
 62
     0
100
AcDbText
 10
38.35
 20
16.25625
 30
0.0
 40
3.0
  1
95
 50
90.0
  7
TextStyle03
 72
     5
 11
38.35
 21
19.44375
 31
0.0
100
AcDbText
  0
ENDBLK
  5
15A
330
154
100
AcDbEntity
  8
0
100
AcDbBlockEnd
  0
BLOCK
  5
15B
330
15C
100
AcDbEntity
  8
0
100
AcDbBlockBegin
  2
*U16
 70
     1
 71
     0
 10
0.0
 20
0.0
 30
0.0
  3
*U16
  1

  0
LINE
  5
15D
330
15C
100
AcDbEntity
  8
寸法
  6
ByBlock
 62
     0
100
AcDbLine
 10
158.537835
 20
-49.533713
 30
0.0
 11
165.404422
 21
-49.533713
 31
0.0
  0
LINE
  5
15E
330
15C
100
AcDbEntity
  8
寸法
  6
ByBlock
 62
     0
100
AcDbLine
 10
158.537835
 20
-69.20038
 30
0.0
 11
165.404422
 21
-69.20038
 31
0.0
  0
LINE
  5
15F
330
15C
100
AcDbEntity
  8
寸法
  6
ByBlock
 62
     0
100
AcDbLine
 10
165.404422
 20
-49.533713
 30
0.0
 11
165.404422
 21
-69.20038
 31
0.0
  0
POINT
  5
160
330
15C
100
AcDbEntity
  8
寸法
 62
     0
100
AcDbPoint
 10
165.404422
 20
-49.533713
 30
0.0
  0
POINT
  5
161
330
15C
100
AcDbEntity
  8
寸法
 62
     0
100
AcDbPoint
 10
165.404422
 20
-69.20038
 30
0.0
  0
TEXT
  5
162
330
15C
100
AcDbEntity
  8
寸法
  6
Continuous
 62
     0
100
AcDbText
 10
165.025
 20
-62.625
 30
0.0
 40
4.0
  1
590
 50
90.0
  7
TextStyle03
 72
     5
 11
165.025
 21
-56.125
 31
0.0
100
AcDbText
  0
ENDBLK
  5
163
330
15C
100
AcDbEntity
  8
0
100
AcDbBlockEnd
  0
BLOCK
  5
164
330
165
100
AcDbEntity
  8
0
100
AcDbBlockBegin
  2
*U17
 70
     1
 71
     0
 10
0.0
 20
0.0
 30
0.0
  3
*U17
  1

  0
LINE
  5
166
330
165
100
AcDbEntity
  8
寸法
  6
ByBlock
 62
     0
100
AcDbLine
 10
114.57117
 20
-46.533713
 30
0.0
 11
114.57117
 21
-41.2015
 31
0.0
  0
LINE
  5
167
330
165
100
AcDbEntity
  8
寸法
  6
ByBlock
 62
     0
100
AcDbLine
 10
155.537835
 20
-46.533713
 30
0.0
 11
155.537835
 21
-41.2015
 31
0.0
  0
LINE
  5
168
330
165
100
AcDbEntity
  8
寸法
  6
ByBlock
 62
     0
100
AcDbLine
 10
114.57117
 20
-41.2015
 30
0.0
 11
155.537835
 21
-41.2015
 31
0.0
  0
POINT
  5
169
330
165
100
AcDbEntity
  8
寸法
 62
     0
100
AcDbPoint
 10
114.57117
 20
-41.2015
 30
0.0
  0
POINT
  5
16A
330
165
100
AcDbEntity
  8
寸法
 62
     0
100
AcDbPoint
 10
155.537835
 20
-41.2015
 30
0.0
  0
TEXT
  5
16B
330
165
100
AcDbEntity
  8
寸法
  6
Continuous
 62
     0
100
AcDbText
 10
130.675
 20
-40.85
 30
0.0
 40
4.0
  1
1229
  7
TextStyle03
 72
     5
 11
139.425
 21
-40.85
 31
0.0
100
AcDbText
  0
ENDBLK
  5
16C
330
165
100
AcDbEntity
  8
0
100
AcDbBlockEnd
  0
BLOCK
  5
16D
330
16E
100
AcDbEntity
  8
0
100
AcDbBlockBegin
  2
*U18
 70
     1
 71
     0
 10
0.0
 20
0.0
 30
0.0
  3
*U18
  1

  0
LINE
  5
16F
330
16E
100
AcDbEntity
  8
寸法
  6
ByBlock
 62
     0
100
AcDbLine
 10
94.579702
 20
45.9807
 30
0.0
 11
38.732515
 21
45.9807
 31
0.0
  0
LINE
  5
170
330
16E
100
AcDbEntity
  8
寸法
  6
ByBlock
 62
     0
100
AcDbLine
 10
38.732515
 20
42.814033
 30
0.0
 11
38.732515
 21
45.9807
 31
0.0
  0
POINT
  5
171
330
16E
100
AcDbEntity
  8
寸法
 62
     0
100
AcDbPoint
 10
38.732515
 20
42.814033
 30
0.0
  0
POINT
  5
172
330
16E
100
AcDbEntity
  8
寸法
 62
     0
100
AcDbPoint
 10
38.732515
 20
45.9807
 30
0.0
  0
TEXT
  5
173
330
16E
100
AcDbEntity
  8
寸法
  6
Continuous
 62
     0
100
AcDbText
 10
38.35
 20
46.43125
 30
0.0
 40
3.0
  1
95
 50
90.0
  7
TextStyle03
 72
     5
 11
38.35
 21
49.61875
 31
0.0
100
AcDbText
  0
ENDBLK
  5
174
330
16E
100
AcDbEntity
  8
0
100
AcDbBlockEnd
  0
BLOCK
  5
175
330
176
100
AcDbEntity
  8
0
100
AcDbBlockBegin
  2
*U19
 70
     1
 71
     0
 10
0.0
 20
0.0
 30
0.0
  3
*U19
  1

  0
LINE
  5
177
330
176
100
AcDbEntity
  8
ボルト／ビス
  6
Continuous
100
AcDbLine
 10
-79.287137
 20
-70.209613
 30
0.0
 11
-79.287137
 21
-69.74294500000001
 31
0.0
  0
LINE
  5
178
330
176
100
AcDbEntity
  8
ボルト／ビス
  6
Continuous
100
AcDbLine
 10
-79.65380500000001
 20
-70.209613
 30
0.0
 11
-79.65380500000001
 21
-70.142945
 31
0.0
  0
LINE
  5
179
330
176
100
AcDbEntity
  8
ボルト／ビス
  6
Continuous
100
AcDbLine
 10
-79.65380500000001
 20
-70.142945
 30
0.0
 11
-78.920472
 21
-70.142945
 31
0.0
  0
LINE
  5
17A
330
176
100
AcDbEntity
  8
ボルト／ビス
  6
Continuous
100
AcDbLine
 10
-78.920472
 20
-70.142945
 30
0.0
 11
-78.920472
 21
-70.209613
 31
0.0
  0
LINE
  5
17B
330
176
100
AcDbEntity
  8
ボルト／ビス
  6
Continuous
100
AcDbLine
 10
-79.65380500000001
 20
-70.209613
 30
0.0
 11
-78.920472
 21
-70.209613
 31
0.0
  0
LINE
  5
17C
330
176
100
AcDbEntity
  8
ボルト／ビス
  6
Continuous
100
AcDbLine
 10
-79.587137
 20
-70.109612
 30
0.0
 11
-79.587137
 21
-70.142945
 31
0.0
  0
LINE
  5
17D
330
176
100
AcDbEntity
  8
ボルト／ビス
  6
Continuous
100
AcDbLine
 10
-79.587137
 20
-70.109612
 30
0.0
 11
-78.987137
 21
-70.109612
 31
0.0
  0
LINE
  5
17E
330
176
100
AcDbEntity
  8
ボルト／ビス
  6
Continuous
100
AcDbLine
 10
-78.987137
 20
-70.109612
 30
0.0
 11
-78.987137
 21
-70.142945
 31
0.0
  0
LINE
  5
17F
330
176
100
AcDbEntity
  8
ボルト／ビス
  6
Continuous
 62
    64
100
AcDbLine
 10
-79.447512
 20
-69.90961299999999
 30
0.0
 11
-79.479587
 21
-69.921288
 31
0.0
  0
ARC
  5
180
330
176
100
AcDbEntity
  8
ボルト／ビス
  6
Continuous
 62
    64
100
AcDbCircle
 10
-79.43147500000001
 20
-70.01459
 30
0.0
 40
0.104978
100
AcDbArc
 50
62.721967
 51
90.0
  0
ARC
  5
181
330
176
100
AcDbEntity
  8
ボルト／ビス
  6
Continuous
 62
    64
100
AcDbCircle
 10
-79.287137
 20
-70.31201299999999
 30
0.0
 40
0.402402
100
AcDbArc
 50
76.165002
 51
103.834985
  0
LINE
  5
182
330
176
100
AcDbEntity
  8
ボルト／ビス
  6
Continuous
 62
    64
100
AcDbLine
 10
-79.126763
 20
-69.90961299999999
 30
0.0
 11
-79.09468699999999
 21
-69.921288
 31
0.0
  0
ARC
  5
183
330
176
100
AcDbEntity
  8
ボルト／ビス
  6
Continuous
 62
    64
100
AcDbCircle
 10
-79.142799
 20
-70.01459
 30
0.0
 40
0.104978
100
AcDbArc
 50
90.0
 51
117.278033
  0
LINE
  5
184
330
176
100
AcDbEntity
  8
ボルト／ビス
  6
Continuous
 62
    64
100
AcDbLine
 10
-79.447512
 20
-69.90961299999999
 30
0.0
 11
-79.126763
 21
-69.90961299999999
 31
0.0
  0
LINE
  5
185
330
176
100
AcDbEntity
  8
ボルト／ビス
  6
Continuous
 62
    64
100
AcDbLine
 10
-79.09468699999999
 20
-69.921288
 30
0.0
 11
-79.09468699999999
 21
-70.042945
 31
0.0
  0
LINE
  5
186
330
176
100
AcDbEntity
  8
ボルト／ビス
  6
Continuous
 62
    64
100
AcDbLine
 10
-79.190913
 20
-69.921288
 30
0.0
 11
-79.190913
 21
-70.042945
 31
0.0
  0
LINE
  5
187
330
176
100
AcDbEntity
  8
ボルト／ビス
  6
Continuous
 62
    64
100
AcDbLine
 10
-79.479587
 20
-69.921288
 30
0.0
 11
-79.479587
 21
-70.042945
 31
0.0
  0
LINE
  5
188
330
176
100
AcDbEntity
  8
ボルト／ビス
  6
Continuous
 62
    64
100
AcDbLine
 10
-79.383363
 20
-69.921288
 30
0.0
 11
-79.383363
 21
-70.042945
 31
0.0
  0
LINE
  5
189
330
176
100
AcDbEntity
  8
ボルト／ビス
  6
Continuous
100
AcDbLine
 10
-79.479587
 20
-70.042945
 30
0.0
 11
-79.09468699999999
 21
-70.042945
 31
0.0
  0
LINE
  5
18A
330
176
100
AcDbEntity
  8
ボルト／ビス
  6
Continuous
100
AcDbLine
 10
-79.487137
 20
-70.042945
 30
0.0
 11
-79.487137
 21
-70.109612
 31
0.0
  0
LINE
  5
18B
330
176
100
AcDbEntity
  8
ボルト／ビス
  6
Continuous
100
AcDbLine
 10
-79.487137
 20
-70.042945
 30
0.0
 11
-79.087137
 21
-70.042945
 31
0.0
  0
LINE
  5
18C
330
176
100
AcDbEntity
  8
ボルト／ビス
  6
Continuous
100
AcDbLine
 10
-79.087137
 20
-70.042945
 30
0.0
 11
-79.087137
 21
-70.109612
 31
0.0
  0
ENDBLK
  5
18D
330
176
100
AcDbEntity
  8
0
100
AcDbBlockEnd
  0
BLOCK
  5
18E
330
18F
100
AcDbEntity
  8
0
100
AcDbBlockBegin
  2
*U20
 70
     1
 71
     0
 10
0.0
 20
0.0
 30
0.0
  3
*U20
  1

  0
LINE
  5
190
330
18F
100
AcDbEntity
  8
ボルト／ビス
  6
Continuous
100
AcDbLine
 10
5.379532
 20
-70.209613
 30
0.0
 11
5.379532
 21
-69.74294500000001
 31
0.0
  0
LINE
  5
191
330
18F
100
AcDbEntity
  8
ボルト／ビス
  6
Continuous
100
AcDbLine
 10
5.012865
 20
-70.209613
 30
0.0
 11
5.012865
 21
-70.142945
 31
0.0
  0
LINE
  5
192
330
18F
100
AcDbEntity
  8
ボルト／ビス
  6
Continuous
100
AcDbLine
 10
5.012865
 20
-70.142945
 30
0.0
 11
5.746198
 21
-70.142945
 31
0.0
  0
LINE
  5
193
330
18F
100
AcDbEntity
  8
ボルト／ビス
  6
Continuous
100
AcDbLine
 10
5.746198
 20
-70.142945
 30
0.0
 11
5.746198
 21
-70.209613
 31
0.0
  0
LINE
  5
194
330
18F
100
AcDbEntity
  8
ボルト／ビス
  6
Continuous
100
AcDbLine
 10
5.012865
 20
-70.209613
 30
0.0
 11
5.746198
 21
-70.209613
 31
0.0
  0
LINE
  5
195
330
18F
100
AcDbEntity
  8
ボルト／ビス
  6
Continuous
100
AcDbLine
 10
5.079532
 20
-70.109612
 30
0.0
 11
5.079532
 21
-70.142945
 31
0.0
  0
LINE
  5
196
330
18F
100
AcDbEntity
  8
ボルト／ビス
  6
Continuous
100
AcDbLine
 10
5.079532
 20
-70.109612
 30
0.0
 11
5.679532
 21
-70.109612
 31
0.0
  0
LINE
  5
197
330
18F
100
AcDbEntity
  8
ボルト／ビス
  6
Continuous
100
AcDbLine
 10
5.679532
 20
-70.109612
 30
0.0
 11
5.679532
 21
-70.142945
 31
0.0
  0
LINE
  5
198
330
18F
100
AcDbEntity
  8
ボルト／ビス
  6
Continuous
 62
    64
100
AcDbLine
 10
5.219158
 20
-69.90961299999999
 30
0.0
 11
5.187082
 21
-69.921288
 31
0.0
  0
ARC
  5
199
330
18F
100
AcDbEntity
  8
ボルト／ビス
  6
Continuous
 62
    64
100
AcDbCircle
 10
5.235194
 20
-70.01459
 30
0.0
 40
0.104978
100
AcDbArc
 50
62.721967
 51
90.0
  0
ARC
  5
19A
330
18F
100
AcDbEntity
  8
ボルト／ビス
  6
Continuous
 62
    64
100
AcDbCircle
 10
5.379532
 20
-70.31201400000001
 30
0.0
 40
0.402402
100
AcDbArc
 50
76.165002
 51
103.834985
  0
LINE
  5
19B
330
18F
100
AcDbEntity
  8
ボルト／ビス
  6
Continuous
 62
    64
100
AcDbLine
 10
5.539907
 20
-69.90961299999999
 30
0.0
 11
5.571983
 21
-69.921288
 31
0.0
  0
ARC
  5
19C
330
18F
100
AcDbEntity
  8
ボルト／ビス
  6
Continuous
 62
    64
100
AcDbCircle
 10
5.523869
 20
-70.01459
 30
0.0
 40
0.104978
100
AcDbArc
 50
90.0
 51
117.278033
  0
LINE
  5
19D
330
18F
100
AcDbEntity
  8
ボルト／ビス
  6
Continuous
 62
    64
100
AcDbLine
 10
5.219158
 20
-69.90961299999999
 30
0.0
 11
5.539907
 21
-69.90961299999999
 31
0.0
  0
LINE
  5
19E
330
18F
100
AcDbEntity
  8
ボルト／ビス
  6
Continuous
 62
    64
100
AcDbLine
 10
5.571983
 20
-69.921288
 30
0.0
 11
5.571983
 21
-70.042945
 31
0.0
  0
LINE
  5
19F
330
18F
100
AcDbEntity
  8
ボルト／ビス
  6
Continuous
 62
    64
100
AcDbLine
 10
5.475757
 20
-69.921288
 30
0.0
 11
5.475757
 21
-70.042945
 31
0.0
  0
LINE
  5
1A0
330
18F
100
AcDbEntity
  8
ボルト／ビス
  6
Continuous
 62
    64
100
AcDbLine
 10
5.187082
 20
-69.921288
 30
0.0
 11
5.187082
 21
-70.042945
 31
0.0
  0
LINE
  5
1A1
330
18F
100
AcDbEntity
  8
ボルト／ビス
  6
Continuous
 62
    64
100
AcDbLine
 10
5.283308
 20
-69.921288
 30
0.0
 11
5.283308
 21
-70.042945
 31
0.0
  0
LINE
  5
1A2
330
18F
100
AcDbEntity
  8
ボルト／ビス
  6
Continuous
100
AcDbLine
 10
5.187082
 20
-70.042945
 30
0.0
 11
5.571983
 21
-70.042945
 31
0.0
  0
LINE
  5
1A3
330
18F
100
AcDbEntity
  8
ボルト／ビス
  6
Continuous
100
AcDbLine
 10
5.179532
 20
-70.042945
 30
0.0
 11
5.179532
 21
-70.109612
 31
0.0
  0
LINE
  5
1A4
330
18F
100
AcDbEntity
  8
ボルト／ビス
  6
Continuous
100
AcDbLine
 10
5.179532
 20
-70.042945
 30
0.0
 11
5.579532
 21
-70.042945
 31
0.0
  0
LINE
  5
1A5
330
18F
100
AcDbEntity
  8
ボルト／ビス
  6
Continuous
100
AcDbLine
 10
5.579532
 20
-70.042945
 30
0.0
 11
5.579532
 21
-70.109612
 31
0.0
  0
ENDBLK
  5
1A6
330
18F
100
AcDbEntity
  8
0
100
AcDbBlockEnd
  0
BLOCK
  5
1A7
330
1A8
100
AcDbEntity
  8
0
100
AcDbBlockBegin
  2
*U21
 70
     1
 71
     0
 10
0.0
 20
0.0
 30
0.0
  3
*U21
  1

  0
LINE
  5
1A9
330
1A8
100
AcDbEntity
  8
ボルト／ビス
  6
Continuous
100
AcDbLine
 10
94.24612999999999
 20
22.147365
 30
0.0
 11
93.77946300000001
 21
22.147365
 31
0.0
  0
LINE
  5
1AA
330
1A8
100
AcDbEntity
  8
ボルト／ビス
  6
Continuous
100
AcDbLine
 10
94.24612999999999
 20
21.780697
 30
0.0
 11
94.179463
 21
21.780697
 31
0.0
  0
LINE
  5
1AB
330
1A8
100
AcDbEntity
  8
ボルト／ビス
  6
Continuous
100
AcDbLine
 10
94.179463
 20
21.780697
 30
0.0
 11
94.179463
 21
22.51403
 31
0.0
  0
LINE
  5
1AC
330
1A8
100
AcDbEntity
  8
ボルト／ビス
  6
Continuous
100
AcDbLine
 10
94.179463
 20
22.51403
 30
0.0
 11
94.24612999999999
 21
22.51403
 31
0.0
  0
LINE
  5
1AD
330
1A8
100
AcDbEntity
  8
ボルト／ビス
  6
Continuous
100
AcDbLine
 10
94.24612999999999
 20
21.780697
 30
0.0
 11
94.24612999999999
 21
22.51403
 31
0.0
  0
LINE
  5
1AE
330
1A8
100
AcDbEntity
  8
ボルト／ビス
  6
Continuous
100
AcDbLine
 10
94.14613
 20
21.847365
 30
0.0
 11
94.179463
 21
21.847365
 31
0.0
  0
LINE
  5
1AF
330
1A8
100
AcDbEntity
  8
ボルト／ビス
  6
Continuous
100
AcDbLine
 10
94.14613
 20
21.847365
 30
0.0
 11
94.14613
 21
22.447365
 31
0.0
  0
LINE
  5
1B0
330
1A8
100
AcDbEntity
  8
ボルト／ビス
  6
Continuous
100
AcDbLine
 10
94.14613
 20
22.447365
 30
0.0
 11
94.179463
 21
22.447365
 31
0.0
  0
LINE
  5
1B1
330
1A8
100
AcDbEntity
  8
ボルト／ビス
  6
Continuous
 62
    64
100
AcDbLine
 10
93.94613
 20
21.98699
 30
0.0
 11
93.95780499999999
 21
21.954915
 31
0.0
  0
ARC
  5
1B2
330
1A8
100
AcDbEntity
  8
ボルト／ビス
  6
Continuous
 62
    64
100
AcDbCircle
 10
94.051109
 20
22.003026
 30
0.0
 40
0.104978
100
AcDbArc
 50
152.721967
 51
180.0
  0
ARC
  5
1B3
330
1A8
100
AcDbEntity
  8
ボルト／ビス
  6
Continuous
 62
    64
100
AcDbCircle
 10
94.348533
 20
22.147364
 30
0.0
 40
0.402402
100
AcDbArc
 50
166.165002
 51
193.834985
  0
LINE
  5
1B4
330
1A8
100
AcDbEntity
  8
ボルト／ビス
  6
Continuous
 62
    64
100
AcDbLine
 10
93.94613
 20
22.30774
 30
0.0
 11
93.95780499999999
 21
22.339815
 31
0.0
  0
ARC
  5
1B5
330
1A8
100
AcDbEntity
  8
ボルト／ビス
  6
Continuous
 62
    64
100
AcDbCircle
 10
94.051109
 20
22.291702
 30
0.0
 40
0.104978
100
AcDbArc
 50
180.0
 51
207.278033
  0
LINE
  5
1B6
330
1A8
100
AcDbEntity
  8
ボルト／ビス
  6
Continuous
 62
    64
100
AcDbLine
 10
93.94613
 20
21.98699
 30
0.0
 11
93.94613
 21
22.30774
 31
0.0
  0
LINE
  5
1B7
330
1A8
100
AcDbEntity
  8
ボルト／ビス
  6
Continuous
 62
    64
100
AcDbLine
 10
93.95780499999999
 20
22.339815
 30
0.0
 11
94.079463
 21
22.339815
 31
0.0
  0
LINE
  5
1B8
330
1A8
100
AcDbEntity
  8
ボルト／ビス
  6
Continuous
 62
    64
100
AcDbLine
 10
93.95780499999999
 20
22.24359
 30
0.0
 11
94.079463
 21
22.24359
 31
0.0
  0
LINE
  5
1B9
330
1A8
100
AcDbEntity
  8
ボルト／ビス
  6
Continuous
 62
    64
100
AcDbLine
 10
93.95780499999999
 20
21.954915
 30
0.0
 11
94.079463
 21
21.954915
 31
0.0
  0
LINE
  5
1BA
330
1A8
100
AcDbEntity
  8
ボルト／ビス
  6
Continuous
 62
    64
100
AcDbLine
 10
93.95780499999999
 20
22.05114
 30
0.0
 11
94.079463
 21
22.05114
 31
0.0
  0
LINE
  5
1BB
330
1A8
100
AcDbEntity
  8
ボルト／ビス
  6
Continuous
100
AcDbLine
 10
94.079463
 20
21.954915
 30
0.0
 11
94.079463
 21
22.339815
 31
0.0
  0
LINE
  5
1BC
330
1A8
100
AcDbEntity
  8
ボルト／ビス
  6
Continuous
100
AcDbLine
 10
94.079463
 20
21.947365
 30
0.0
 11
94.14613
 21
21.947365
 31
0.0
  0
LINE
  5
1BD
330
1A8
100
AcDbEntity
  8
ボルト／ビス
  6
Continuous
100
AcDbLine
 10
94.079463
 20
21.947365
 30
0.0
 11
94.079463
 21
22.347365
 31
0.0
  0
LINE
  5
1BE
330
1A8
100
AcDbEntity
  8
ボルト／ビス
  6
Continuous
100
AcDbLine
 10
94.079463
 20
22.347365
 30
0.0
 11
94.14613
 21
22.347365
 31
0.0
  0
ENDBLK
  5
1BF
330
1A8
100
AcDbEntity
  8
0
100
AcDbBlockEnd
  0
BLOCK
  5
1C0
330
1C1
100
AcDbEntity
  8
0
100
AcDbBlockBegin
  2
*U22
 70
     1
 71
     0
 10
0.0
 20
0.0
 30
0.0
  3
*U22
  1

  0
LINE
  5
1C2
330
1C1
100
AcDbEntity
  8
ボルト／ビス
  6
Continuous
100
AcDbLine
 10
94.24612999999999
 20
43.4807
 30
0.0
 11
93.77946300000001
 21
43.4807
 31
0.0
  0
LINE
  5
1C3
330
1C1
100
AcDbEntity
  8
ボルト／ビス
  6
Continuous
100
AcDbLine
 10
94.24612999999999
 20
43.114033
 30
0.0
 11
94.179463
 21
43.114033
 31
0.0
  0
LINE
  5
1C4
330
1C1
100
AcDbEntity
  8
ボルト／ビス
  6
Continuous
100
AcDbLine
 10
94.179463
 20
43.114033
 30
0.0
 11
94.179463
 21
43.847365
 31
0.0
  0
LINE
  5
1C5
330
1C1
100
AcDbEntity
  8
ボルト／ビス
  6
Continuous
100
AcDbLine
 10
94.179463
 20
43.847365
 30
0.0
 11
94.24612999999999
 21
43.847365
 31
0.0
  0
LINE
  5
1C6
330
1C1
100
AcDbEntity
  8
ボルト／ビス
  6
Continuous
100
AcDbLine
 10
94.24612999999999
 20
43.114033
 30
0.0
 11
94.24612999999999
 21
43.847365
 31
0.0
  0
LINE
  5
1C7
330
1C1
100
AcDbEntity
  8
ボルト／ビス
  6
Continuous
100
AcDbLine
 10
94.14613
 20
43.1807
 30
0.0
 11
94.179463
 21
43.1807
 31
0.0
  0
LINE
  5
1C8
330
1C1
100
AcDbEntity
  8
ボルト／ビス
  6
Continuous
100
AcDbLine
 10
94.14613
 20
43.1807
 30
0.0
 11
94.14613
 21
43.7807
 31
0.0
  0
LINE
  5
1C9
330
1C1
100
AcDbEntity
  8
ボルト／ビス
  6
Continuous
100
AcDbLine
 10
94.14613
 20
43.7807
 30
0.0
 11
94.179463
 21
43.7807
 31
0.0
  0
LINE
  5
1CA
330
1C1
100
AcDbEntity
  8
ボルト／ビス
  6
Continuous
 62
    64
100
AcDbLine
 10
93.94613
 20
43.320325
 30
0.0
 11
93.95780499999999
 21
43.28825
 31
0.0
  0
ARC
  5
1CB
330
1C1
100
AcDbEntity
  8
ボルト／ビス
  6
Continuous
 62
    64
100
AcDbCircle
 10
94.051109
 20
43.336361
 30
0.0
 40
0.104978
100
AcDbArc
 50
152.721967
 51
180.0
  0
ARC
  5
1CC
330
1C1
100
AcDbEntity
  8
ボルト／ビス
  6
Continuous
 62
    64
100
AcDbCircle
 10
94.348533
 20
43.480699
 30
0.0
 40
0.402402
100
AcDbArc
 50
166.165002
 51
193.834985
  0
LINE
  5
1CD
330
1C1
100
AcDbEntity
  8
ボルト／ビス
  6
Continuous
 62
    64
100
AcDbLine
 10
93.94613
 20
43.641075
 30
0.0
 11
93.95780499999999
 21
43.67315
 31
0.0
  0
ARC
  5
1CE
330
1C1
100
AcDbEntity
  8
ボルト／ビス
  6
Continuous
 62
    64
100
AcDbCircle
 10
94.051109
 20
43.625037
 30
0.0
 40
0.104978
100
AcDbArc
 50
180.0
 51
207.278033
  0
LINE
  5
1CF
330
1C1
100
AcDbEntity
  8
ボルト／ビス
  6
Continuous
 62
    64
100
AcDbLine
 10
93.94613
 20
43.320325
 30
0.0
 11
93.94613
 21
43.641075
 31
0.0
  0
LINE
  5
1D0
330
1C1
100
AcDbEntity
  8
ボルト／ビス
  6
Continuous
 62
    64
100
AcDbLine
 10
93.95780499999999
 20
43.67315
 30
0.0
 11
94.079463
 21
43.67315
 31
0.0
  0
LINE
  5
1D1
330
1C1
100
AcDbEntity
  8
ボルト／ビス
  6
Continuous
 62
    64
100
AcDbLine
 10
93.95780499999999
 20
43.576925
 30
0.0
 11
94.079463
 21
43.576925
 31
0.0
  0
LINE
  5
1D2
330
1C1
100
AcDbEntity
  8
ボルト／ビス
  6
Continuous
 62
    64
100
AcDbLine
 10
93.95780499999999
 20
43.28825
 30
0.0
 11
94.079463
 21
43.28825
 31
0.0
  0
LINE
  5
1D3
330
1C1
100
AcDbEntity
  8
ボルト／ビス
  6
Continuous
 62
    64
100
AcDbLine
 10
93.95780499999999
 20
43.384475
 30
0.0
 11
94.079463
 21
43.384475
 31
0.0
  0
LINE
  5
1D4
330
1C1
100
AcDbEntity
  8
ボルト／ビス
  6
Continuous
100
AcDbLine
 10
94.079463
 20
43.28825
 30
0.0
 11
94.079463
 21
43.67315
 31
0.0
  0
LINE
  5
1D5
330
1C1
100
AcDbEntity
  8
ボルト／ビス
  6
Continuous
100
AcDbLine
 10
94.079463
 20
43.2807
 30
0.0
 11
94.14613
 21
43.2807
 31
0.0
  0
LINE
  5
1D6
330
1C1
100
AcDbEntity
  8
ボルト／ビス
  6
Continuous
100
AcDbLine
 10
94.079463
 20
43.2807
 30
0.0
 11
94.079463
 21
43.6807
 31
0.0
  0
LINE
  5
1D7
330
1C1
100
AcDbEntity
  8
ボルト／ビス
  6
Continuous
100
AcDbLine
 10
94.079463
 20
43.6807
 30
0.0
 11
94.14613
 21
43.6807
 31
0.0
  0
ENDBLK
  5
1D8
330
1C1
100
AcDbEntity
  8
0
100
AcDbBlockEnd
  0
ENDSEC
  0
SECTION
  2
ENTITIES
  0
LWPOLYLINE
  5
1D9
330
1D
100
AcDbEntity
  8
通り芯
  6
Continuous
100
AcDbPolyline
 90
        4
 70
     1
 43
0.0
 10
-210.0
 20
-148.5
 10
210.0
 20
-148.5
 10
210.0
 20
148.5
 10
-210.0
 20
148.5
  0
INSERT
  5
1DF
330
1D
100
AcDbEntity
  8
型材断面
  6
Continuous
100
AcDbBlockReference
  2
*U0
 10
0.0
 20
0.0
 30
0.0
  0
LINE
  5
1E0
330
1D
100
AcDbEntity
  8
型材断面
  6
DASHDOT
100
AcDbLine
 10
4.712865
 20
-77.83644200000001
 30
0.0
 11
4.712865
 21
42.814033
 31
0.0
  0
LINE
  5
1E1
330
1D
100
AcDbEntity
  8
型材断面
  6
DASHDOT
100
AcDbLine
 10
-36.953802
 20
-77.83644200000001
 30
0.0
 11
-36.953802
 21
42.814033
 31
0.0
  0
LINE
  5
1E2
330
1D
100
AcDbEntity
  8
型材断面
  6
DASHDOT
100
AcDbLine
 10
-78.62046700000001
 20
-77.83644200000001
 30
0.0
 11
-78.62046700000001
 21
42.814033
 31
0.0
  0
LINE
  5
1E3
330
1D
100
AcDbEntity
  8
型材断面
  6
DASHDOT
100
AcDbLine
 10
102.389627
 20
42.814033
 30
0.0
 11
-78.62046700000001
 21
42.814033
 31
0.0
  0
LINE
  5
1E4
330
1D
100
AcDbEntity
  8
型材断面
  6
DASHDOT
100
AcDbLine
 10
102.389627
 20
32.814033
 30
0.0
 11
-78.62046700000001
 21
32.814033
 31
0.0
  0
LINE
  5
1E5
330
1D
100
AcDbEntity
  8
型材断面
  6
DASHDOT
100
AcDbLine
 10
102.389627
 20
22.814033
 30
0.0
 11
-78.62046700000001
 21
22.814033
 31
0.0
  0
LINE
  5
1E6
330
1D
100
AcDbEntity
  8
型材断面
  6
DOT
100
AcDbLine
 10
-35.703802
 20
22.814033
 30
0.0
 11
-35.703802
 21
42.814033
 31
0.0
  0
LINE
  5
1E7
330
1D
100
AcDbEntity
  8
型材断面
  6
DASHDOT
100
AcDbLine
 10
-36.953802
 20
22.814033
 30
0.0
 11
-36.953802
 21
42.814033
 31
0.0
  0
LINE
  5
1E8
330
1D
100
AcDbEntity
  8
型材断面
  6
DOT
100
AcDbLine
 10
-38.203802
 20
22.814033
 30
0.0
 11
-38.203802
 21
42.814033
 31
0.0
  0
LINE
  5
1E9
330
1D
100
AcDbEntity
  8
型材断面
  6
Continuous
100
AcDbLine
 10
-61.9538
 20
45.444162
 30
0.0
 11
-63.44943
 21
48.03467
 31
0.0
  0
LINE
  5
1EA
330
1D
100
AcDbEntity
  8
型材断面
  6
Continuous
100
AcDbLine
 10
-61.9538
 20
45.444162
 30
0.0
 11
-60.45817
 21
48.03467
 31
0.0
  0
LINE
  5
1EB
330
1D
100
AcDbEntity
  8
型材断面
  6
Continuous
100
AcDbLine
 10
-60.45817
 20
48.03467
 30
0.0
 11
-63.44943
 21
48.03467
 31
0.0
  0
LINE
  5
1EC
330
1D
100
AcDbEntity
  8
型材断面
  6
Continuous
100
AcDbLine
 10
-119.472675
 20
87.32138000000001
 30
0.0
 11
-120.968305
 21
84.730873
 31
0.0
  0
LINE
  5
1ED
330
1D
100
AcDbEntity
  8
型材断面
  6
Continuous
100
AcDbLine
 10
-119.472675
 20
87.32138000000001
 30
0.0
 11
-117.977045
 21
84.730873
 31
0.0
  0
LINE
  5
1EE
330
1D
100
AcDbEntity
  8
型材断面
  6
Continuous
100
AcDbLine
 10
-117.977045
 20
84.730873
 30
0.0
 11
-120.968305
 21
84.730873
 31
0.0
  0
LINE
  5
1EF
330
1D
100
AcDbEntity
  8
型材断面
  6
Continuous
100
AcDbLine
 10
-125.495263
 20
83.792277
 30
0.0
 11
-79.253485
 21
83.792277
 31
0.0
  0
LINE
  5
1F0
330
1D
100
AcDbEntity
  8
型材断面
  6
Continuous
100
AcDbLine
 10
-81.250597
 20
32.814033
 30
0.0
 11
-83.841105
 21
34.309663
 31
0.0
  0
LINE
  5
1F1
330
1D
100
AcDbEntity
  8
型材断面
  6
Continuous
100
AcDbLine
 10
-81.250597
 20
32.814033
 30
0.0
 11
-83.841105
 21
31.318403
 31
0.0
  0
LINE
  5
1F2
330
1D
100
AcDbEntity
  8
型材断面
  6
Continuous
100
AcDbLine
 10
-83.841105
 20
31.318403
 30
0.0
 11
-83.841105
 21
34.309663
 31
0.0
  0
LINE
  5
1F3
330
1D
100
AcDbEntity
  8
型材断面
  6
Continuous
100
AcDbLine
 10
-61.9538
 20
20.183902
 30
0.0
 11
-63.44943
 21
17.593395
 31
0.0
  0
LINE
  5
1F4
330
1D
100
AcDbEntity
  8
型材断面
  6
Continuous
100
AcDbLine
 10
-61.9538
 20
20.183902
 30
0.0
 11
-60.45817
 21
17.593395
 31
0.0
  0
LINE
  5
1F5
330
1D
100
AcDbEntity
  8
型材断面
  6
Continuous
100
AcDbLine
 10
-60.45817
 20
17.593395
 30
0.0
 11
-63.44943
 21
17.593395
 31
0.0
  0
LINE
  5
1F6
330
1D
100
AcDbEntity
  8
型材断面
  6
Continuous
100
AcDbLine
 10
-11.953805
 20
45.444162
 30
0.0
 11
-10.458175
 21
48.03467
 31
0.0
  0
LINE
  5
1F7
330
1D
100
AcDbEntity
  8
型材断面
  6
Continuous
100
AcDbLine
 10
-11.953805
 20
45.444162
 30
0.0
 11
-13.449435
 21
48.03467
 31
0.0
  0
LINE
  5
1F8
330
1D
100
AcDbEntity
  8
型材断面
  6
Continuous
100
AcDbLine
 10
-13.449435
 20
48.03467
 30
0.0
 11
-10.458175
 21
48.03467
 31
0.0
  0
LINE
  5
1F9
330
1D
100
AcDbEntity
  8
型材断面
  6
Continuous
100
AcDbLine
 10
7.342993
 20
32.814033
 30
0.0
 11
9.9335
 21
34.309663
 31
0.0
  0
LINE
  5
1FA
330
1D
100
AcDbEntity
  8
型材断面
  6
Continuous
100
AcDbLine
 10
7.342993
 20
32.814033
 30
0.0
 11
9.9335
 21
31.318403
 31
0.0
  0
LINE
  5
1FB
330
1D
100
AcDbEntity
  8
型材断面
  6
Continuous
100
AcDbLine
 10
9.9335
 20
31.318403
 30
0.0
 11
9.9335
 21
34.309663
 31
0.0
  0
LINE
  5
1FC
330
1D
100
AcDbEntity
  8
型材断面
  6
Continuous
100
AcDbLine
 10
-11.953805
 20
20.183902
 30
0.0
 11
-10.458175
 21
17.593395
 31
0.0
  0
LINE
  5
1FD
330
1D
100
AcDbEntity
  8
型材断面
  6
Continuous
100
AcDbLine
 10
-11.953805
 20
20.183902
 30
0.0
 11
-13.449435
 21
17.593395
 31
0.0
  0
LINE
  5
1FE
330
1D
100
AcDbEntity
  8
型材断面
  6
Continuous
100
AcDbLine
 10
-13.449435
 20
17.593395
 30
0.0
 11
-10.458175
 21
17.593395
 31
0.0
  0
LINE
  5
1FF
330
1D
100
AcDbEntity
  8
型材断面
  6
Continuous
100
AcDbLine
 10
-125.495263
 20
77.49227500000001
 30
0.0
 11
-79.253485
 21
77.49227500000001
 31
0.0
  0
LINE
  5
200
330
1D
100
AcDbEntity
  8
型材断面
  6
Continuous
100
AcDbLine
 10
6.779532
 20
44.8807
 30
0.0
 11
7.879532
 21
45.9807
 31
0.0
  0
LINE
  5
201
330
1D
100
AcDbEntity
  8
型材断面
  6
Continuous
100
AcDbLine
 10
7.879532
 20
45.9807
 30
0.0
 11
7.879532
 21
19.647365
 31
0.0
  0
LINE
  5
202
330
1D
100
AcDbEntity
  8
型材断面
  6
Continuous
100
AcDbLine
 10
6.779532
 20
20.747365
 30
0.0
 11
7.879532
 21
19.647365
 31
0.0
  0
LINE
  5
203
330
1D
100
AcDbEntity
  8
型材断面
  6
Continuous
100
AcDbLine
 10
7.879532
 20
19.647365
 30
0.0
 11
-81.787137
 21
19.647365
 31
0.0
  0
LINE
  5
204
330
1D
100
AcDbEntity
  8
型材断面
  6
Continuous
100
AcDbLine
 10
-80.68713700000001
 20
20.747365
 30
0.0
 11
-81.787137
 21
19.647365
 31
0.0
  0
LINE
  5
205
330
1D
100
AcDbEntity
  8
型材断面
  6
Continuous
100
AcDbLine
 10
7.879532
 20
45.9807
 30
0.0
 11
-81.787137
 21
45.9807
 31
0.0
  0
LINE
  5
206
330
1D
100
AcDbEntity
  8
型材断面
  6
Continuous
100
AcDbLine
 10
-81.787137
 20
19.647365
 30
0.0
 11
-81.787137
 21
45.9807
 31
0.0
  0
LINE
  5
207
330
1D
100
AcDbEntity
  8
型材断面
  6
Continuous
100
AcDbLine
 10
-80.68713700000001
 20
44.8807
 30
0.0
 11
-81.787137
 21
45.9807
 31
0.0
  0
LINE
  5
208
330
1D
100
AcDbEntity
  8
型材断面
  6
Continuous
 62
    14
100
AcDbLine
 10
98.0797
 20
45.980697
 30
0.0
 11
97.5797
 21
45.980697
 31
0.0
  0
LINE
  5
209
330
1D
100
AcDbEntity
  8
型材断面
  6
Continuous
100
AcDbLine
 10
97.41303499999999
 20
44.147363
 30
0.0
 11
97.5797
 21
45.980697
 31
0.0
  0
LINE
  5
20A
330
1D
100
AcDbEntity
  8
型材断面
  6
Continuous
100
AcDbLine
 10
97.5797
 20
45.980697
 30
0.0
 11
98.0797
 21
45.980697
 31
0.0
  0
LINE
  5
20B
330
1D
100
AcDbEntity
  8
型材断面
  6
Continuous
100
AcDbLine
 10
98.0797
 20
45.147363
 30
0.0
 11
98.41303499999999
 21
45.147363
 31
0.0
  0
LWPOLYLINE
  5
20C
330
1D
100
AcDbEntity
  8
型材断面
  6
Continuous
100
AcDbPolyline
 90
        3
 70
     0
 43
0.0
 10
95.24612999999999
 20
44.014035
 10
95.596368
 20
44.014035
 10
95.72969999999999
 20
44.147367
  0
LINE
  5
211
330
1D
100
AcDbEntity
  8
型材断面
  6
Continuous
100
AcDbLine
 10
97.41303499999999
 20
44.147363
 30
0.0
 11
95.72969500000001
 21
44.147363
 31
0.0
  0
LINE
  5
212
330
1D
100
AcDbEntity
  8
型材断面
  6
Continuous
 62
    14
100
AcDbLine
 10
98.0797
 20
19.647372
 30
0.0
 11
97.5797
 21
19.647372
 31
0.0
  0
LINE
  5
213
330
1D
100
AcDbEntity
  8
型材断面
  6
Continuous
100
AcDbLine
 10
97.41303499999999
 20
21.480708
 30
0.0
 11
97.5797
 21
19.647372
 31
0.0
  0
LINE
  5
214
330
1D
100
AcDbEntity
  8
型材断面
  6
Continuous
100
AcDbLine
 10
97.5797
 20
19.647372
 30
0.0
 11
98.0797
 21
19.647372
 31
0.0
  0
LINE
  5
215
330
1D
100
AcDbEntity
  8
型材断面
  6
Continuous
100
AcDbLine
 10
98.0797
 20
20.480708
 30
0.0
 11
98.41303499999999
 21
20.480708
 31
0.0
  0
LWPOLYLINE
  5
216
330
1D
100
AcDbEntity
  8
型材断面
  6
Continuous
100
AcDbPolyline
 90
        3
 70
     0
 43
0.0
 10
95.24612999999999
 20
21.614035
 10
95.596368
 20
21.614035
 10
95.72969999999999
 20
21.480703
  0
LINE
  5
21B
330
1D
100
AcDbEntity
  8
型材断面
  6
Continuous
100
AcDbLine
 10
97.41303499999999
 20
21.480708
 30
0.0
 11
95.72969500000001
 21
21.480708
 31
0.0
  0
LINE
  5
21C
330
1D
100
AcDbEntity
  8
型材断面
  6
Continuous
100
AcDbLine
 10
97.5797
 20
45.980697
 30
0.0
 11
97.5797
 21
19.647372
 31
0.0
  0
LINE
  5
21D
330
1D
100
AcDbEntity
  8
型材断面
  6
Continuous
100
AcDbLine
 10
98.0797
 20
45.980697
 30
0.0
 11
98.0797
 21
19.647372
 31
0.0
  0
LINE
  5
21E
330
1D
100
AcDbEntity
  8
型材断面
  6
Continuous
100
AcDbLine
 10
98.413033
 20
45.147363
 30
0.0
 11
98.413033
 21
20.480708
 31
0.0
  0
LINE
  5
21F
330
1D
100
AcDbEntity
  8
型材断面
  6
Continuous
100
AcDbLine
 10
97.41303499999999
 20
44.147363
 30
0.0
 11
97.41303499999999
 21
21.480708
 31
0.0
  0
LINE
  5
220
330
1D
100
AcDbEntity
  8
型材断面
  6
Continuous
100
AcDbLine
 10
95.596368
 20
44.014035
 30
0.0
 11
95.596368
 21
21.614035
 31
0.0
  0
LINE
  5
221
330
1D
100
AcDbEntity
  8
型材断面
  6
Continuous
100
AcDbLine
 10
95.72969999999999
 20
44.147367
 30
0.0
 11
95.72969999999999
 21
21.480703
 31
0.0
  0
LINE
  5
222
330
1D
100
AcDbEntity
  8
型材断面
  6
Continuous
 62
    14
100
AcDbLine
 10
7.87953
 20
-74.043182
 30
0.0
 11
7.87953
 21
-73.543182
 31
0.0
  0
LINE
  5
223
330
1D
100
AcDbEntity
  8
型材断面
  6
Continuous
100
AcDbLine
 10
6.046195
 20
-73.376518
 30
0.0
 11
7.87953
 21
-73.543182
 31
0.0
  0
LINE
  5
224
330
1D
100
AcDbEntity
  8
型材断面
  6
Continuous
100
AcDbLine
 10
7.87953
 20
-73.543182
 30
0.0
 11
7.87953
 21
-74.043182
 31
0.0
  0
LINE
  5
225
330
1D
100
AcDbEntity
  8
型材断面
  6
Continuous
100
AcDbLine
 10
7.046195
 20
-74.043182
 30
0.0
 11
7.046195
 21
-74.376518
 31
0.0
  0
LWPOLYLINE
  5
226
330
1D
100
AcDbEntity
  8
型材断面
  6
Continuous
100
AcDbPolyline
 90
        3
 70
     0
 43
0.0
 10
5.912867
 20
-71.209613
 10
5.912867
 20
-71.55985
 10
6.0462
 20
-71.69318199999999
  0
LINE
  5
22B
330
1D
100
AcDbEntity
  8
型材断面
  6
Continuous
100
AcDbLine
 10
6.046195
 20
-73.376518
 30
0.0
 11
6.046195
 21
-71.693178
 31
0.0
  0
LINE
  5
22C
330
1D
100
AcDbEntity
  8
型材断面
  6
Continuous
 62
    14
100
AcDbLine
 10
-81.787128
 20
-74.043182
 30
0.0
 11
-81.787128
 21
-73.543182
 31
0.0
  0
LINE
  5
22D
330
1D
100
AcDbEntity
  8
型材断面
  6
Continuous
100
AcDbLine
 10
-79.95379200000001
 20
-73.376518
 30
0.0
 11
-81.787128
 21
-73.543182
 31
0.0
  0
LINE
  5
22E
330
1D
100
AcDbEntity
  8
型材断面
  6
Continuous
100
AcDbLine
 10
-81.787128
 20
-73.543182
 30
0.0
 11
-81.787128
 21
-74.043182
 31
0.0
  0
LINE
  5
22F
330
1D
100
AcDbEntity
  8
型材断面
  6
Continuous
100
AcDbLine
 10
-80.95379200000001
 20
-74.043182
 30
0.0
 11
-80.95379200000001
 21
-74.376518
 31
0.0
  0
LWPOLYLINE
  5
230
330
1D
100
AcDbEntity
  8
型材断面
  6
Continuous
100
AcDbPolyline
 90
        3
 70
     0
 43
0.0
 10
-79.820465
 20
-71.209613
 10
-79.820465
 20
-71.55985
 10
-79.95379800000001
 20
-71.69318199999999
  0
LINE
  5
235
330
1D
100
AcDbEntity
  8
型材断面
  6
Continuous
100
AcDbLine
 10
-79.95379200000001
 20
-73.376518
 30
0.0
 11
-79.95379200000001
 21
-71.693178
 31
0.0
  0
LINE
  5
236
330
1D
100
AcDbEntity
  8
型材断面
  6
Continuous
100
AcDbLine
 10
7.87953
 20
-73.543182
 30
0.0
 11
-81.787128
 21
-73.543182
 31
0.0
  0
LINE
  5
237
330
1D
100
AcDbEntity
  8
型材断面
  6
Continuous
100
AcDbLine
 10
7.87953
 20
-74.043182
 30
0.0
 11
-81.787128
 21
-74.043182
 31
0.0
  0
LINE
  5
238
330
1D
100
AcDbEntity
  8
型材断面
  6
Continuous
100
AcDbLine
 10
7.046195
 20
-74.376515
 30
0.0
 11
-80.95379200000001
 21
-74.376515
 31
0.0
  0
LINE
  5
239
330
1D
100
AcDbEntity
  8
型材断面
  6
Continuous
100
AcDbLine
 10
6.046195
 20
-73.376518
 30
0.0
 11
-79.95379200000001
 21
-73.376518
 31
0.0
  0
LINE
  5
23A
330
1D
100
AcDbEntity
  8
型材断面
  6
Continuous
100
AcDbLine
 10
5.912867
 20
-71.55985
 30
0.0
 11
-79.820465
 21
-71.55985
 31
0.0
  0
LINE
  5
23B
330
1D
100
AcDbEntity
  8
型材断面
  6
Continuous
100
AcDbLine
 10
6.0462
 20
-71.69318199999999
 30
0.0
 11
-79.95379800000001
 21
-71.69318199999999
 31
0.0
  0
TEXT
  5
23C
330
1D
100
AcDbEntity
  8
文字
  6
Continuous
100
AcDbText
 10
-116.675
 20
84.95
 30
0.0
 40
3.0
  1
は排水穴位置を示す
  7
TextStyle03
 72
     5
 11
-86.675
 21
84.95
 31
0.0
100
AcDbText
  0
TEXT
  5
23D
330
1D
100
AcDbEntity
  8
文字
  6
Continuous
100
AcDbText
 10
137.0
 20
-62.775
 30
0.0
 40
3.0
  1
網入り6.8t
  7
TextStyle03
 72
     5
 11
153.6875
 21
-62.775
 31
0.0
100
AcDbText
  0
TEXT
  5
23E
330
1D
100
AcDbEntity
  8
文字
  6
Continuous
100
AcDbText
 10
143.675
 20
-67.45
 30
0.0
 40
3.0
  1
×２枚
  7
TextStyle03
 72
     5
 11
153.425
 21
-67.45
 31
0.0
100
AcDbText
  0
TEXT
  5
23F
330
1D
100
AcDbEntity
  8
文字
  6
Continuous
100
AcDbText
 10
-99.7
 20
11.275
 30
0.0
 40
3.0
  1
アンカーピッチ
 50
90.0
  7
TextStyle03
 72
     5
 11
-99.7
 21
34.525
 31
0.0
100
AcDbText
  0
TEXT
  5
240
330
1D
100
AcDbEntity
  8
文字
  6
Continuous
100
AcDbText
 10
-72.0
 20
80.825
 30
0.0
 40
3.0
  1
アンカーピッチ
  7
TextStyle03
 72
     5
 11
-48.75
 21
80.825
 31
0.0
100
AcDbText
  0
TEXT
  5
241
330
1D
100
AcDbEntity
  8
文字
  6
Continuous
100
AcDbText
 10
-120.4
 20
78.425
 30
0.0
 40
3.0
  1
アンカー数量　１２ヶ所
  7
TextStyle03
 72
     5
 11
-83.65000000000001
 21
78.425
 31
0.0
100
AcDbText
  0
TEXT
  5
242
330
1D
100
AcDbEntity
  8
文字
  6
Continuous
100
AcDbText
 10
77.65000000000001
 20
104.325
 30
0.0
 40
5.0
  1
ＮＳコード：ＮＳＫＬ
  7
TextStyle03
 72
     5
 11
133.275
 21
104.325
 31
0.0
100
AcDbText
  0
TEXT
  5
243
330
1D
100
AcDbEntity
  8
文字
  6
Continuous
100
AcDbText
 10
78.09999999999999
 20
125.25
 30
0.0
 40
5.0
  1
シリーズ：ＴＤ１ＫＬ
  7
TextStyle03
 72
     5
 11
133.725
 21
125.25
 31
0.0
100
AcDbText
  0
TEXT
  5
244
330
1D
100
AcDbEntity
  8
文字
  6
Continuous
100
AcDbText
 10
78.09999999999999
 20
119.625
 30
0.0
 40
5.0
  1
　　　　　（固定）600×2500タイプ
  7
TextStyle03
 72
     5
 11
170.2875
 21
119.625
 31
0.0
100
AcDbText
  0
TEXT
  5
245
330
1D
100
AcDbEntity
  8
文字
  6
Continuous
100
AcDbText
 10
78.09999999999999
 20
114.0
 30
0.0
 40
5.0
  1
図面名　：外観姿図
  7
TextStyle03
 72
     5
 11
128.1
 21
114.0
 31
0.0
100
AcDbText
  0
TEXT
  5
246
330
1D
100
AcDbEntity
  8
文字
  6
Continuous
100
AcDbText
 10
78.09999999999999
 20
108.375
 30
0.0
 40
5.0
  1
　　　　　　
  7
TextStyle03
 72
     5
 11
111.225
 21
108.375
 31
0.0
100
AcDbText
  0
INSERT
  5
247
330
1D
100
AcDbEntity
  8
寸法
  6
Continuous
100
AcDbBlockReference
  2
*U1
 10
0.0
 20
0.0
 30
0.0
  0
INSERT
  5
248
330
1D
100
AcDbEntity
  8
寸法
  6
Continuous
100
AcDbBlockReference
  2
*U2
 10
0.0
 20
0.0
 30
0.0
  0
INSERT
  5
249
330
1D
100
AcDbEntity
  8
寸法
  6
Continuous
100
AcDbBlockReference
  2
*U4
 10
0.0
 20
0.0
 30
0.0
  0
INSERT
  5
24A
330
1D
100
AcDbEntity
  8
寸法
  6
Continuous
100
AcDbBlockReference
  2
*U5
 10
0.0
 20
0.0
 30
0.0
  0
INSERT
  5
24B
330
1D
100
AcDbEntity
  8
寸法
  6
Continuous
100
AcDbBlockReference
  2
*U6
 10
0.0
 20
0.0
 30
0.0
  0
INSERT
  5
24C
330
1D
100
AcDbEntity
  8
寸法
  6
Continuous
100
AcDbBlockReference
  2
*U7
 10
0.0
 20
0.0
 30
0.0
  0
INSERT
  5
24D
330
1D
100
AcDbEntity
  8
寸法
  6
Continuous
100
AcDbBlockReference
  2
*U8
 10
0.0
 20
0.0
 30
0.0
  0
INSERT
  5
24E
330
1D
100
AcDbEntity
  8
寸法
  6
Continuous
100
AcDbBlockReference
  2
*U9
 10
0.0
 20
0.0
 30
0.0
  0
INSERT
  5
24F
330
1D
100
AcDbEntity
  8
寸法
  6
Continuous
100
AcDbBlockReference
  2
*U10
 10
0.0
 20
0.0
 30
0.0
  0
INSERT
  5
250
330
1D
100
AcDbEntity
  8
寸法
  6
Continuous
100
AcDbBlockReference
  2
*U11
 10
0.0
 20
0.0
 30
0.0
  0
INSERT
  5
251
330
1D
100
AcDbEntity
  8
寸法
  6
Continuous
100
AcDbBlockReference
  2
*U12
 10
0.0
 20
0.0
 30
0.0
  0
INSERT
  5
252
330
1D
100
AcDbEntity
  8
寸法
  6
Continuous
100
AcDbBlockReference
  2
*U13
 10
0.0
 20
0.0
 30
0.0
  0
INSERT
  5
253
330
1D
100
AcDbEntity
  8
寸法
  6
Continuous
100
AcDbBlockReference
  2
*U14
 10
0.0
 20
0.0
 30
0.0
  0
INSERT
  5
254
330
1D
100
AcDbEntity
  8
寸法
  6
Continuous
100
AcDbBlockReference
  2
*U15
 10
0.0
 20
0.0
 30
0.0
  0
INSERT
  5
255
330
1D
100
AcDbEntity
  8
寸法
  6
Continuous
100
AcDbBlockReference
  2
*U16
 10
0.0
 20
0.0
 30
0.0
  0
INSERT
  5
256
330
1D
100
AcDbEntity
  8
寸法
  6
Continuous
100
AcDbBlockReference
  2
*U17
 10
0.0
 20
0.0
 30
0.0
  0
INSERT
  5
257
330
1D
100
AcDbEntity
  8
寸法
  6
Continuous
100
AcDbBlockReference
  2
*U18
 10
0.0
 20
0.0
 30
0.0
  0
LINE
  5
258
330
1D
100
AcDbEntity
  8
別途部材
  6
Continuous
100
AcDbLine
 10
6.779532
 20
20.747365
 30
0.0
 11
6.379532
 21
21.147365
 31
0.0
  0
LINE
  5
259
330
1D
100
AcDbEntity
  8
別途部材
  6
Continuous
100
AcDbLine
 10
4.712865
 20
22.814033
 30
0.0
 11
-3.34639
 21
30.87329
 31
0.0
  0
LINE
  5
25A
330
1D
100
AcDbEntity
  8
別途部材
  6
Continuous
 62
    96
100
AcDbLine
 10
94.24612999999999
 20
21.147365
 30
0.0
 11
95.24612999999999
 21
20.747365
 31
0.0
  0
LINE
  5
25B
330
1D
100
AcDbEntity
  8
別途部材
  6
Continuous
 62
    96
100
AcDbLine
 10
94.24612999999999
 20
21.147365
 30
0.0
 11
94.24612999999999
 21
32.814033
 31
0.0
  0
LINE
  5
25C
330
1D
100
AcDbEntity
  8
別途部材
  6
Continuous
100
AcDbLine
 10
95.24612999999999
 20
20.747365
 30
0.0
 11
95.24612999999999
 21
32.814033
 31
0.0
  0
LINE
  5
25D
330
1D
100
AcDbEntity
  8
別途部材
  6
Continuous
 62
    96
100
AcDbLine
 10
94.24612999999999
 20
44.4807
 30
0.0
 11
95.24612999999999
 21
44.8807
 31
0.0
  0
LINE
  5
25E
330
1D
100
AcDbEntity
  8
別途部材
  6
Continuous
 62
    96
100
AcDbLine
 10
94.24612999999999
 20
44.4807
 30
0.0
 11
94.24612999999999
 21
32.814033
 31
0.0
  0
LINE
  5
25F
330
1D
100
AcDbEntity
  8
別途部材
  6
Continuous
100
AcDbLine
 10
95.24612999999999
 20
44.8807
 30
0.0
 11
95.24612999999999
 21
32.814033
 31
0.0
  0
ARC
  5
260
330
1D
100
AcDbEntity
  8
別途部材
  6
Continuous
100
AcDbCircle
 10
100.954465
 20
32.814033
 30
0.0
 40
12.041667
100
AcDbArc
 50
123.855033
 51
236.144967
  0
LINE
  5
261
330
1D
100
AcDbEntity
  8
別途部材
  6
Continuous
100
AcDbLine
 10
6.379532
 20
21.147365
 30
0.0
 11
6.379532
 21
32.814033
 31
0.0
  0
LINE
  5
262
330
1D
100
AcDbEntity
  8
別途部材
  6
Continuous
100
AcDbLine
 10
6.779532
 20
20.747365
 30
0.0
 11
6.779532
 21
32.814033
 31
0.0
  0
LINE
  5
263
330
1D
100
AcDbEntity
  8
別途部材
  6
Continuous
100
AcDbLine
 10
6.779532
 20
44.8807
 30
0.0
 11
6.379532
 21
44.4807
 31
0.0
  0
LINE
  5
264
330
1D
100
AcDbEntity
  8
別途部材
  6
Continuous
100
AcDbLine
 10
4.712865
 20
42.814033
 30
0.0
 11
-3.34639
 21
34.754775
 31
0.0
  0
LINE
  5
265
330
1D
100
AcDbEntity
  8
別途部材
  6
Continuous
100
AcDbLine
 10
6.379532
 20
44.4807
 30
0.0
 11
6.379532
 21
32.814033
 31
0.0
  0
LINE
  5
266
330
1D
100
AcDbEntity
  8
別途部材
  6
Continuous
100
AcDbLine
 10
6.779532
 20
44.8807
 30
0.0
 11
6.779532
 21
32.814033
 31
0.0
  0
LINE
  5
267
330
1D
100
AcDbEntity
  8
別途部材
  6
Continuous
100
AcDbLine
 10
6.379532
 20
44.4807
 30
0.0
 11
-36.953802
 21
44.4807
 31
0.0
  0
LINE
  5
268
330
1D
100
AcDbEntity
  8
別途部材
  6
Continuous
100
AcDbLine
 10
6.779532
 20
44.8807
 30
0.0
 11
-36.953802
 21
44.8807
 31
0.0
  0
LINE
  5
269
330
1D
100
AcDbEntity
  8
別途部材
  6
Continuous
100
AcDbLine
 10
6.379532
 20
21.147365
 30
0.0
 11
-36.953802
 21
21.147365
 31
0.0
  0
LINE
  5
26A
330
1D
100
AcDbEntity
  8
別途部材
  6
Continuous
100
AcDbLine
 10
6.779532
 20
20.747365
 30
0.0
 11
-36.953802
 21
20.747365
 31
0.0
  0
LINE
  5
26B
330
1D
100
AcDbEntity
  8
別途部材
  6
Continuous
100
AcDbLine
 10
-80.68713700000001
 20
20.747365
 30
0.0
 11
-80.287137
 21
21.147365
 31
0.0
  0
LINE
  5
26C
330
1D
100
AcDbEntity
  8
別途部材
  6
Continuous
100
AcDbLine
 10
-78.62047
 20
22.814033
 30
0.0
 11
-70.561215
 21
30.87329
 31
0.0
  0
LINE
  5
26D
330
1D
100
AcDbEntity
  8
別途部材
  6
Continuous
100
AcDbLine
 10
-80.287137
 20
21.147365
 30
0.0
 11
-80.287137
 21
32.814033
 31
0.0
  0
LINE
  5
26E
330
1D
100
AcDbEntity
  8
別途部材
  6
Continuous
100
AcDbLine
 10
-80.68713700000001
 20
20.747365
 30
0.0
 11
-80.68713700000001
 21
32.814033
 31
0.0
  0
LINE
  5
26F
330
1D
100
AcDbEntity
  8
別途部材
  6
Continuous
100
AcDbLine
 10
-80.68713700000001
 20
44.8807
 30
0.0
 11
-80.287137
 21
44.4807
 31
0.0
  0
LINE
  5
270
330
1D
100
AcDbEntity
  8
別途部材
  6
Continuous
100
AcDbLine
 10
-78.62047
 20
42.814033
 30
0.0
 11
-70.561215
 21
34.754775
 31
0.0
  0
LINE
  5
271
330
1D
100
AcDbEntity
  8
別途部材
  6
Continuous
100
AcDbLine
 10
-80.287137
 20
44.4807
 30
0.0
 11
-80.287137
 21
32.814033
 31
0.0
  0
LINE
  5
272
330
1D
100
AcDbEntity
  8
別途部材
  6
Continuous
100
AcDbLine
 10
-80.68713700000001
 20
44.8807
 30
0.0
 11
-80.68713700000001
 21
32.814033
 31
0.0
  0
LINE
  5
273
330
1D
100
AcDbEntity
  8
別途部材
  6
Continuous
100
AcDbLine
 10
-80.287137
 20
44.4807
 30
0.0
 11
-36.953802
 21
44.4807
 31
0.0
  0
LINE
  5
274
330
1D
100
AcDbEntity
  8
別途部材
  6
Continuous
100
AcDbLine
 10
-80.68713700000001
 20
44.8807
 30
0.0
 11
-36.953802
 21
44.8807
 31
0.0
  0
LINE
  5
275
330
1D
100
AcDbEntity
  8
別途部材
  6
Continuous
100
AcDbLine
 10
-80.287137
 20
21.147365
 30
0.0
 11
-36.953802
 21
21.147365
 31
0.0
  0
LINE
  5
276
330
1D
100
AcDbEntity
  8
別途部材
  6
Continuous
100
AcDbLine
 10
-80.68713700000001
 20
20.747365
 30
0.0
 11
-36.953802
 21
20.747365
 31
0.0
  0
INSERT
  5
277
330
1D
100
AcDbEntity
  8
別途部材
  6
Continuous
100
AcDbBlockReference
  2
*U3
 10
0.0
 20
0.0
 30
0.0
  0
INSERT
  5
278
330
1D
100
AcDbEntity
  8
別途部材
  6
DOT
100
AcDbBlockReference
  2
*U19
 10
0.0
 20
0.0
 30
0.0
  0
INSERT
  5
279
330
1D
100
AcDbEntity
  8
別途部材
  6
DOT
100
AcDbBlockReference
  2
*U20
 10
0.0
 20
0.0
 30
0.0
  0
INSERT
  5
27A
330
1D
100
AcDbEntity
  8
別途部材
  6
DOT
100
AcDbBlockReference
  2
*U21
 10
0.0
 20
0.0
 30
0.0
  0
INSERT
  5
27B
330
1D
100
AcDbEntity
  8
別途部材
  6
DOT
100
AcDbBlockReference
  2
*U22
 10
0.0
 20
0.0
 30
0.0
  0
LINE
  5
27C
330
1D
100
AcDbEntity
  8
曲げ物
  6
Continuous
100
AcDbLine
 10
114.57117
 20
-49.533713
 30
0.0
 11
114.57117
 21
-69.20038
 31
0.0
  0
LINE
  5
27D
330
1D
100
AcDbEntity
  8
曲げ物
  6
Continuous
100
AcDbLine
 10
114.57117
 20
-69.20038
 30
0.0
 11
155.537835
 21
-69.20038
 31
0.0
  0
LINE
  5
27E
330
1D
100
AcDbEntity
  8
曲げ物
  6
Continuous
100
AcDbLine
 10
114.57117
 20
-49.533713
 30
0.0
 11
155.537835
 21
-49.533713
 31
0.0
  0
LINE
  5
27F
330
1D
100
AcDbEntity
  8
曲げ物
  6
Continuous
100
AcDbLine
 10
155.537835
 20
-69.20038
 30
0.0
 11
155.537835
 21
-49.533713
 31
0.0
  0
ENDSEC
  0
SECTION
  2
OBJECTS
  0
DICTIONARY
  5
C
330
0
100
AcDbDictionary
281
     1
  3
ACAD_GROUP
350
D
  3
ACAD_LAYOUT
350
1A
  3
ACAD_MLINESTYLE
350
17
  3
ACAD_PLOTSETTINGS
350
19
  3
ACAD_PLOTSTYLENAME
350
E
  0
DICTIONARY
  5
D
102
{ACAD_REACTORS
330
C
102
}
330
C
100
AcDbDictionary
281
     1
  0
DICTIONARY
  5
1A
102
{ACAD_REACTORS
330
C
102
}
330
C
100
AcDbDictionary
281
     1
  3
Layout1
350
1C
  3
Model
350
1E
  0
DICTIONARY
  5
17
102
{ACAD_REACTORS
330
C
102
}
330
C
100
AcDbDictionary
281
     1
  3
Standard
350
18
  0
DICTIONARY
  5
19
102
{ACAD_REACTORS
330
C
102
}
330
C
100
AcDbDictionary
281
     1
  0
ACDBDICTIONARYWDFLT
  5
E
102
{ACAD_REACTORS
330
C
102
}
330
C
100
AcDbDictionary
281
     1
  3
Normal
350
F
100
AcDbDictionaryWithDefault
340
F
  0
LAYOUT
  5
1C
102
{ACAD_REACTORS
330
1A
102
}
330
1A
100
AcDbPlotSettings
  1

  2

  4

  6

 40
0.0
 41
0.0
 42
0.0
 43
0.0
 44
0.0
 45
0.0
 46
0.0
 47
0.0
 48
0.0
 49
0.0
140
0.0
141
0.0
142
1.0
143
1.0
 70
   688
 72
     0
 73
     0
 74
     5
  7

 75
    16
 76
     0
 77
     2
 78
   300
147
1.0
148
0.0
149
0.0
100
AcDbLayout
  1
Layout1
 70
     1
 71
     1
 10
0.0
 20
0.0
 11
12.0
 21
9.0
 12
0.0
 22
0.0
 32
0.0
 14
1.000000000000000E+20
 24
1.000000000000000E+20
 34
1.000000000000000E+20
 15
-1.000000000000000E+20
 25
-1.000000000000000E+20
 35
-1.000000000000000E+20
146
0.0
 13
0.0
 23
0.0
 33
0.0
 16
1.0
 26
0.0
 36
0.0
 17
0.0
 27
1.0
 37
0.0
 76
     0
330
1B
  0
LAYOUT
  5
1E
102
{ACAD_REACTORS
330
1A
102
}
330
1A
100
AcDbPlotSettings
  1

  2

  4

  6

 40
0.0
 41
0.0
 42
0.0
 43
0.0
 44
0.0
 45
0.0
 46
0.0
 47
0.0
 48
0.0
 49
0.0
140
0.0
141
0.0
142
1.0
143
1.0
 70
  1712
 72
     0
 73
     0
 74
     0
  7

 75
     0
 76
     0
 77
     2
 78
   300
147
1.0
148
0.0
149
0.0
100
AcDbLayout
  1
Model
 70
     1
 71
     0
 10
0.0
 20
0.0
 11
0.0
 21
0.0
 12
0.0
 22
0.0
 32
0.0
 14
-210.0
 24
-148.5
 34
0.0
 15
210.0
 25
148.5
 35
0.0
146
0.0
 13
0.0
 23
0.0
 33
0.0
 16
1.0
 26
0.0
 36
0.0
 17
0.0
 27
1.0
 37
0.0
 76
     0
330
1D
  0
MLINESTYLE
  5
18
102
{ACAD_REACTORS
330
17
102
}
330
17
100
AcDbMlineStyle
  2
Standard
 70
     0
  3

 62
   256
 51
90.0
 52
90.0
 71
     2
 49
0.5
 62
   256
  6
BYLAYER
 49
-0.5
 62
   256
  6
BYLAYER
  0
ACDBPLACEHOLDER
  5
F
102
{ACAD_REACTORS
330
E
102
}
330
E
  0
ENDSEC
  0
EOF
