  0
SECTION
  2
HEADER
  9
$ACADVER
  1
AC1018
  9
$ACADMAINTVER
 70
     0
  9
$DWGCODEPAGE
  3
ANSI_932
  9
$INSBASE
 10
0.0
 20
0.0
 30
0.0
  9
$EXTMIN
 10
-210.0
 20
-148.5
 30
0.0
  9
$EXTMAX
 10
210.0
 20
148.5
 30
0.0
  9
$LIMMIN
 10
0.0
 20
0.0
  9
$LIMMAX
 10
12.0
 20
9.0
  9
$ORTHOMODE
 70
     0
  9
$REGENMODE
 70
     1
  9
$FILLMODE
 70
     1
  9
$QTEXTMODE
 70
     0
  9
$MIRRTEXT
 70
     1
  9
$LTSCALE
 40
10.0
  9
$ATTMODE
 70
     1
  9
$TEXTSIZE
 40
0.2
  9
$TRACEWID
 40
0.05
  9
$TEXTSTYLE
  7
STANDARD
  9
$CLAYER
  8
0
  9
$CELTYPE
  6
ByBlock
  9
$CECOLOR
 62
   256
  9
$CELTSCALE
 40
1.0
  9
$DISPSILH
 70
     0
  9
$DIMSCALE
 40
1.0
  9
$DIMASZ
 40
0.18
  9
$DIMEXO
 40
0.0625
  9
$DIMDLI
 40
0.38
  9
$DIMRND
 40
0.0
  9
$DIMDLE
 40
0.0
  9
$DIMEXE
 40
0.18
  9
$DIMTP
 40
0.0
  9
$DIMTM
 40
0.0
  9
$DIMTXT
 40
0.18
  9
$DIMCEN
 40
0.09
  9
$DIMTSZ
 40
0.0
  9
$DIMTOL
 70
     0
  9
$DIMLIM
 70
     0
  9
$DIMTIH
 70
     1
  9
$DIMTOH
 70
     1
  9
$DIMSE1
 70
     0
  9
$DIMSE2
 70
     0
  9
$DIMTAD
 70
     0
  9
$DIMZIN
 70
     0
  9
$DIMBLK
  1

  9
$DIMASO
 70
     1
  9
$DIMSHO
 70
     1
  9
$DIMPOST
  1

  9
$DIMAPOST
  1

  9
$DIMALT
 70
     0
  9
$DIMALTD
 70
     2
  9
$DIMALTF
 40
25.4
  9
$DIMLFAC
 40
1.0
  9
$DIMTOFL
 70
     0
  9
$DIMTVP
 40
0.0
  9
$DIMTIX
 70
     0
  9
$DIMSOXD
 70
     0
  9
$DIMSAH
 70
     0
  9
$DIMBLK1
  1

  9
$DIMBLK2
  1

  9
$DIMSTYLE
  2
Standard
  9
$DIMCLRD
 70
     0
  9
$DIMCLRE
 70
     0
  9
$DIMCLRT
 70
     0
  9
$DIMTFAC
 40
1.0
  9
$DIMGAP
 40
0.09
  9
$DIMJUST
 70
     0
  9
$DIMSD1
 70
     0
  9
$DIMSD2
 70
     0
  9
$DIMTOLJ
 70
     1
  9
$DIMTZIN
 70
     0
  9
$DIMALTZ
 70
     0
  9
$DIMALTTZ
 70
     0
  9
$DIMUPT
 70
     0
  9
$DIMDEC
 70
     4
  9
$DIMTDEC
 70
     4
  9
$DIMALTU
 70
     2
  9
$DIMALTTD
 70
     2
  9
$DIMTXSTY
  7
STANDARD
  9
$DIMAUNIT
 70
     0
  9
$DIMADEC
 70
     0
  9
$DIMALTRND
 40
0.0
  9
$DIMAZIN
 70
     0
  9
$DIMDSEP
 70
    46
  9
$DIMATFIT
 70
     3
  9
$DIMFRAC
 70
     0
  9
$DIMLDRBLK
  1

  9
$DIMLUNIT
 70
     2
  9
$DIMLWD
 70
    -2
  9
$DIMLWE
 70
    -2
  9
$DIMTMOVE
 70
     0
  9
$LUNITS
 70
     2
  9
$LUPREC
 70
     4
  9
$SKETCHINC
 40
0.1
  9
$FILLETRAD
 40
0.5
  9
$AUNITS
 70
     0
  9
$AUPREC
 70
     0
  9
$MENU
  1
.
  9
$ELEVATION
 40
0.0
  9
$PELEVATION
 40
0.0
  9
$THICKNESS
 40
0.0
  9
$LIMCHECK
 70
     0
  9
$CHAMFERA
 40
0.5
  9
$CHAMFERB
 40
0.5
  9
$CHAMFERC
 40
1.0
  9
$CHAMFERD
 40
0.0
  9
$SKPOLY
 70
     0
  9
$TDCREATE
 40
2460242.409758854
  9
$TDUCREATE
 40
2460242.034758854
  9
$TDUPDATE
 40
2460242.409758866
  9
$TDUUPDATE
 40
2460242.034758866
  9
$TDINDWG
 40
0.0000000116
  9
$TDUSRTIMER
 40
0.0000000116
  9
$USRTIMER
 70
     1
  9
$ANGBASE
 50
0.0
  9
$ANGDIR
 70
     0
  9
$PDMODE
 70
    32
  9
$PDSIZE
 40
1.5
  9
$PLINEWID
 40
0.0
  9
$SPLFRAME
 70
     0
  9
$SPLINETYPE
 70
     6
  9
$SPLINESEGS
 70
     8
  9
$HANDSEED
  5
2FF
  9
$SURFTAB1
 70
     6
  9
$SURFTAB2
 70
     6
  9
$SURFTYPE
 70
     6
  9
$SURFU
 70
     6
  9
$SURFV
 70
     6
  9
$UCSBASE
  2

  9
$UCSNAME
  2

  9
$UCSORG
 10
0.0
 20
0.0
 30
0.0
  9
$UCSXDIR
 10
1.0
 20
0.0
 30
0.0
  9
$UCSYDIR
 10
0.0
 20
1.0
 30
0.0
  9
$UCSORTHOREF
  2

  9
$UCSORTHOVIEW
 70
     0
  9
$UCSORGTOP
 10
0.0
 20
0.0
 30
0.0
  9
$UCSORGBOTTOM
 10
0.0
 20
0.0
 30
0.0
  9
$UCSORGLEFT
 10
0.0
 20
0.0
 30
0.0
  9
$UCSORGRIGHT
 10
0.0
 20
0.0
 30
0.0
  9
$UCSORGFRONT
 10
0.0
 20
0.0
 30
0.0
  9
$UCSORGBACK
 10
0.0
 20
0.0
 30
0.0
  9
$PUCSBASE
  2

  9
$PUCSNAME
  2

  9
$PUCSORG
 10
0.0
 20
0.0
 30
0.0
  9
$PUCSXDIR
 10
1.0
 20
0.0
 30
0.0
  9
$PUCSYDIR
 10
0.0
 20
1.0
 30
0.0
  9
$PUCSORTHOREF
  2

  9
$PUCSORTHOVIEW
 70
     0
  9
$PUCSORGTOP
 10
0.0
 20
0.0
 30
0.0
  9
$PUCSORGBOTTOM
 10
0.0
 20
0.0
 30
0.0
  9
$PUCSORGLEFT
 10
0.0
 20
0.0
 30
0.0
  9
$PUCSORGRIGHT
 10
0.0
 20
0.0
 30
0.0
  9
$PUCSORGFRONT
 10
0.0
 20
0.0
 30
0.0
  9
$PUCSORGBACK
 10
0.0
 20
0.0
 30
0.0
  9
$USERI1
 70
     0
  9
$USERI2
 70
     0
  9
$USERI3
 70
     0
  9
$USERI4
 70
     0
  9
$USERI5
 70
     0
  9
$USERR1
 40
0.0
  9
$USERR2
 40
0.0
  9
$USERR3
 40
0.0
  9
$USERR4
 40
0.0
  9
$USERR5
 40
0.0
  9
$WORLDVIEW
 70
     1
  9
$SHADEDGE
 70
     3
  9
$SHADEDIF
 70
    70
  9
$TILEMODE
 70
     1
  9
$MAXACTVP
 70
    64
  9
$PINSBASE
 10
0.0
 20
0.0
 30
0.0
  9
$PLIMCHECK
 70
     0
  9
$PEXTMIN
 10
1.000000000000000E+20
 20
1.000000000000000E+20
 30
1.000000000000000E+20
  9
$PEXTMAX
 10
-1.000000000000000E+20
 20
-1.000000000000000E+20
 30
-1.000000000000000E+20
  9
$PLIMMIN
 10
0.0
 20
0.0
  9
$PLIMMAX
 10
12.0
 20
9.0
  9
$UNITMODE
 70
     0
  9
$VISRETAIN
 70
     1
  9
$PLINEGEN
 70
     0
  9
$PSLTSCALE
 70
     1
  9
$TREEDEPTH
 70
  3020
  9
$CMLSTYLE
  2
Standard
  9
$CMLJUST
 70
     0
  9
$CMLSCALE
 40
1.0
  9
$PROXYGRAPHICS
 70
     1
  9
$MEASUREMENT
 70
     0
  9
$CELWEIGHT
370
    -1
  9
$ENDCAPS
280
     0
  9
$JOINSTYLE
280
     0
  9
$LWDISPLAY
290
     0
  9
$INSUNITS
 70
     0
  9
$HYPERLINKBASE
  1

  9
$STYLESHEET
  1

  9
$XEDIT
290
     1
  9
$CEPSNTYPE
380
     0
  9
$PSTYLEMODE
290
     1
  9
$FINGERPRINTGUID
  2
{E5B37224-8F67-4787-925C-E16F1EA913FF}
  9
$VERSIONGUID
  2
{FAEB1C32-E019-11D5-929B-00C0DF256EC4}
  9
$EXTNAMES
290
     1
  9
$PSVPSCALE
 40
0.0
  9
$OLESTARTUP
290
     0
  9
$SORTENTS
280
   127
  9
$INDEXCTL
280
     0
  9
$HIDETEXT
280
     1
  9
$XCLIPFRAME
290
     0
  9
$HALOGAP
280
     0
  9
$OBSCOLOR
 70
   257
  9
$OBSLTYPE
280
     0
  9
$INTERSECTIONDISPLAY
280
     0
  9
$INTERSECTIONCOLOR
 70
   257
  9
$DIMASSOC
280
     2
  9
$PROJECTNAME
  1

  0
ENDSEC
  0
SECTION
  2
CLASSES
  0
CLASS
  1
ACDBDICTIONARYWDFLT
  2
AcDbDictionaryWithDefault
  3
ObjectDBX Classes
 90
        0
 91
        3
280
     0
281
     0
  0
ENDSEC
  0
SECTION
  2
TABLES
  0
TABLE
  2
VPORT
  5
8
330
0
100
AcDbSymbolTable
 70
     1
  0
VPORT
  5
2FA
330
8
100
AcDbSymbolTableRecord
100
AcDbViewportTableRecord
  2
*Active
 70
     0
 10
0.0
 20
0.0
 11
1.0
 21
1.0
 12
10.42990654205607
 22
4.5
 13
0.0
 23
0.0
 14
0.5
 24
0.5
 15
0.5
 25
0.5
 16
0.0
 26
0.0
 36
1.0
 17
0.0
 27
0.0
 37
0.0
 40
9.0
 41
1.972972972850329
 42
50.0
 43
0.0
 44
0.0
 50
0.0
 51
0.0
 71
     0
 72
   100
 73
     1
 74
     3
 75
     0
 76
     0
 77
     0
 78
     0
281
     0
 65
     1
110
0.0
120
0.0
130
0.0
111
1.0
121
0.0
131
0.0
112
0.0
122
1.0
132
0.0
 79
     0
146
0.0
  0
ENDTAB
  0
TABLE
  2
LTYPE
  5
5
330
0
100
AcDbSymbolTable
 70
     9
  0
LTYPE
  5
14
330
5
100
AcDbSymbolTableRecord
100
AcDbLinetypeTableRecord
  2
ByBlock
 70
     0
  3

 72
    65
 73
     0
 40
0.0
  0
LTYPE
  5
15
330
5
100
AcDbSymbolTableRecord
100
AcDbLinetypeTableRecord
  2
ByLayer
 70
     0
  3

 72
    65
 73
     0
 40
0.0
  0
LTYPE
  5
16
330
5
100
AcDbSymbolTableRecord
100
AcDbLinetypeTableRecord
  2
CONTINUOUS
 70
     0
  3
実線
 72
    65
 73
     0
 40
0.0
  0
LTYPE
  5
21
330
5
100
AcDbSymbolTableRecord
100
AcDbLinetypeTableRecord
  2
DASHED
 70
     0
  3
破線A
 72
    65
 73
     2
 40
0.6000000000000001
 49
0.4
 74
     0
 49
-0.2
 74
     0
  0
LTYPE
  5
22
330
5
100
AcDbSymbolTableRecord
100
AcDbLinetypeTableRecord
  2
DASHEDX2
 70
     0
  3
破線B
 72
    65
 73
     2
 40
1.3
 49
0.9
 74
     0
 49
-0.4
 74
     0
  0
LTYPE
  5
23
330
5
100
AcDbSymbolTableRecord
100
AcDbLinetypeTableRecord
  2
DASHDOT
 70
     0
  3
１点鎖線A
 72
    65
 73
     4
 40
0.5375
 49
0.375
 74
     0
 49
-0.05
 74
     0
 49
0.0625
 74
     0
 49
-0.05
 74
     0
  0
LTYPE
  5
24
330
5
100
AcDbSymbolTableRecord
100
AcDbLinetypeTableRecord
  2
DASHDOTX2
 70
     0
  3
１点鎖線B
 72
    65
 73
     4
 40
1.075
 49
0.75
 74
     0
 49
-0.1
 74
     0
 49
0.125
 74
     0
 49
-0.1
 74
     0
  0
LTYPE
  5
25
330
5
100
AcDbSymbolTableRecord
100
AcDbLinetypeTableRecord
  2
DIVIDE2
 70
     0
  3
２点鎖線A
 72
    65
 73
     6
 40
0.5125
 49
0.3
 74
     0
 49
-0.0375
 74
     0
 49
0.05
 74
     0
 49
-0.0375
 74
     0
 49
0.05
 74
     0
 49
-0.0375
 74
     0
  0
LTYPE
  5
26
330
5
100
AcDbSymbolTableRecord
100
AcDbLinetypeTableRecord
  2
DIVIDE
 70
     0
  3
２点鎖線B
 72
    65
 73
     6
 40
1.05
 49
0.55
 74
     0
 49
-0.1
 74
     0
 49
0.1
 74
     0
 49
-0.1
 74
     0
 49
0.1
 74
     0
 49
-0.1
 74
     0
  0
LTYPE
  5
27
330
5
100
AcDbSymbolTableRecord
100
AcDbLinetypeTableRecord
  2
DOT
 70
     0
  3
点線A
 72
    65
 73
     2
 40
0.1125
 49
0.0625
 74
     0
 49
-0.05
 74
     0
  0
LTYPE
  5
28
330
5
100
AcDbSymbolTableRecord
100
AcDbLinetypeTableRecord
  2
DOTX2
 70
     0
  3
点線B
 72
    65
 73
     2
 40
0.275
 49
0.15
 74
     0
 49
-0.125
 74
     0
  0
ENDTAB
  0
TABLE
  2
LAYER
  5
2
330
0
100
AcDbSymbolTable
 70
    34
  0
LAYER
  5
10
330
2
100
AcDbSymbolTableRecord
100
AcDbLayerTableRecord
  2
0
 70
     0
 62
    17
  6
CONTINUOUS
370
    -3
390
F
  0
LAYER
  5
2F
330
2
100
AcDbSymbolTableRecord
100
AcDbLayerTableRecord
  2
通り芯
 70
     0
 62
    15
  6
CONTINUOUS
370
    -3
390
F
  0
LAYER
  5
30
330
2
100
AcDbSymbolTableRecord
100
AcDbLayerTableRecord
  2
補助線
 70
     0
 62
    16
  6
DOT
370
    -3
390
F
  0
LAYER
  5
31
330
2
100
AcDbSymbolTableRecord
100
AcDbLayerTableRecord
  2
躯体
 70
     0
 62
    31
  6
CONTINUOUS
370
    -3
390
F
  0
LAYER
  5
32
330
2
100
AcDbSymbolTableRecord
100
AcDbLayerTableRecord
  2
型材
 70
     0
 62
    32
  6
CONTINUOUS
370
    -3
390
F
  0
LAYER
  5
33
330
2
100
AcDbSymbolTableRecord
100
AcDbLayerTableRecord
  2
型材断面
 70
     0
 62
    47
  6
CONTINUOUS
370
    -3
390
F
  0
LAYER
  5
34
330
2
100
AcDbSymbolTableRecord
100
AcDbLayerTableRecord
  2
ガラス
 70
     0
 62
    48
  6
CONTINUOUS
370
    -3
390
F
  0
LAYER
  5
35
330
2
100
AcDbSymbolTableRecord
100
AcDbLayerTableRecord
  2
ゴム等
 70
     0
 62
    63
  6
CONTINUOUS
370
    -3
390
F
  0
LAYER
  5
36
330
2
100
AcDbSymbolTableRecord
100
AcDbLayerTableRecord
  2
ボルト／ビス
 70
     0
 62
    64
  6
CONTINUOUS
370
    -3
390
F
  0
LAYER
  5
37
330
2
100
AcDbSymbolTableRecord
100
AcDbLayerTableRecord
  2
文字
 70
     0
 62
    79
  6
CONTINUOUS
370
    -3
390
F
  0
LAYER
  5
38
330
2
100
AcDbSymbolTableRecord
100
AcDbLayerTableRecord
  2
寸法
 70
     0
 62
    80
  6
CONTINUOUS
370
    -3
390
F
  0
LAYER
  5
39
330
2
100
AcDbSymbolTableRecord
100
AcDbLayerTableRecord
  2
ﾊｯﾁﾝｸﾞ
 70
     0
 62
    95
  6
CONTINUOUS
370
    -3
390
F
  0
LAYER
  5
3A
330
2
100
AcDbSymbolTableRecord
100
AcDbLayerTableRecord
  2
別途部材
 70
     0
 62
    96
  6
CONTINUOUS
370
    -3
390
F
  0
LAYER
  5
3B
330
2
100
AcDbSymbolTableRecord
100
AcDbLayerTableRecord
  2
曲げ物
 70
     0
 62
   111
  6
CONTINUOUS
370
    -3
390
F
  0
LAYER
  5
3C
330
2
100
AcDbSymbolTableRecord
100
AcDbLayerTableRecord
  2
鉄骨等
 70
     0
 62
   112
  6
CONTINUOUS
370
    -3
390
F
  0
LAYER
  5
3D
330
2
100
AcDbSymbolTableRecord
100
AcDbLayerTableRecord
  2
St
 70
     0
 62
   127
  6
CONTINUOUS
370
    -3
390
F
  0
LAYER
  5
3E
330
2
100
AcDbSymbolTableRecord
100
AcDbLayerTableRecord
  2
その他部品等
 70
     0
 62
   128
  6
CONTINUOUS
370
    -3
390
F
  0
LAYER
  5
3F
330
2
100
AcDbSymbolTableRecord
100
AcDbLayerTableRecord
  2
ｶﾞｽｹｯﾄ
 70
     0
 62
   143
  6
CONTINUOUS
370
    -3
390
F
  0
LAYER
  5
40
330
2
100
AcDbSymbolTableRecord
100
AcDbLayerTableRecord
  2
ｽｹｯﾁ
 70
     0
 62
    14
  6
CONTINUOUS
370
    -3
390
F
  0
LAYER
  5
42
330
2
100
AcDbSymbolTableRecord
100
AcDbLayerTableRecord
  2
1
 70
     0
 62
    30
  6
CONTINUOUS
370
    -3
390
F
  0
LAYER
  5
43
330
2
100
AcDbSymbolTableRecord
100
AcDbLayerTableRecord
  2
4
 70
     0
 62
    33
  6
CONTINUOUS
370
    -3
390
F
  0
LAYER
  5
44
330
2
100
AcDbSymbolTableRecord
100
AcDbLayerTableRecord
  2
ﾚｲﾔ3
 70
     0
 62
    46
  6
CONTINUOUS
370
    -3
390
F
  0
LAYER
  5
45
330
2
100
AcDbSymbolTableRecord
100
AcDbLayerTableRecord
  2
外形線
 70
     0
 62
    49
  6
CONTINUOUS
370
    -3
390
F
  0
LAYER
  5
46
330
2
100
AcDbSymbolTableRecord
100
AcDbLayerTableRecord
  2
部品
 70
     0
 62
    14
  6
CONTINUOUS
370
    -3
390
F
  0
LAYER
  5
47
330
2
100
AcDbSymbolTableRecord
100
AcDbLayerTableRecord
  2
サッシ芯
 70
     0
 62
    17
  6
DASHDOTX2
370
    -3
390
F
  0
LAYER
  5
48
330
2
100
AcDbSymbolTableRecord
100
AcDbLayerTableRecord
  2
寸法線
 70
     0
 62
    62
  6
CONTINUOUS
370
    -3
390
F
  0
LAYER
  5
49
330
2
100
AcDbSymbolTableRecord
100
AcDbLayerTableRecord
  2
姿図外形線
 70
     0
 62
    65
  6
CONTINUOUS
370
    -3
390
F
  0
LAYER
  5
4A
330
2
100
AcDbSymbolTableRecord
100
AcDbLayerTableRecord
  2
姿補助線
 70
     0
 62
    30
  6
CONTINUOUS
370
    -3
390
F
  0
LAYER
  5
4B
330
2
100
AcDbSymbolTableRecord
100
AcDbLayerTableRecord
  2
透視線
 70
     0
 62
    78
  6
DOT
370
    -3
390
F
  0
LAYER
  5
4C
330
2
100
AcDbSymbolTableRecord
100
AcDbLayerTableRecord
  2
用紙
 70
     0
 62
    81
  6
CONTINUOUS
370
    -3
390
F
  0
LAYER
  5
4D
330
2
100
AcDbSymbolTableRecord
100
AcDbLayerTableRecord
  2
実線図枠
 70
     0
 62
    94
  6
CONTINUOUS
370
    -3
390
F
  0
LAYER
  5
4E
330
2
100
AcDbSymbolTableRecord
100
AcDbLayerTableRecord
  2
補助図枠
 70
     0
 62
    97
  6
CONTINUOUS
370
    -3
390
F
  0
LAYER
  5
4F
330
2
100
AcDbSymbolTableRecord
100
AcDbLayerTableRecord
  2
建具記号
 70
     0
 62
   110
  6
CONTINUOUS
370
    -3
390
F
  0
LAYER
  5
50
330
2
100
AcDbSymbolTableRecord
100
AcDbLayerTableRecord
  2
補助文字
 70
     0
 62
   113
  6
CONTINUOUS
370
    -3
390
F
  0
ENDTAB
  0
TABLE
  2
STYLE
  5
3
330
0
100
AcDbSymbolTable
 70
    10
  0
STYLE
  5
11
330
3
100
AcDbSymbolTableRecord
100
AcDbTextStyleTableRecord
  2
STANDARD
 70
     0
 40
1.0
 41
1.0
 50
0.0
 71
     0
 42
1.0
  3
TXT
  4
BIGFONT
  0
STYLE
  5
52
330
3
100
AcDbSymbolTableRecord
100
AcDbTextStyleTableRecord
  2
TATE
 70
     4
 40
1.0
 41
1.0
 50
0.0
 71
     0
 42
1.0
  3
TXT
  4
BIGFONT
  0
STYLE
  5
53
330
3
100
AcDbSymbolTableRecord
100
AcDbTextStyleTableRecord
  2
TextStyle03
 70
     0
 40
1.0
 41
1.0
 50
0.0
 71
     0
 42
1.0
  3
MONOTXT
  4
BIGFONT
  0
STYLE
  5
54
330
3
100
AcDbSymbolTableRecord
100
AcDbTextStyleTableRecord
  2
TextStyle04
 70
     0
 40
1.0
 41
1.0
 50
0.0
 71
     0
 42
1.0
  3
MONOTXT
  4
BIGFONT
  0
STYLE
  5
55
330
3
100
AcDbSymbolTableRecord
100
AcDbTextStyleTableRecord
  2
TextStyle05
 70
     0
 40
1.0
 41
1.0
 50
0.0
 71
     0
 42
1.0
  3
MONOTXT
  4
BIGFONT
  0
STYLE
  5
56
330
3
100
AcDbSymbolTableRecord
100
AcDbTextStyleTableRecord
  2
TextStyle06
 70
     0
 40
1.0
 41
1.0
 50
0.0
 71
     0
 42
1.0
  3
MONOTXT
  4
BIGFONT
  0
STYLE
  5
57
330
3
100
AcDbSymbolTableRecord
100
AcDbTextStyleTableRecord
  2
TextStyle07
 70
     0
 40
1.0
 41
1.0
 50
0.0
 71
     0
 42
1.0
  3
MONOTXT
  4
BIGFONT
  0
STYLE
  5
58
330
3
100
AcDbSymbolTableRecord
100
AcDbTextStyleTableRecord
  2
TextStyle08
 70
     0
 40
1.0
 41
1.0
 50
0.0
 71
     0
 42
1.0
  3
MONOTXT
  4
BIGFONT
  0
STYLE
  5
59
330
3
100
AcDbSymbolTableRecord
100
AcDbTextStyleTableRecord
  2
TextStyle09
 70
     0
 40
1.0
 41
1.0
 50
0.0
 71
     0
 42
1.0
  3
MONOTXT
  4
BIGFONT
  0
STYLE
  5
5A
330
3
100
AcDbSymbolTableRecord
100
AcDbTextStyleTableRecord
  2
TextStyle10
 70
     0
 40
1.0
 41
1.0
 50
0.0
 71
     0
 42
1.0
  3
MONOTXT
  4
BIGFONT
  0
ENDTAB
  0
TABLE
  2
VIEW
  5
6
330
0
100
AcDbSymbolTable
 70
     0
  0
ENDTAB
  0
TABLE
  2
UCS
  5
7
330
0
100
AcDbSymbolTable
 70
     0
  0
ENDTAB
  0
TABLE
  2
APPID
  5
9
330
0
100
AcDbSymbolTable
 70
     1
  0
APPID
  5
12
330
9
100
AcDbSymbolTableRecord
100
AcDbRegAppTableRecord
  2
ACAD
 70
     0
  0
ENDTAB
  0
TABLE
  2
DIMSTYLE
  5
A
330
0
100
AcDbSymbolTable
 70
     1
100
AcDbDimStyleTable
  0
DIMSTYLE
105
5B
330
A
100
AcDbSymbolTableRecord
100
AcDbDimStyleTableRecord
  2
Standard
 70
     0
340
11
  0
ENDTAB
  0
TABLE
  2
BLOCK_RECORD
  5
1
330
0
100
AcDbSymbolTable
 70
    26
  0
BLOCK_RECORD
  5
1D
330
1
100
AcDbSymbolTableRecord
100
AcDbBlockTableRecord
  2
*Model_Space
340
1E
  0
BLOCK_RECORD
  5
1B
330
1
100
AcDbSymbolTableRecord
100
AcDbBlockTableRecord
  2
*Paper_Space
340
1C
  0
BLOCK_RECORD
  5
5D
330
1
100
AcDbSymbolTableRecord
100
AcDbBlockTableRecord
  2
*U0
340
0
102
{BLKREFS
331
247
102
}
  0
BLOCK_RECORD
  5
66
330
1
100
AcDbSymbolTableRecord
100
AcDbBlockTableRecord
  2
*U1
340
0
102
{BLKREFS
331
2BD
102
}
  0
BLOCK_RECORD
  5
6F
330
1
100
AcDbSymbolTableRecord
100
AcDbBlockTableRecord
  2
*U2
340
0
102
{BLKREFS
331
2BE
102
}
  0
BLOCK_RECORD
  5
78
330
1
100
AcDbSymbolTableRecord
100
AcDbBlockTableRecord
  2
*U3
340
0
102
{BLKREFS
331
2F1
102
}
  0
BLOCK_RECORD
  5
14D
330
1
100
AcDbSymbolTableRecord
100
AcDbBlockTableRecord
  2
*U4
340
0
102
{BLKREFS
331
2BF
102
}
  0
BLOCK_RECORD
  5
156
330
1
100
AcDbSymbolTableRecord
100
AcDbBlockTableRecord
  2
*U5
340
0
102
{BLKREFS
331
2C0
102
}
  0
BLOCK_RECORD
  5
15E
330
1
100
AcDbSymbolTableRecord
100
AcDbBlockTableRecord
  2
*U6
340
0
102
{BLKREFS
331
2C1
102
}
  0
BLOCK_RECORD
  5
167
330
1
100
AcDbSymbolTableRecord
100
AcDbBlockTableRecord
  2
*U7
340
0
102
{BLKREFS
331
2C2
102
}
  0
BLOCK_RECORD
  5
16E
330
1
100
AcDbSymbolTableRecord
100
AcDbBlockTableRecord
  2
*U8
340
0
102
{BLKREFS
331
2C3
102
}
  0
BLOCK_RECORD
  5
177
330
1
100
AcDbSymbolTableRecord
100
AcDbBlockTableRecord
  2
*U9
340
0
102
{BLKREFS
331
2C4
102
}
  0
BLOCK_RECORD
  5
180
330
1
100
AcDbSymbolTableRecord
100
AcDbBlockTableRecord
  2
*U10
340
0
102
{BLKREFS
331
2C5
102
}
  0
BLOCK_RECORD
  5
187
330
1
100
AcDbSymbolTableRecord
100
AcDbBlockTableRecord
  2
*U11
340
0
102
{BLKREFS
331
2C6
102
}
  0
BLOCK_RECORD
  5
190
330
1
100
AcDbSymbolTableRecord
100
AcDbBlockTableRecord
  2
*U12
340
0
102
{BLKREFS
331
2C7
102
}
  0
BLOCK_RECORD
  5
197
330
1
100
AcDbSymbolTableRecord
100
AcDbBlockTableRecord
  2
*U13
340
0
102
{BLKREFS
331
2C8
102
}
  0
BLOCK_RECORD
  5
19E
330
1
100
AcDbSymbolTableRecord
100
AcDbBlockTableRecord
  2
*U14
340
0
102
{BLKREFS
331
2C9
102
}
  0
BLOCK_RECORD
  5
1A5
330
1
100
AcDbSymbolTableRecord
100
AcDbBlockTableRecord
  2
*U15
340
0
102
{BLKREFS
331
2CA
102
}
  0
BLOCK_RECORD
  5
1AC
330
1
100
AcDbSymbolTableRecord
100
AcDbBlockTableRecord
  2
*U16
340
0
102
{BLKREFS
331
2CB
102
}
  0
BLOCK_RECORD
  5
1B4
330
1
100
AcDbSymbolTableRecord
100
AcDbBlockTableRecord
  2
*U17
340
0
102
{BLKREFS
331
2CC
102
}
  0
BLOCK_RECORD
  5
1BC
330
1
100
AcDbSymbolTableRecord
100
AcDbBlockTableRecord
  2
*U18
340
0
102
{BLKREFS
331
2CD
102
}
  0
BLOCK_RECORD
  5
1C4
330
1
100
AcDbSymbolTableRecord
100
AcDbBlockTableRecord
  2
*U19
340
0
102
{BLKREFS
331
2CE
102
}
  0
BLOCK_RECORD
  5
1CC
330
1
100
AcDbSymbolTableRecord
100
AcDbBlockTableRecord
  2
*U20
340
0
102
{BLKREFS
331
2CF
102
}
  0
BLOCK_RECORD
  5
1D5
330
1
100
AcDbSymbolTableRecord
100
AcDbBlockTableRecord
  2
*U21
340
0
102
{BLKREFS
331
2D0
102
}
  0
BLOCK_RECORD
  5
1DE
330
1
100
AcDbSymbolTableRecord
100
AcDbBlockTableRecord
  2
*U22
340
0
102
{BLKREFS
331
2F2
102
}
  0
BLOCK_RECORD
  5
1F7
330
1
100
AcDbSymbolTableRecord
100
AcDbBlockTableRecord
  2
*U23
340
0
102
{BLKREFS
331
2F3
102
}
  0
BLOCK_RECORD
  5
210
330
1
100
AcDbSymbolTableRecord
100
AcDbBlockTableRecord
  2
*U24
340
0
102
{BLKREFS
331
2F4
102
}
  0
BLOCK_RECORD
  5
229
330
1
100
AcDbSymbolTableRecord
100
AcDbBlockTableRecord
  2
*U25
340
0
102
{BLKREFS
331
2F5
102
}
  0
ENDTAB
  0
ENDSEC
  0
SECTION
  2
BLOCKS
  0
BLOCK
  5
2FB
330
1D
100
AcDbEntity
  8
0
100
AcDbBlockBegin
  2
*Model_Space
 70
     0
 71
     0
 10
0.0
 20
0.0
 30
0.0
  3
*Model_Space
  1

  0
ENDBLK
  5
2FC
330
1D
100
AcDbEntity
  8
0
100
AcDbBlockEnd
  0
BLOCK
  5
2FD
330
1B
100
AcDbEntity
 67
     1
  8
0
100
AcDbBlockBegin
  2
*Paper_Space
 70
     0
 71
     0
 10
0.0
 20
0.0
 30
0.0
  3
*Paper_Space
  1

  0
ENDBLK
  5
2FE
330
1B
100
AcDbEntity
 67
     1
  8
0
100
AcDbBlockEnd
  0
BLOCK
  5
5C
330
5D
100
AcDbEntity
  8
0
100
AcDbBlockBegin
  2
*U0
 70
     1
 71
     0
 10
0.0
 20
0.0
 30
0.0
  3
*U0
  1

  0
LINE
  5
5E
330
5D
100
AcDbEntity
  8
型材断面
  6
Continuous
100
AcDbLine
 10
195.0
 20
133.5
 30
0.0
 11
195.0
 21
-133.5
 31
0.0
  0
LINE
  5
5F
330
5D
100
AcDbEntity
  8
型材断面
  6
Continuous
100
AcDbLine
 10
195.0
 20
-133.5
 30
0.0
 11
-185.0
 21
-133.5
 31
0.0
  0
LINE
  5
60
330
5D
100
AcDbEntity
  8
型材断面
  6
Continuous
100
AcDbLine
 10
-185.0
 20
-133.5
 30
0.0
 11
-185.0
 21
133.5
 31
0.0
  0
LINE
  5
61
330
5D
100
AcDbEntity
  8
型材断面
  6
Continuous
100
AcDbLine
 10
195.0
 20
133.5
 30
0.0
 11
-185.0
 21
133.5
 31
0.0
  0
LINE
  5
62
330
5D
100
AcDbEntity
  8
型材断面
  6
Continuous
100
AcDbLine
 10
145.0
 20
-133.5
 30
0.0
 11
145.0
 21
-118.5
 31
0.0
  0
LINE
  5
63
330
5D
100
AcDbEntity
  8
型材断面
  6
Continuous
100
AcDbLine
 10
195.0
 20
-118.5
 30
0.0
 11
145.0
 21
-118.5
 31
0.0
  0
ENDBLK
  5
64
330
5D
100
AcDbEntity
  8
0
100
AcDbBlockEnd
  0
BLOCK
  5
65
330
66
100
AcDbEntity
  8
0
100
AcDbBlockBegin
  2
*U1
 70
     1
 71
     0
 10
0.0
 20
0.0
 30
0.0
  3
*U1
  1

  0
LINE
  5
67
330
66
100
AcDbEntity
  8
寸法
  6
ByBlock
 62
     0
100
AcDbLine
 10
-87.753557
 20
-30.105263
 30
0.0
 11
-87.753557
 21
-29.63158
 31
0.0
  0
LINE
  5
68
330
66
100
AcDbEntity
  8
寸法
  6
ByBlock
 62
     0
100
AcDbLine
 10
45.579775
 20
-30.105263
 30
0.0
 11
45.579775
 21
-29.63158
 31
0.0
  0
LINE
  5
69
330
66
100
AcDbEntity
  8
寸法
  6
ByBlock
 62
     0
100
AcDbLine
 10
-87.753557
 20
-29.63158
 30
0.0
 11
45.579775
 21
-29.63158
 31
0.0
  0
POINT
  5
6A
330
66
100
AcDbEntity
  8
寸法
 62
     0
100
AcDbPoint
 10
-87.753557
 20
-29.63158
 30
0.0
  0
POINT
  5
6B
330
66
100
AcDbEntity
  8
寸法
 62
     0
100
AcDbPoint
 10
45.579775
 20
-29.63158
 30
0.0
  0
TEXT
  5
6C
330
66
100
AcDbEntity
  8
寸法
  6
Continuous
 62
     0
100
AcDbText
 10
-32.81875
 20
-29.275
 30
0.0
 40
3.0
  1
呼称寸法　4000
  7
TextStyle03
 72
     5
 11
-9.38125
 21
-29.275
 31
0.0
100
AcDbText
  0
ENDBLK
  5
6D
330
66
100
AcDbEntity
  8
0
100
AcDbBlockEnd
  0
BLOCK
  5
6E
330
6F
100
AcDbEntity
  8
0
100
AcDbBlockBegin
  2
*U2
 70
     1
 71
     0
 10
0.0
 20
0.0
 30
0.0
  3
*U2
  1

  0
LINE
  5
70
330
6F
100
AcDbEntity
  8
寸法
  6
ByBlock
 62
     0
100
AcDbLine
 10
-71.08689
 20
-5.54017
 30
0.0
 11
-71.08689
 21
-10.3375
 31
0.0
  0
LINE
  5
71
330
6F
100
AcDbEntity
  8
寸法
  6
ByBlock
 62
     0
100
AcDbLine
 10
28.913105
 20
-5.54017
 30
0.0
 11
28.913105
 21
-10.3375
 31
0.0
  0
LINE
  5
72
330
6F
100
AcDbEntity
  8
寸法
  6
ByBlock
 62
     0
100
AcDbLine
 10
-71.08689
 20
-10.3375
 30
0.0
 11
28.913105
 21
-10.3375
 31
0.0
  0
POINT
  5
73
330
6F
100
AcDbEntity
  8
寸法
 62
     0
100
AcDbPoint
 10
-71.08689
 20
-10.3375
 30
0.0
  0
POINT
  5
74
330
6F
100
AcDbEntity
  8
寸法
 62
     0
100
AcDbPoint
 10
28.913105
 20
-10.3375
 30
0.0
  0
TEXT
  5
75
330
6F
100
AcDbEntity
  8
寸法
  6
Continuous
 62
     0
100
AcDbText
 10
-24.38125
 20
-9.975
 30
0.0
 40
3.0
  1
3000
  7
TextStyle03
 72
     5
 11
-17.81875
 21
-9.975
 31
0.0
100
AcDbText
  0
ENDBLK
  5
76
330
6F
100
AcDbEntity
  8
0
100
AcDbBlockEnd
  0
BLOCK
  5
77
330
78
100
AcDbEntity
  8
0
100
AcDbBlockBegin
  2
*U3
 70
     1
 71
     0
 10
0.0
 20
0.0
 30
0.0
  3
*U3
  1

  0
LINE
  5
79
330
78
100
AcDbEntity
  8
別途部材
  6
Continuous
 62
    96
100
AcDbLine
 10
-89.420225
 20
-79.62459699999999
 30
0.0
 11
-89.82022499999999
 21
-80.62459699999999
 31
0.0
  0
LINE
  5
7A
330
78
100
AcDbEntity
  8
別途部材
  6
Continuous
 62
    96
100
AcDbLine
 10
-89.420225
 20
-79.62459699999999
 30
0.0
 11
-21.08689
 21
-79.62459699999999
 31
0.0
  0
LINE
  5
7B
330
78
100
AcDbEntity
  8
別途部材
  6
Continuous
100
AcDbLine
 10
-89.82022499999999
 20
-80.62459699999999
 30
0.0
 11
-21.08689
 21
-80.62459699999999
 31
0.0
  0
LINE
  5
7C
330
78
100
AcDbEntity
  8
別途部材
  6
Continuous
100
AcDbLine
 10
-21.58689
 20
-79.62459699999999
 30
0.0
 11
-21.58689
 21
-61.95793
 31
0.0
  0
LINE
  5
7D
330
78
100
AcDbEntity
  8
別途部材
  6
Continuous
100
AcDbLine
 10
-24.58689
 20
-79.62459699999999
 30
0.0
 11
-24.58689
 21
-61.95793
 31
0.0
  0
LINE
  5
7E
330
78
100
AcDbEntity
  8
別途部材
  6
Continuous
100
AcDbLine
 10
-21.58689
 20
-61.95793
 30
0.0
 11
-22.58689
 21
-62.95793
 31
0.0
  0
LINE
  5
7F
330
78
100
AcDbEntity
  8
別途部材
  6
Continuous
100
AcDbLine
 10
-25.58689
 20
-79.62459699999999
 30
0.0
 11
-25.58689
 21
-61.95793
 31
0.0
  0
LINE
  5
80
330
78
100
AcDbEntity
  8
別途部材
  6
Continuous
100
AcDbLine
 10
-23.58689
 20
-62.95793
 30
0.0
 11
-24.58689
 21
-61.95793
 31
0.0
  0
LINE
  5
81
330
78
100
AcDbEntity
  8
別途部材
  6
Continuous
100
AcDbLine
 10
-25.58689
 20
-61.95793
 30
0.0
 11
-26.58689
 21
-62.95793
 31
0.0
  0
LINE
  5
82
330
78
100
AcDbEntity
  8
別途部材
  6
Continuous
100
AcDbLine
 10
-24.58689
 20
-61.95793
 30
0.0
 11
-25.58689
 21
-61.95793
 31
0.0
  0
LINE
  5
83
330
78
100
AcDbEntity
  8
別途部材
  6
Continuous
100
AcDbLine
 10
-21.58689
 20
-61.95793
 30
0.0
 11
-21.08689
 21
-61.95793
 31
0.0
  0
LINE
  5
84
330
78
100
AcDbEntity
  8
別途部材
  6
Continuous
100
AcDbLine
 10
-27.58689
 20
-62.95793
 30
0.0
 11
-28.58689
 21
-61.95793
 31
0.0
  0
LINE
  5
85
330
78
100
AcDbEntity
  8
別途部材
  6
Continuous
100
AcDbLine
 10
-29.58689
 20
-61.95793
 30
0.0
 11
-30.58689
 21
-62.95793
 31
0.0
  0
LINE
  5
86
330
78
100
AcDbEntity
  8
別途部材
  6
Continuous
100
AcDbLine
 10
-28.58689
 20
-61.95793
 30
0.0
 11
-29.58689
 21
-61.95793
 31
0.0
  0
LINE
  5
87
330
78
100
AcDbEntity
  8
別途部材
  6
Continuous
100
AcDbLine
 10
-23.58689
 20
-79.62459699999999
 30
0.0
 11
-23.58689
 21
-62.95793
 31
0.0
  0
LINE
  5
88
330
78
100
AcDbEntity
  8
別途部材
  6
Continuous
100
AcDbLine
 10
-26.58689
 20
-79.62459699999999
 30
0.0
 11
-26.58689
 21
-62.95793
 31
0.0
  0
LINE
  5
89
330
78
100
AcDbEntity
  8
別途部材
  6
Continuous
100
AcDbLine
 10
-27.58689
 20
-79.62459699999999
 30
0.0
 11
-27.58689
 21
-62.95793
 31
0.0
  0
LINE
  5
8A
330
78
100
AcDbEntity
  8
別途部材
  6
Continuous
100
AcDbLine
 10
-28.58689
 20
-79.62459699999999
 30
0.0
 11
-28.58689
 21
-61.95793
 31
0.0
  0
LINE
  5
8B
330
78
100
AcDbEntity
  8
別途部材
  6
Continuous
100
AcDbLine
 10
-29.58689
 20
-79.62459699999999
 30
0.0
 11
-29.58689
 21
-61.95793
 31
0.0
  0
LINE
  5
8C
330
78
100
AcDbEntity
  8
別途部材
  6
Continuous
100
AcDbLine
 10
-30.58689
 20
-79.62459699999999
 30
0.0
 11
-30.58689
 21
-62.95793
 31
0.0
  0
LINE
  5
8D
330
78
100
AcDbEntity
  8
別途部材
  6
Continuous
100
AcDbLine
 10
-31.58689
 20
-62.95793
 30
0.0
 11
-32.58689
 21
-61.95793
 31
0.0
  0
LINE
  5
8E
330
78
100
AcDbEntity
  8
別途部材
  6
Continuous
100
AcDbLine
 10
-33.58689
 20
-61.95793
 30
0.0
 11
-34.58689
 21
-62.95793
 31
0.0
  0
LINE
  5
8F
330
78
100
AcDbEntity
  8
別途部材
  6
Continuous
100
AcDbLine
 10
-32.58689
 20
-61.95793
 30
0.0
 11
-33.58689
 21
-61.95793
 31
0.0
  0
LINE
  5
90
330
78
100
AcDbEntity
  8
別途部材
  6
Continuous
100
AcDbLine
 10
-31.58689
 20
-79.62459699999999
 30
0.0
 11
-31.58689
 21
-62.95793
 31
0.0
  0
LINE
  5
91
330
78
100
AcDbEntity
  8
別途部材
  6
Continuous
100
AcDbLine
 10
-32.58689
 20
-79.62459699999999
 30
0.0
 11
-32.58689
 21
-61.95793
 31
0.0
  0
LINE
  5
92
330
78
100
AcDbEntity
  8
別途部材
  6
Continuous
100
AcDbLine
 10
-33.58689
 20
-79.62459699999999
 30
0.0
 11
-33.58689
 21
-61.95793
 31
0.0
  0
LINE
  5
93
330
78
100
AcDbEntity
  8
別途部材
  6
Continuous
100
AcDbLine
 10
-34.58689
 20
-79.62459699999999
 30
0.0
 11
-34.58689
 21
-62.95793
 31
0.0
  0
LINE
  5
94
330
78
100
AcDbEntity
  8
別途部材
  6
Continuous
100
AcDbLine
 10
-36.58689
 20
-79.62459699999999
 30
0.0
 11
-36.58689
 21
-61.95793
 31
0.0
  0
LINE
  5
95
330
78
100
AcDbEntity
  8
別途部材
  6
Continuous
100
AcDbLine
 10
-37.58689
 20
-79.62459699999999
 30
0.0
 11
-37.58689
 21
-61.95793
 31
0.0
  0
LINE
  5
96
330
78
100
AcDbEntity
  8
別途部材
  6
Continuous
100
AcDbLine
 10
-35.58689
 20
-62.95793
 30
0.0
 11
-36.58689
 21
-61.95793
 31
0.0
  0
LINE
  5
97
330
78
100
AcDbEntity
  8
別途部材
  6
Continuous
100
AcDbLine
 10
-37.58689
 20
-61.95793
 30
0.0
 11
-38.58689
 21
-62.95793
 31
0.0
  0
LINE
  5
98
330
78
100
AcDbEntity
  8
別途部材
  6
Continuous
100
AcDbLine
 10
-36.58689
 20
-61.95793
 30
0.0
 11
-37.58689
 21
-61.95793
 31
0.0
  0
LINE
  5
99
330
78
100
AcDbEntity
  8
別途部材
  6
Continuous
100
AcDbLine
 10
-39.58689
 20
-62.95793
 30
0.0
 11
-40.58689
 21
-61.95793
 31
0.0
  0
LINE
  5
9A
330
78
100
AcDbEntity
  8
別途部材
  6
Continuous
100
AcDbLine
 10
-41.58689
 20
-61.95793
 30
0.0
 11
-42.58689
 21
-62.95793
 31
0.0
  0
LINE
  5
9B
330
78
100
AcDbEntity
  8
別途部材
  6
Continuous
100
AcDbLine
 10
-40.58689
 20
-61.95793
 30
0.0
 11
-41.58689
 21
-61.95793
 31
0.0
  0
LINE
  5
9C
330
78
100
AcDbEntity
  8
別途部材
  6
Continuous
100
AcDbLine
 10
-35.58689
 20
-79.62459699999999
 30
0.0
 11
-35.58689
 21
-62.95793
 31
0.0
  0
LINE
  5
9D
330
78
100
AcDbEntity
  8
別途部材
  6
Continuous
100
AcDbLine
 10
-38.58689
 20
-79.62459699999999
 30
0.0
 11
-38.58689
 21
-62.95793
 31
0.0
  0
LINE
  5
9E
330
78
100
AcDbEntity
  8
別途部材
  6
Continuous
100
AcDbLine
 10
-39.58689
 20
-79.62459699999999
 30
0.0
 11
-39.58689
 21
-62.95793
 31
0.0
  0
LINE
  5
9F
330
78
100
AcDbEntity
  8
別途部材
  6
Continuous
100
AcDbLine
 10
-40.58689
 20
-79.62459699999999
 30
0.0
 11
-40.58689
 21
-61.95793
 31
0.0
  0
LINE
  5
A0
330
78
100
AcDbEntity
  8
別途部材
  6
Continuous
100
AcDbLine
 10
-41.58689
 20
-79.62459699999999
 30
0.0
 11
-41.58689
 21
-61.95793
 31
0.0
  0
LINE
  5
A1
330
78
100
AcDbEntity
  8
別途部材
  6
Continuous
100
AcDbLine
 10
-42.58689
 20
-79.62459699999999
 30
0.0
 11
-42.58689
 21
-62.95793
 31
0.0
  0
LINE
  5
A2
330
78
100
AcDbEntity
  8
別途部材
  6
Continuous
100
AcDbLine
 10
-43.58689
 20
-62.95793
 30
0.0
 11
-44.58689
 21
-61.95793
 31
0.0
  0
LINE
  5
A3
330
78
100
AcDbEntity
  8
別途部材
  6
Continuous
100
AcDbLine
 10
-45.58689
 20
-61.95793
 30
0.0
 11
-46.58689
 21
-62.95793
 31
0.0
  0
LINE
  5
A4
330
78
100
AcDbEntity
  8
別途部材
  6
Continuous
100
AcDbLine
 10
-44.58689
 20
-61.95793
 30
0.0
 11
-45.58689
 21
-61.95793
 31
0.0
  0
LINE
  5
A5
330
78
100
AcDbEntity
  8
別途部材
  6
Continuous
100
AcDbLine
 10
-43.58689
 20
-79.62459699999999
 30
0.0
 11
-43.58689
 21
-62.95793
 31
0.0
  0
LINE
  5
A6
330
78
100
AcDbEntity
  8
別途部材
  6
Continuous
100
AcDbLine
 10
-44.58689
 20
-79.62459699999999
 30
0.0
 11
-44.58689
 21
-61.95793
 31
0.0
  0
LINE
  5
A7
330
78
100
AcDbEntity
  8
別途部材
  6
Continuous
100
AcDbLine
 10
-45.58689
 20
-79.62459699999999
 30
0.0
 11
-45.58689
 21
-61.95793
 31
0.0
  0
LINE
  5
A8
330
78
100
AcDbEntity
  8
別途部材
  6
Continuous
100
AcDbLine
 10
-46.58689
 20
-79.62459699999999
 30
0.0
 11
-46.58689
 21
-62.95793
 31
0.0
  0
LINE
  5
A9
330
78
100
AcDbEntity
  8
別途部材
  6
Continuous
100
AcDbLine
 10
-48.58689
 20
-79.62459699999999
 30
0.0
 11
-48.58689
 21
-61.95793
 31
0.0
  0
LINE
  5
AA
330
78
100
AcDbEntity
  8
別途部材
  6
Continuous
100
AcDbLine
 10
-49.58689
 20
-79.62459699999999
 30
0.0
 11
-49.58689
 21
-61.95793
 31
0.0
  0
LINE
  5
AB
330
78
100
AcDbEntity
  8
別途部材
  6
Continuous
100
AcDbLine
 10
-47.58689
 20
-62.95793
 30
0.0
 11
-48.58689
 21
-61.95793
 31
0.0
  0
LINE
  5
AC
330
78
100
AcDbEntity
  8
別途部材
  6
Continuous
100
AcDbLine
 10
-49.58689
 20
-61.95793
 30
0.0
 11
-50.58689
 21
-62.95793
 31
0.0
  0
LINE
  5
AD
330
78
100
AcDbEntity
  8
別途部材
  6
Continuous
100
AcDbLine
 10
-48.58689
 20
-61.95793
 30
0.0
 11
-49.58689
 21
-61.95793
 31
0.0
  0
LINE
  5
AE
330
78
100
AcDbEntity
  8
別途部材
  6
Continuous
100
AcDbLine
 10
-51.58689
 20
-62.95793
 30
0.0
 11
-52.58689
 21
-61.95793
 31
0.0
  0
LINE
  5
AF
330
78
100
AcDbEntity
  8
別途部材
  6
Continuous
100
AcDbLine
 10
-53.58689
 20
-61.95793
 30
0.0
 11
-54.58689
 21
-62.95793
 31
0.0
  0
LINE
  5
B0
330
78
100
AcDbEntity
  8
別途部材
  6
Continuous
100
AcDbLine
 10
-52.58689
 20
-61.95793
 30
0.0
 11
-53.58689
 21
-61.95793
 31
0.0
  0
LINE
  5
B1
330
78
100
AcDbEntity
  8
別途部材
  6
Continuous
100
AcDbLine
 10
-47.58689
 20
-79.62459699999999
 30
0.0
 11
-47.58689
 21
-62.95793
 31
0.0
  0
LINE
  5
B2
330
78
100
AcDbEntity
  8
別途部材
  6
Continuous
100
AcDbLine
 10
-50.58689
 20
-79.62459699999999
 30
0.0
 11
-50.58689
 21
-62.95793
 31
0.0
  0
LINE
  5
B3
330
78
100
AcDbEntity
  8
別途部材
  6
Continuous
100
AcDbLine
 10
-51.58689
 20
-79.62459699999999
 30
0.0
 11
-51.58689
 21
-62.95793
 31
0.0
  0
LINE
  5
B4
330
78
100
AcDbEntity
  8
別途部材
  6
Continuous
100
AcDbLine
 10
-52.58689
 20
-79.62459699999999
 30
0.0
 11
-52.58689
 21
-61.95793
 31
0.0
  0
LINE
  5
B5
330
78
100
AcDbEntity
  8
別途部材
  6
Continuous
100
AcDbLine
 10
-53.58689
 20
-79.62459699999999
 30
0.0
 11
-53.58689
 21
-61.95793
 31
0.0
  0
LINE
  5
B6
330
78
100
AcDbEntity
  8
別途部材
  6
Continuous
100
AcDbLine
 10
-54.58689
 20
-79.62459699999999
 30
0.0
 11
-54.58689
 21
-62.95793
 31
0.0
  0
LINE
  5
B7
330
78
100
AcDbEntity
  8
別途部材
  6
Continuous
100
AcDbLine
 10
-50.58689
 20
-62.95793
 30
0.0
 11
-51.58689
 21
-62.95793
 31
0.0
  0
LINE
  5
B8
330
78
100
AcDbEntity
  8
別途部材
  6
Continuous
100
AcDbLine
 10
-46.58689
 20
-62.95793
 30
0.0
 11
-47.58689
 21
-62.95793
 31
0.0
  0
LINE
  5
B9
330
78
100
AcDbEntity
  8
別途部材
  6
Continuous
100
AcDbLine
 10
-42.58689
 20
-62.95793
 30
0.0
 11
-43.58689
 21
-62.95793
 31
0.0
  0
LINE
  5
BA
330
78
100
AcDbEntity
  8
別途部材
  6
Continuous
100
AcDbLine
 10
-38.58689
 20
-62.95793
 30
0.0
 11
-39.58689
 21
-62.95793
 31
0.0
  0
LINE
  5
BB
330
78
100
AcDbEntity
  8
別途部材
  6
Continuous
100
AcDbLine
 10
-34.58689
 20
-62.95793
 30
0.0
 11
-35.58689
 21
-62.95793
 31
0.0
  0
LINE
  5
BC
330
78
100
AcDbEntity
  8
別途部材
  6
Continuous
100
AcDbLine
 10
-30.58689
 20
-62.95793
 30
0.0
 11
-31.58689
 21
-62.95793
 31
0.0
  0
LINE
  5
BD
330
78
100
AcDbEntity
  8
別途部材
  6
Continuous
100
AcDbLine
 10
-26.58689
 20
-62.95793
 30
0.0
 11
-27.58689
 21
-62.95793
 31
0.0
  0
LINE
  5
BE
330
78
100
AcDbEntity
  8
別途部材
  6
Continuous
100
AcDbLine
 10
-22.58689
 20
-79.62459699999999
 30
0.0
 11
-22.58689
 21
-62.95793
 31
0.0
  0
LINE
  5
BF
330
78
100
AcDbEntity
  8
別途部材
  6
Continuous
100
AcDbLine
 10
-23.58689
 20
-62.95793
 30
0.0
 11
-22.58689
 21
-62.95793
 31
0.0
  0
ARC
  5
C0
330
78
100
AcDbEntity
  8
別途部材
  6
Continuous
100
AcDbCircle
 10
-71.08689099999999
 20
-79.62459699999999
 30
0.0
 40
16.666667
100
AcDbArc
 50
90.0
 51
180.0
  0
LINE
  5
C1
330
78
100
AcDbEntity
  8
別途部材
  6
Continuous
100
AcDbLine
 10
-55.58689
 20
-62.95793
 30
0.0
 11
-56.58689
 21
-61.95793
 31
0.0
  0
LINE
  5
C2
330
78
100
AcDbEntity
  8
別途部材
  6
Continuous
100
AcDbLine
 10
-57.58689
 20
-61.95793
 30
0.0
 11
-58.58689
 21
-62.95793
 31
0.0
  0
LINE
  5
C3
330
78
100
AcDbEntity
  8
別途部材
  6
Continuous
100
AcDbLine
 10
-56.58689
 20
-61.95793
 30
0.0
 11
-57.58689
 21
-61.95793
 31
0.0
  0
LINE
  5
C4
330
78
100
AcDbEntity
  8
別途部材
  6
Continuous
100
AcDbLine
 10
-55.58689
 20
-79.62459699999999
 30
0.0
 11
-55.58689
 21
-62.95793
 31
0.0
  0
LINE
  5
C5
330
78
100
AcDbEntity
  8
別途部材
  6
Continuous
100
AcDbLine
 10
-56.58689
 20
-79.62459699999999
 30
0.0
 11
-56.58689
 21
-61.95793
 31
0.0
  0
LINE
  5
C6
330
78
100
AcDbEntity
  8
別途部材
  6
Continuous
100
AcDbLine
 10
-57.58689
 20
-79.62459699999999
 30
0.0
 11
-57.58689
 21
-61.95793
 31
0.0
  0
LINE
  5
C7
330
78
100
AcDbEntity
  8
別途部材
  6
Continuous
100
AcDbLine
 10
-58.58689
 20
-79.62459699999999
 30
0.0
 11
-58.58689
 21
-62.95793
 31
0.0
  0
LINE
  5
C8
330
78
100
AcDbEntity
  8
別途部材
  6
Continuous
100
AcDbLine
 10
-59.58689
 20
-62.95793
 30
0.0
 11
-60.58689
 21
-61.95793
 31
0.0
  0
LINE
  5
C9
330
78
100
AcDbEntity
  8
別途部材
  6
Continuous
100
AcDbLine
 10
-61.58689
 20
-61.95793
 30
0.0
 11
-62.58689
 21
-62.95793
 31
0.0
  0
LINE
  5
CA
330
78
100
AcDbEntity
  8
別途部材
  6
Continuous
100
AcDbLine
 10
-60.58689
 20
-61.95793
 30
0.0
 11
-61.58689
 21
-61.95793
 31
0.0
  0
LINE
  5
CB
330
78
100
AcDbEntity
  8
別途部材
  6
Continuous
100
AcDbLine
 10
-59.58689
 20
-79.62459699999999
 30
0.0
 11
-59.58689
 21
-62.95793
 31
0.0
  0
LINE
  5
CC
330
78
100
AcDbEntity
  8
別途部材
  6
Continuous
100
AcDbLine
 10
-60.58689
 20
-79.62459699999999
 30
0.0
 11
-60.58689
 21
-61.95793
 31
0.0
  0
LINE
  5
CD
330
78
100
AcDbEntity
  8
別途部材
  6
Continuous
100
AcDbLine
 10
-61.58689
 20
-79.62459699999999
 30
0.0
 11
-61.58689
 21
-61.95793
 31
0.0
  0
LINE
  5
CE
330
78
100
AcDbEntity
  8
別途部材
  6
Continuous
100
AcDbLine
 10
-62.58689
 20
-79.62459699999999
 30
0.0
 11
-62.58689
 21
-62.95793
 31
0.0
  0
LINE
  5
CF
330
78
100
AcDbEntity
  8
別途部材
  6
Continuous
100
AcDbLine
 10
-64.58689
 20
-79.62459699999999
 30
0.0
 11
-64.58689
 21
-61.95793
 31
0.0
  0
LINE
  5
D0
330
78
100
AcDbEntity
  8
別途部材
  6
Continuous
100
AcDbLine
 10
-65.58689
 20
-79.62459699999999
 30
0.0
 11
-65.58689
 21
-61.95793
 31
0.0
  0
LINE
  5
D1
330
78
100
AcDbEntity
  8
別途部材
  6
Continuous
100
AcDbLine
 10
-63.58689
 20
-62.95793
 30
0.0
 11
-64.58689
 21
-61.95793
 31
0.0
  0
LINE
  5
D2
330
78
100
AcDbEntity
  8
別途部材
  6
Continuous
100
AcDbLine
 10
-65.58689
 20
-61.95793
 30
0.0
 11
-66.58689
 21
-62.95793
 31
0.0
  0
LINE
  5
D3
330
78
100
AcDbEntity
  8
別途部材
  6
Continuous
100
AcDbLine
 10
-64.58689
 20
-61.95793
 30
0.0
 11
-65.58689
 21
-61.95793
 31
0.0
  0
LINE
  5
D4
330
78
100
AcDbEntity
  8
別途部材
  6
Continuous
100
AcDbLine
 10
-67.58689
 20
-62.95793
 30
0.0
 11
-68.58689
 21
-61.95793
 31
0.0
  0
LINE
  5
D5
330
78
100
AcDbEntity
  8
別途部材
  6
Continuous
100
AcDbLine
 10
-69.58689
 20
-61.95793
 30
0.0
 11
-70.58689
 21
-62.95793
 31
0.0
  0
LINE
  5
D6
330
78
100
AcDbEntity
  8
別途部材
  6
Continuous
100
AcDbLine
 10
-68.58689
 20
-61.95793
 30
0.0
 11
-69.58689
 21
-61.95793
 31
0.0
  0
LINE
  5
D7
330
78
100
AcDbEntity
  8
別途部材
  6
Continuous
100
AcDbLine
 10
-63.58689
 20
-79.62459699999999
 30
0.0
 11
-63.58689
 21
-62.95793
 31
0.0
  0
LINE
  5
D8
330
78
100
AcDbEntity
  8
別途部材
  6
Continuous
100
AcDbLine
 10
-66.58689
 20
-79.62459699999999
 30
0.0
 11
-66.58689
 21
-62.95793
 31
0.0
  0
LINE
  5
D9
330
78
100
AcDbEntity
  8
別途部材
  6
Continuous
100
AcDbLine
 10
-67.58689
 20
-79.62459699999999
 30
0.0
 11
-67.58689
 21
-62.95793
 31
0.0
  0
LINE
  5
DA
330
78
100
AcDbEntity
  8
別途部材
  6
Continuous
100
AcDbLine
 10
-68.58689
 20
-79.62459699999999
 30
0.0
 11
-68.58689
 21
-61.95793
 31
0.0
  0
LINE
  5
DB
330
78
100
AcDbEntity
  8
別途部材
  6
Continuous
100
AcDbLine
 10
-69.58689
 20
-79.62459699999999
 30
0.0
 11
-69.58689
 21
-61.95793
 31
0.0
  0
LINE
  5
DC
330
78
100
AcDbEntity
  8
別途部材
  6
Continuous
100
AcDbLine
 10
-70.58689
 20
-79.62459699999999
 30
0.0
 11
-70.58689
 21
-62.95793
 31
0.0
  0
LINE
  5
DD
330
78
100
AcDbEntity
  8
別途部材
  6
Continuous
100
AcDbLine
 10
-66.58689
 20
-62.95793
 30
0.0
 11
-67.58689
 21
-62.95793
 31
0.0
  0
LINE
  5
DE
330
78
100
AcDbEntity
  8
別途部材
  6
Continuous
100
AcDbLine
 10
-62.58689
 20
-62.95793
 30
0.0
 11
-63.58689
 21
-62.95793
 31
0.0
  0
LINE
  5
DF
330
78
100
AcDbEntity
  8
別途部材
  6
Continuous
100
AcDbLine
 10
-58.58689
 20
-62.95793
 30
0.0
 11
-59.58689
 21
-62.95793
 31
0.0
  0
LINE
  5
E0
330
78
100
AcDbEntity
  8
別途部材
  6
Continuous
100
AcDbLine
 10
-54.58689
 20
-62.95793
 30
0.0
 11
-55.58689
 21
-62.95793
 31
0.0
  0
LINE
  5
E1
330
78
100
AcDbEntity
  8
別途部材
  6
Continuous
100
AcDbLine
 10
-71.08689
 20
-62.95793
 30
0.0
 11
-70.58689
 21
-62.95793
 31
0.0
  0
LINE
  5
E2
330
78
100
AcDbEntity
  8
別途部材
  6
Continuous
 62
    96
100
AcDbLine
 10
47.246443
 20
-79.62459699999999
 30
0.0
 11
47.646443
 21
-80.62459699999999
 31
0.0
  0
LINE
  5
E3
330
78
100
AcDbEntity
  8
別途部材
  6
Continuous
 62
    96
100
AcDbLine
 10
47.246443
 20
-79.62459699999999
 30
0.0
 11
-21.08689
 21
-79.62459699999999
 31
0.0
  0
LINE
  5
E4
330
78
100
AcDbEntity
  8
別途部材
  6
Continuous
100
AcDbLine
 10
47.646443
 20
-80.62459699999999
 30
0.0
 11
-21.08689
 21
-80.62459699999999
 31
0.0
  0
LINE
  5
E5
330
78
100
AcDbEntity
  8
別途部材
  6
Continuous
100
AcDbLine
 10
-20.58689
 20
-79.62459699999999
 30
0.0
 11
-20.58689
 21
-61.95793
 31
0.0
  0
LINE
  5
E6
330
78
100
AcDbEntity
  8
別途部材
  6
Continuous
100
AcDbLine
 10
-17.58689
 20
-79.62459699999999
 30
0.0
 11
-17.58689
 21
-61.95793
 31
0.0
  0
LINE
  5
E7
330
78
100
AcDbEntity
  8
別途部材
  6
Continuous
100
AcDbLine
 10
-20.58689
 20
-61.95793
 30
0.0
 11
-19.58689
 21
-62.95793
 31
0.0
  0
LINE
  5
E8
330
78
100
AcDbEntity
  8
別途部材
  6
Continuous
100
AcDbLine
 10
-16.58689
 20
-79.62459699999999
 30
0.0
 11
-16.58689
 21
-61.95793
 31
0.0
  0
LINE
  5
E9
330
78
100
AcDbEntity
  8
別途部材
  6
Continuous
100
AcDbLine
 10
-18.58689
 20
-62.95793
 30
0.0
 11
-17.58689
 21
-61.95793
 31
0.0
  0
LINE
  5
EA
330
78
100
AcDbEntity
  8
別途部材
  6
Continuous
100
AcDbLine
 10
-16.58689
 20
-61.95793
 30
0.0
 11
-15.58689
 21
-62.95793
 31
0.0
  0
LINE
  5
EB
330
78
100
AcDbEntity
  8
別途部材
  6
Continuous
100
AcDbLine
 10
-17.58689
 20
-61.95793
 30
0.0
 11
-16.58689
 21
-61.95793
 31
0.0
  0
LINE
  5
EC
330
78
100
AcDbEntity
  8
別途部材
  6
Continuous
100
AcDbLine
 10
-20.58689
 20
-61.95793
 30
0.0
 11
-21.08689
 21
-61.95793
 31
0.0
  0
LINE
  5
ED
330
78
100
AcDbEntity
  8
別途部材
  6
Continuous
100
AcDbLine
 10
-14.58689
 20
-62.95793
 30
0.0
 11
-13.58689
 21
-61.95793
 31
0.0
  0
LINE
  5
EE
330
78
100
AcDbEntity
  8
別途部材
  6
Continuous
100
AcDbLine
 10
-12.58689
 20
-61.95793
 30
0.0
 11
-11.58689
 21
-62.95793
 31
0.0
  0
LINE
  5
EF
330
78
100
AcDbEntity
  8
別途部材
  6
Continuous
100
AcDbLine
 10
-13.58689
 20
-61.95793
 30
0.0
 11
-12.58689
 21
-61.95793
 31
0.0
  0
LINE
  5
F0
330
78
100
AcDbEntity
  8
別途部材
  6
Continuous
100
AcDbLine
 10
-18.58689
 20
-79.62459699999999
 30
0.0
 11
-18.58689
 21
-62.95793
 31
0.0
  0
LINE
  5
F1
330
78
100
AcDbEntity
  8
別途部材
  6
Continuous
100
AcDbLine
 10
-15.58689
 20
-79.62459699999999
 30
0.0
 11
-15.58689
 21
-62.95793
 31
0.0
  0
LINE
  5
F2
330
78
100
AcDbEntity
  8
別途部材
  6
Continuous
100
AcDbLine
 10
-14.58689
 20
-79.62459699999999
 30
0.0
 11
-14.58689
 21
-62.95793
 31
0.0
  0
LINE
  5
F3
330
78
100
AcDbEntity
  8
別途部材
  6
Continuous
100
AcDbLine
 10
-13.58689
 20
-79.62459699999999
 30
0.0
 11
-13.58689
 21
-61.95793
 31
0.0
  0
LINE
  5
F4
330
78
100
AcDbEntity
  8
別途部材
  6
Continuous
100
AcDbLine
 10
-12.58689
 20
-79.62459699999999
 30
0.0
 11
-12.58689
 21
-61.95793
 31
0.0
  0
LINE
  5
F5
330
78
100
AcDbEntity
  8
別途部材
  6
Continuous
100
AcDbLine
 10
-11.58689
 20
-79.62459699999999
 30
0.0
 11
-11.58689
 21
-62.95793
 31
0.0
  0
LINE
  5
F6
330
78
100
AcDbEntity
  8
別途部材
  6
Continuous
100
AcDbLine
 10
-10.58689
 20
-62.95793
 30
0.0
 11
-9.58689
 21
-61.95793
 31
0.0
  0
LINE
  5
F7
330
78
100
AcDbEntity
  8
別途部材
  6
Continuous
100
AcDbLine
 10
-8.58689
 20
-61.95793
 30
0.0
 11
-7.58689
 21
-62.95793
 31
0.0
  0
LINE
  5
F8
330
78
100
AcDbEntity
  8
別途部材
  6
Continuous
100
AcDbLine
 10
-9.58689
 20
-61.95793
 30
0.0
 11
-8.58689
 21
-61.95793
 31
0.0
  0
LINE
  5
F9
330
78
100
AcDbEntity
  8
別途部材
  6
Continuous
100
AcDbLine
 10
-10.58689
 20
-79.62459699999999
 30
0.0
 11
-10.58689
 21
-62.95793
 31
0.0
  0
LINE
  5
FA
330
78
100
AcDbEntity
  8
別途部材
  6
Continuous
100
AcDbLine
 10
-9.58689
 20
-79.62459699999999
 30
0.0
 11
-9.58689
 21
-61.95793
 31
0.0
  0
LINE
  5
FB
330
78
100
AcDbEntity
  8
別途部材
  6
Continuous
100
AcDbLine
 10
-8.58689
 20
-79.62459699999999
 30
0.0
 11
-8.58689
 21
-61.95793
 31
0.0
  0
LINE
  5
FC
330
78
100
AcDbEntity
  8
別途部材
  6
Continuous
100
AcDbLine
 10
-7.58689
 20
-79.62459699999999
 30
0.0
 11
-7.58689
 21
-62.95793
 31
0.0
  0
LINE
  5
FD
330
78
100
AcDbEntity
  8
別途部材
  6
Continuous
100
AcDbLine
 10
-5.58689
 20
-79.62459699999999
 30
0.0
 11
-5.58689
 21
-61.95793
 31
0.0
  0
LINE
  5
FE
330
78
100
AcDbEntity
  8
別途部材
  6
Continuous
100
AcDbLine
 10
-4.58689
 20
-79.62459699999999
 30
0.0
 11
-4.58689
 21
-61.95793
 31
0.0
  0
LINE
  5
FF
330
78
100
AcDbEntity
  8
別途部材
  6
Continuous
100
AcDbLine
 10
-6.58689
 20
-62.95793
 30
0.0
 11
-5.58689
 21
-61.95793
 31
0.0
  0
LINE
  5
100
330
78
100
AcDbEntity
  8
別途部材
  6
Continuous
100
AcDbLine
 10
-4.58689
 20
-61.95793
 30
0.0
 11
-3.58689
 21
-62.95793
 31
0.0
  0
LINE
  5
101
330
78
100
AcDbEntity
  8
別途部材
  6
Continuous
100
AcDbLine
 10
-5.58689
 20
-61.95793
 30
0.0
 11
-4.58689
 21
-61.95793
 31
0.0
  0
LINE
  5
102
330
78
100
AcDbEntity
  8
別途部材
  6
Continuous
100
AcDbLine
 10
-2.58689
 20
-62.95793
 30
0.0
 11
-1.58689
 21
-61.95793
 31
0.0
  0
LINE
  5
103
330
78
100
AcDbEntity
  8
別途部材
  6
Continuous
100
AcDbLine
 10
-0.58689
 20
-61.95793
 30
0.0
 11
0.41311
 21
-62.95793
 31
0.0
  0
LINE
  5
104
330
78
100
AcDbEntity
  8
別途部材
  6
Continuous
100
AcDbLine
 10
-1.58689
 20
-61.95793
 30
0.0
 11
-0.58689
 21
-61.95793
 31
0.0
  0
LINE
  5
105
330
78
100
AcDbEntity
  8
別途部材
  6
Continuous
100
AcDbLine
 10
-6.58689
 20
-79.62459699999999
 30
0.0
 11
-6.58689
 21
-62.95793
 31
0.0
  0
LINE
  5
106
330
78
100
AcDbEntity
  8
別途部材
  6
Continuous
100
AcDbLine
 10
-3.58689
 20
-79.62459699999999
 30
0.0
 11
-3.58689
 21
-62.95793
 31
0.0
  0
LINE
  5
107
330
78
100
AcDbEntity
  8
別途部材
  6
Continuous
100
AcDbLine
 10
-2.58689
 20
-79.62459699999999
 30
0.0
 11
-2.58689
 21
-62.95793
 31
0.0
  0
LINE
  5
108
330
78
100
AcDbEntity
  8
別途部材
  6
Continuous
100
AcDbLine
 10
-1.58689
 20
-79.62459699999999
 30
0.0
 11
-1.58689
 21
-61.95793
 31
0.0
  0
LINE
  5
109
330
78
100
AcDbEntity
  8
別途部材
  6
Continuous
100
AcDbLine
 10
-0.58689
 20
-79.62459699999999
 30
0.0
 11
-0.58689
 21
-61.95793
 31
0.0
  0
LINE
  5
10A
330
78
100
AcDbEntity
  8
別途部材
  6
Continuous
100
AcDbLine
 10
0.41311
 20
-79.62459699999999
 30
0.0
 11
0.41311
 21
-62.95793
 31
0.0
  0
LINE
  5
10B
330
78
100
AcDbEntity
  8
別途部材
  6
Continuous
100
AcDbLine
 10
1.41311
 20
-62.95793
 30
0.0
 11
2.41311
 21
-61.95793
 31
0.0
  0
LINE
  5
10C
330
78
100
AcDbEntity
  8
別途部材
  6
Continuous
100
AcDbLine
 10
3.41311
 20
-61.95793
 30
0.0
 11
4.41311
 21
-62.95793
 31
0.0
  0
LINE
  5
10D
330
78
100
AcDbEntity
  8
別途部材
  6
Continuous
100
AcDbLine
 10
2.41311
 20
-61.95793
 30
0.0
 11
3.41311
 21
-61.95793
 31
0.0
  0
LINE
  5
10E
330
78
100
AcDbEntity
  8
別途部材
  6
Continuous
100
AcDbLine
 10
1.41311
 20
-79.62459699999999
 30
0.0
 11
1.41311
 21
-62.95793
 31
0.0
  0
LINE
  5
10F
330
78
100
AcDbEntity
  8
別途部材
  6
Continuous
100
AcDbLine
 10
2.41311
 20
-79.62459699999999
 30
0.0
 11
2.41311
 21
-61.95793
 31
0.0
  0
LINE
  5
110
330
78
100
AcDbEntity
  8
別途部材
  6
Continuous
100
AcDbLine
 10
3.41311
 20
-79.62459699999999
 30
0.0
 11
3.41311
 21
-61.95793
 31
0.0
  0
LINE
  5
111
330
78
100
AcDbEntity
  8
別途部材
  6
Continuous
100
AcDbLine
 10
4.41311
 20
-79.62459699999999
 30
0.0
 11
4.41311
 21
-62.95793
 31
0.0
  0
LINE
  5
112
330
78
100
AcDbEntity
  8
別途部材
  6
Continuous
100
AcDbLine
 10
6.41311
 20
-79.62459699999999
 30
0.0
 11
6.41311
 21
-61.95793
 31
0.0
  0
LINE
  5
113
330
78
100
AcDbEntity
  8
別途部材
  6
Continuous
100
AcDbLine
 10
7.41311
 20
-79.62459699999999
 30
0.0
 11
7.41311
 21
-61.95793
 31
0.0
  0
LINE
  5
114
330
78
100
AcDbEntity
  8
別途部材
  6
Continuous
100
AcDbLine
 10
5.41311
 20
-62.95793
 30
0.0
 11
6.41311
 21
-61.95793
 31
0.0
  0
LINE
  5
115
330
78
100
AcDbEntity
  8
別途部材
  6
Continuous
100
AcDbLine
 10
7.41311
 20
-61.95793
 30
0.0
 11
8.41311
 21
-62.95793
 31
0.0
  0
LINE
  5
116
330
78
100
AcDbEntity
  8
別途部材
  6
Continuous
100
AcDbLine
 10
6.41311
 20
-61.95793
 30
0.0
 11
7.41311
 21
-61.95793
 31
0.0
  0
LINE
  5
117
330
78
100
AcDbEntity
  8
別途部材
  6
Continuous
100
AcDbLine
 10
9.41311
 20
-62.95793
 30
0.0
 11
10.41311
 21
-61.95793
 31
0.0
  0
LINE
  5
118
330
78
100
AcDbEntity
  8
別途部材
  6
Continuous
100
AcDbLine
 10
11.41311
 20
-61.95793
 30
0.0
 11
12.41311
 21
-62.95793
 31
0.0
  0
LINE
  5
119
330
78
100
AcDbEntity
  8
別途部材
  6
Continuous
100
AcDbLine
 10
10.41311
 20
-61.95793
 30
0.0
 11
11.41311
 21
-61.95793
 31
0.0
  0
LINE
  5
11A
330
78
100
AcDbEntity
  8
別途部材
  6
Continuous
100
AcDbLine
 10
5.41311
 20
-79.62459699999999
 30
0.0
 11
5.41311
 21
-62.95793
 31
0.0
  0
LINE
  5
11B
330
78
100
AcDbEntity
  8
別途部材
  6
Continuous
100
AcDbLine
 10
8.41311
 20
-79.62459699999999
 30
0.0
 11
8.41311
 21
-62.95793
 31
0.0
  0
LINE
  5
11C
330
78
100
AcDbEntity
  8
別途部材
  6
Continuous
100
AcDbLine
 10
9.41311
 20
-79.62459699999999
 30
0.0
 11
9.41311
 21
-62.95793
 31
0.0
  0
LINE
  5
11D
330
78
100
AcDbEntity
  8
別途部材
  6
Continuous
100
AcDbLine
 10
10.41311
 20
-79.62459699999999
 30
0.0
 11
10.41311
 21
-61.95793
 31
0.0
  0
LINE
  5
11E
330
78
100
AcDbEntity
  8
別途部材
  6
Continuous
100
AcDbLine
 10
11.41311
 20
-79.62459699999999
 30
0.0
 11
11.41311
 21
-61.95793
 31
0.0
  0
LINE
  5
11F
330
78
100
AcDbEntity
  8
別途部材
  6
Continuous
100
AcDbLine
 10
12.41311
 20
-79.62459699999999
 30
0.0
 11
12.41311
 21
-62.95793
 31
0.0
  0
LINE
  5
120
330
78
100
AcDbEntity
  8
別途部材
  6
Continuous
100
AcDbLine
 10
8.41311
 20
-62.95793
 30
0.0
 11
9.41311
 21
-62.95793
 31
0.0
  0
LINE
  5
121
330
78
100
AcDbEntity
  8
別途部材
  6
Continuous
100
AcDbLine
 10
4.41311
 20
-62.95793
 30
0.0
 11
5.41311
 21
-62.95793
 31
0.0
  0
LINE
  5
122
330
78
100
AcDbEntity
  8
別途部材
  6
Continuous
100
AcDbLine
 10
0.41311
 20
-62.95793
 30
0.0
 11
1.41311
 21
-62.95793
 31
0.0
  0
LINE
  5
123
330
78
100
AcDbEntity
  8
別途部材
  6
Continuous
100
AcDbLine
 10
-3.58689
 20
-62.95793
 30
0.0
 11
-2.58689
 21
-62.95793
 31
0.0
  0
LINE
  5
124
330
78
100
AcDbEntity
  8
別途部材
  6
Continuous
100
AcDbLine
 10
-7.58689
 20
-62.95793
 30
0.0
 11
-6.58689
 21
-62.95793
 31
0.0
  0
LINE
  5
125
330
78
100
AcDbEntity
  8
別途部材
  6
Continuous
100
AcDbLine
 10
-11.58689
 20
-62.95793
 30
0.0
 11
-10.58689
 21
-62.95793
 31
0.0
  0
LINE
  5
126
330
78
100
AcDbEntity
  8
別途部材
  6
Continuous
100
AcDbLine
 10
-15.58689
 20
-62.95793
 30
0.0
 11
-14.58689
 21
-62.95793
 31
0.0
  0
LINE
  5
127
330
78
100
AcDbEntity
  8
別途部材
  6
Continuous
100
AcDbLine
 10
-19.58689
 20
-79.62459699999999
 30
0.0
 11
-19.58689
 21
-62.95793
 31
0.0
  0
LINE
  5
128
330
78
100
AcDbEntity
  8
別途部材
  6
Continuous
100
AcDbLine
 10
-18.58689
 20
-62.95793
 30
0.0
 11
-19.58689
 21
-62.95793
 31
0.0
  0
ARC
  5
129
330
78
100
AcDbEntity
  8
別途部材
  6
Continuous
100
AcDbCircle
 10
28.913109
 20
-79.62459699999999
 30
0.0
 40
16.666667
100
AcDbArc
 50
0.0
 51
90.0
  0
LINE
  5
12A
330
78
100
AcDbEntity
  8
別途部材
  6
Continuous
100
AcDbLine
 10
13.41311
 20
-62.95793
 30
0.0
 11
14.41311
 21
-61.95793
 31
0.0
  0
LINE
  5
12B
330
78
100
AcDbEntity
  8
別途部材
  6
Continuous
100
AcDbLine
 10
15.41311
 20
-61.95793
 30
0.0
 11
16.41311
 21
-62.95793
 31
0.0
  0
LINE
  5
12C
330
78
100
AcDbEntity
  8
別途部材
  6
Continuous
100
AcDbLine
 10
14.41311
 20
-61.95793
 30
0.0
 11
15.41311
 21
-61.95793
 31
0.0
  0
LINE
  5
12D
330
78
100
AcDbEntity
  8
別途部材
  6
Continuous
100
AcDbLine
 10
13.41311
 20
-79.62459699999999
 30
0.0
 11
13.41311
 21
-62.95793
 31
0.0
  0
LINE
  5
12E
330
78
100
AcDbEntity
  8
別途部材
  6
Continuous
100
AcDbLine
 10
14.41311
 20
-79.62459699999999
 30
0.0
 11
14.41311
 21
-61.95793
 31
0.0
  0
LINE
  5
12F
330
78
100
AcDbEntity
  8
別途部材
  6
Continuous
100
AcDbLine
 10
15.41311
 20
-79.62459699999999
 30
0.0
 11
15.41311
 21
-61.95793
 31
0.0
  0
LINE
  5
130
330
78
100
AcDbEntity
  8
別途部材
  6
Continuous
100
AcDbLine
 10
16.41311
 20
-79.62459699999999
 30
0.0
 11
16.41311
 21
-62.95793
 31
0.0
  0
LINE
  5
131
330
78
100
AcDbEntity
  8
別途部材
  6
Continuous
100
AcDbLine
 10
17.41311
 20
-62.95793
 30
0.0
 11
18.41311
 21
-61.95793
 31
0.0
  0
LINE
  5
132
330
78
100
AcDbEntity
  8
別途部材
  6
Continuous
100
AcDbLine
 10
19.41311
 20
-61.95793
 30
0.0
 11
20.41311
 21
-62.95793
 31
0.0
  0
LINE
  5
133
330
78
100
AcDbEntity
  8
別途部材
  6
Continuous
100
AcDbLine
 10
18.41311
 20
-61.95793
 30
0.0
 11
19.41311
 21
-61.95793
 31
0.0
  0
LINE
  5
134
330
78
100
AcDbEntity
  8
別途部材
  6
Continuous
100
AcDbLine
 10
17.41311
 20
-79.62459699999999
 30
0.0
 11
17.41311
 21
-62.95793
 31
0.0
  0
LINE
  5
135
330
78
100
AcDbEntity
  8
別途部材
  6
Continuous
100
AcDbLine
 10
18.41311
 20
-79.62459699999999
 30
0.0
 11
18.41311
 21
-61.95793
 31
0.0
  0
LINE
  5
136
330
78
100
AcDbEntity
  8
別途部材
  6
Continuous
100
AcDbLine
 10
19.41311
 20
-79.62459699999999
 30
0.0
 11
19.41311
 21
-61.95793
 31
0.0
  0
LINE
  5
137
330
78
100
AcDbEntity
  8
別途部材
  6
Continuous
100
AcDbLine
 10
20.41311
 20
-79.62459699999999
 30
0.0
 11
20.41311
 21
-62.95793
 31
0.0
  0
LINE
  5
138
330
78
100
AcDbEntity
  8
別途部材
  6
Continuous
100
AcDbLine
 10
22.41311
 20
-79.62459699999999
 30
0.0
 11
22.41311
 21
-61.95793
 31
0.0
  0
LINE
  5
139
330
78
100
AcDbEntity
  8
別途部材
  6
Continuous
100
AcDbLine
 10
23.41311
 20
-79.62459699999999
 30
0.0
 11
23.41311
 21
-61.95793
 31
0.0
  0
LINE
  5
13A
330
78
100
AcDbEntity
  8
別途部材
  6
Continuous
100
AcDbLine
 10
21.41311
 20
-62.95793
 30
0.0
 11
22.41311
 21
-61.95793
 31
0.0
  0
LINE
  5
13B
330
78
100
AcDbEntity
  8
別途部材
  6
Continuous
100
AcDbLine
 10
23.41311
 20
-61.95793
 30
0.0
 11
24.41311
 21
-62.95793
 31
0.0
  0
LINE
  5
13C
330
78
100
AcDbEntity
  8
別途部材
  6
Continuous
100
AcDbLine
 10
22.41311
 20
-61.95793
 30
0.0
 11
23.41311
 21
-61.95793
 31
0.0
  0
LINE
  5
13D
330
78
100
AcDbEntity
  8
別途部材
  6
Continuous
100
AcDbLine
 10
25.41311
 20
-62.95793
 30
0.0
 11
26.41311
 21
-61.95793
 31
0.0
  0
LINE
  5
13E
330
78
100
AcDbEntity
  8
別途部材
  6
Continuous
100
AcDbLine
 10
27.41311
 20
-61.95793
 30
0.0
 11
28.41311
 21
-62.95793
 31
0.0
  0
LINE
  5
13F
330
78
100
AcDbEntity
  8
別途部材
  6
Continuous
100
AcDbLine
 10
26.41311
 20
-61.95793
 30
0.0
 11
27.41311
 21
-61.95793
 31
0.0
  0
LINE
  5
140
330
78
100
AcDbEntity
  8
別途部材
  6
Continuous
100
AcDbLine
 10
21.41311
 20
-79.62459699999999
 30
0.0
 11
21.41311
 21
-62.95793
 31
0.0
  0
LINE
  5
141
330
78
100
AcDbEntity
  8
別途部材
  6
Continuous
100
AcDbLine
 10
24.41311
 20
-79.62459699999999
 30
0.0
 11
24.41311
 21
-62.95793
 31
0.0
  0
LINE
  5
142
330
78
100
AcDbEntity
  8
別途部材
  6
Continuous
100
AcDbLine
 10
25.41311
 20
-79.62459699999999
 30
0.0
 11
25.41311
 21
-62.95793
 31
0.0
  0
LINE
  5
143
330
78
100
AcDbEntity
  8
別途部材
  6
Continuous
100
AcDbLine
 10
26.41311
 20
-79.62459699999999
 30
0.0
 11
26.41311
 21
-61.95793
 31
0.0
  0
LINE
  5
144
330
78
100
AcDbEntity
  8
別途部材
  6
Continuous
100
AcDbLine
 10
27.41311
 20
-79.62459699999999
 30
0.0
 11
27.41311
 21
-61.95793
 31
0.0
  0
LINE
  5
145
330
78
100
AcDbEntity
  8
別途部材
  6
Continuous
100
AcDbLine
 10
28.41311
 20
-79.62459699999999
 30
0.0
 11
28.41311
 21
-62.95793
 31
0.0
  0
LINE
  5
146
330
78
100
AcDbEntity
  8
別途部材
  6
Continuous
100
AcDbLine
 10
24.41311
 20
-62.95793
 30
0.0
 11
25.41311
 21
-62.95793
 31
0.0
  0
LINE
  5
147
330
78
100
AcDbEntity
  8
別途部材
  6
Continuous
100
AcDbLine
 10
20.41311
 20
-62.95793
 30
0.0
 11
21.41311
 21
-62.95793
 31
0.0
  0
LINE
  5
148
330
78
100
AcDbEntity
  8
別途部材
  6
Continuous
100
AcDbLine
 10
16.41311
 20
-62.95793
 30
0.0
 11
17.41311
 21
-62.95793
 31
0.0
  0
LINE
  5
149
330
78
100
AcDbEntity
  8
別途部材
  6
Continuous
100
AcDbLine
 10
12.41311
 20
-62.95793
 30
0.0
 11
13.41311
 21
-62.95793
 31
0.0
  0
LINE
  5
14A
330
78
100
AcDbEntity
  8
別途部材
  6
Continuous
100
AcDbLine
 10
28.91311
 20
-62.95793
 30
0.0
 11
28.41311
 21
-62.95793
 31
0.0
  0
ENDBLK
  5
14B
330
78
100
AcDbEntity
  8
0
100
AcDbBlockEnd
  0
BLOCK
  5
14C
330
14D
100
AcDbEntity
  8
0
100
AcDbBlockBegin
  2
*U4
 70
     1
 71
     0
 10
0.0
 20
0.0
 30
0.0
  3
*U4
  1

  0
LINE
  5
14E
330
14D
100
AcDbEntity
  8
寸法
  6
ByBlock
 62
     0
100
AcDbLine
 10
82.949083
 20
64.756625
 30
0.0
 11
82.21223999999999
 21
64.756625
 31
0.0
  0
LINE
  5
14F
330
14D
100
AcDbEntity
  8
寸法
  6
ByBlock
 62
     0
100
AcDbLine
 10
82.949083
 20
-1.910042
 30
0.0
 11
82.21223999999999
 21
-1.910042
 31
0.0
  0
LINE
  5
150
330
14D
100
AcDbEntity
  8
寸法
  6
ByBlock
 62
     0
100
AcDbLine
 10
82.21223999999999
 20
64.756625
 30
0.0
 11
82.21223999999999
 21
-1.910042
 31
0.0
  0
POINT
  5
151
330
14D
100
AcDbEntity
  8
寸法
 62
     0
100
AcDbPoint
 10
82.21223999999999
 20
64.756625
 30
0.0
  0
POINT
  5
152
330
14D
100
AcDbEntity
  8
寸法
 62
     0
100
AcDbPoint
 10
82.21223999999999
 20
-1.910042
 30
0.0
  0
TEXT
  5
153
330
14D
100
AcDbEntity
  8
寸法
  6
Continuous
 62
     0
100
AcDbText
 10
81.825
 20
19.68125
 30
0.0
 40
3.0
  1
呼称寸法　2000
 50
90.0
  7
TextStyle03
 72
     5
 11
81.825
 21
43.11875
 31
0.0
100
AcDbText
  0
ENDBLK
  5
154
330
14D
100
AcDbEntity
  8
0
100
AcDbBlockEnd
  0
BLOCK
  5
155
330
156
100
AcDbEntity
  8
0
100
AcDbBlockBegin
  2
*U5
 70
     1
 71
     0
 10
0.0
 20
0.0
 30
0.0
  3
*U5
  1

  0
LINE
  5
157
330
156
100
AcDbEntity
  8
寸法
  6
ByBlock
 62
     0
100
AcDbLine
 10
118.446372
 20
32.42329
 30
0.0
 11
118.446372
 21
86.58839999999999
 31
0.0
  0
LINE
  5
158
330
156
100
AcDbEntity
  8
寸法
  6
ByBlock
 62
     0
100
AcDbLine
 10
135.11304
 20
86.58839999999999
 30
0.0
 11
118.446372
 21
86.58839999999999
 31
0.0
  0
POINT
  5
159
330
156
100
AcDbEntity
  8
寸法
 62
     0
100
AcDbPoint
 10
135.11304
 20
86.58839999999999
 30
0.0
  0
POINT
  5
15A
330
156
100
AcDbEntity
  8
寸法
 62
     0
100
AcDbPoint
 10
118.446372
 20
86.58839999999999
 30
0.0
  0
TEXT
  5
15B
330
156
100
AcDbEntity
  8
寸法
  6
Continuous
 62
     0
100
AcDbText
 10
124.3375
 20
86.95
 30
0.0
 40
3.0
  1
500
  7
TextStyle03
 72
     5
 11
129.2125
 21
86.95
 31
0.0
100
AcDbText
  0
ENDBLK
  5
15C
330
156
100
AcDbEntity
  8
0
100
AcDbBlockEnd
  0
BLOCK
  5
15D
330
15E
100
AcDbEntity
  8
0
100
AcDbBlockBegin
  2
*U6
 70
     1
 71
     0
 10
0.0
 20
0.0
 30
0.0
  3
*U6
  1

  0
LINE
  5
15F
330
15E
100
AcDbEntity
  8
寸法
  6
ByBlock
 62
     0
100
AcDbLine
 10
135.11304
 20
69.42328999999999
 30
0.0
 11
135.11304
 21
86.58839999999999
 31
0.0
  0
LINE
  5
160
330
15E
100
AcDbEntity
  8
寸法
  6
ByBlock
 62
     0
100
AcDbLine
 10
138.946613
 20
71.089957
 30
0.0
 11
138.946613
 21
86.58839999999999
 31
0.0
  0
LINE
  5
161
330
15E
100
AcDbEntity
  8
寸法
  6
ByBlock
 62
     0
100
AcDbLine
 10
135.11304
 20
86.58839999999999
 30
0.0
 11
138.946613
 21
86.58839999999999
 31
0.0
  0
POINT
  5
162
330
15E
100
AcDbEntity
  8
寸法
 62
     0
100
AcDbPoint
 10
135.11304
 20
86.58839999999999
 30
0.0
  0
POINT
  5
163
330
15E
100
AcDbEntity
  8
寸法
 62
     0
100
AcDbPoint
 10
138.946613
 20
86.58839999999999
 30
0.0
  0
TEXT
  5
164
330
15E
100
AcDbEntity
  8
寸法
  6
Continuous
 62
     0
100
AcDbText
 10
139.6125
 20
86.95
 30
0.0
 40
3.0
  1
115
  7
TextStyle03
 72
     5
 11
144.4875
 21
86.95
 31
0.0
100
AcDbText
  0
ENDBLK
  5
165
330
15E
100
AcDbEntity
  8
0
100
AcDbBlockEnd
  0
BLOCK
  5
166
330
167
100
AcDbEntity
  8
0
100
AcDbBlockBegin
  2
*U7
 70
     1
 71
     0
 10
0.0
 20
0.0
 30
0.0
  3
*U7
  1

  0
LINE
  5
168
330
167
100
AcDbEntity
  8
寸法
  6
ByBlock
 62
     0
100
AcDbLine
 10
13.246443
 20
-62.95793
 30
0.0
 11
61.549425
 21
-62.95793
 31
0.0
  0
LINE
  5
169
330
167
100
AcDbEntity
  8
寸法
  6
ByBlock
 62
     0
100
AcDbLine
 10
61.549425
 20
-79.62459699999999
 30
0.0
 11
61.549425
 21
-62.95793
 31
0.0
  0
POINT
  5
16A
330
167
100
AcDbEntity
  8
寸法
 62
     0
100
AcDbPoint
 10
61.549425
 20
-62.95793
 30
0.0
  0
TEXT
  5
16B
330
167
100
AcDbEntity
  8
寸法
  6
Continuous
 62
     0
100
AcDbText
 10
61.175
 20
-73.7375
 30
0.0
 40
3.0
  1
500
 50
90.0
  7
TextStyle03
 72
     5
 11
61.175
 21
-68.8625
 31
0.0
100
AcDbText
  0
ENDBLK
  5
16C
330
167
100
AcDbEntity
  8
0
100
AcDbBlockEnd
  0
BLOCK
  5
16D
330
16E
100
AcDbEntity
  8
0
100
AcDbBlockBegin
  2
*U8
 70
     1
 71
     0
 10
0.0
 20
0.0
 30
0.0
  3
*U8
  1

  0
LINE
  5
16F
330
16E
100
AcDbEntity
  8
寸法
  6
ByBlock
 62
     0
100
AcDbLine
 10
50.246443
 20
-79.62459699999999
 30
0.0
 11
61.549425
 21
-79.62459699999999
 31
0.0
  0
LINE
  5
170
330
16E
100
AcDbEntity
  8
寸法
  6
ByBlock
 62
     0
100
AcDbLine
 10
51.91311
 20
-83.45817
 30
0.0
 11
61.549425
 21
-83.45817
 31
0.0
  0
LINE
  5
171
330
16E
100
AcDbEntity
  8
寸法
  6
ByBlock
 62
     0
100
AcDbLine
 10
61.549425
 20
-79.62459699999999
 30
0.0
 11
61.549425
 21
-83.45817
 31
0.0
  0
POINT
  5
172
330
16E
100
AcDbEntity
  8
寸法
 62
     0
100
AcDbPoint
 10
61.549425
 20
-79.62459699999999
 30
0.0
  0
POINT
  5
173
330
16E
100
AcDbEntity
  8
寸法
 62
     0
100
AcDbPoint
 10
61.549425
 20
-83.45817
 30
0.0
  0
TEXT
  5
174
330
16E
100
AcDbEntity
  8
寸法
  6
Continuous
 62
     0
100
AcDbText
 10
61.125
 20
-89.03749999999999
 30
0.0
 40
3.0
  1
115
 50
90.0
  7
TextStyle03
 72
     5
 11
61.125
 21
-84.16249999999999
 31
0.0
100
AcDbText
  0
ENDBLK
  5
175
330
16E
100
AcDbEntity
  8
0
100
AcDbBlockEnd
  0
BLOCK
  5
176
330
177
100
AcDbEntity
  8
0
100
AcDbBlockBegin
  2
*U9
 70
     1
 71
     0
 10
0.0
 20
0.0
 30
0.0
  3
*U9
  1

  0
LINE
  5
178
330
177
100
AcDbEntity
  8
寸法
  6
ByBlock
 62
     0
100
AcDbLine
 10
-90.753557
 20
8.08996
 30
0.0
 11
-120.242635
 21
8.08996
 31
0.0
  0
LINE
  5
179
330
177
100
AcDbEntity
  8
寸法
  6
ByBlock
 62
     0
100
AcDbLine
 10
-90.753557
 20
31.423293
 30
0.0
 11
-120.242635
 21
31.423293
 31
0.0
  0
LINE
  5
17A
330
177
100
AcDbEntity
  8
寸法
  6
ByBlock
 62
     0
100
AcDbLine
 10
-120.242635
 20
8.08996
 30
0.0
 11
-120.242635
 21
31.423293
 31
0.0
  0
POINT
  5
17B
330
177
100
AcDbEntity
  8
寸法
 62
     0
100
AcDbPoint
 10
-120.242635
 20
8.08996
 30
0.0
  0
POINT
  5
17C
330
177
100
AcDbEntity
  8
寸法
 62
     0
100
AcDbPoint
 10
-120.242635
 20
31.423293
 30
0.0
  0
TEXT
  5
17D
330
177
100
AcDbEntity
  8
寸法
  6
Continuous
 62
     0
100
AcDbText
 10
-120.65
 20
17.3125
 30
0.0
 40
3.0
  1
700
 50
90.0
  7
TextStyle03
 72
     5
 11
-120.65
 21
22.1875
 31
0.0
100
AcDbText
  0
ENDBLK
  5
17E
330
177
100
AcDbEntity
  8
0
100
AcDbBlockEnd
  0
BLOCK
  5
17F
330
180
100
AcDbEntity
  8
0
100
AcDbBlockBegin
  2
*U10
 70
     1
 71
     0
 10
0.0
 20
0.0
 30
0.0
  3
*U10
  1

  0
LINE
  5
181
330
180
100
AcDbEntity
  8
寸法
  6
ByBlock
 62
     0
100
AcDbLine
 10
-90.753557
 20
54.756625
 30
0.0
 11
-120.242635
 21
54.756625
 31
0.0
  0
LINE
  5
182
330
180
100
AcDbEntity
  8
寸法
  6
ByBlock
 62
     0
100
AcDbLine
 10
-120.242635
 20
31.423293
 30
0.0
 11
-120.242635
 21
54.756625
 31
0.0
  0
POINT
  5
183
330
180
100
AcDbEntity
  8
寸法
 62
     0
100
AcDbPoint
 10
-120.242635
 20
54.756625
 30
0.0
  0
TEXT
  5
184
330
180
100
AcDbEntity
  8
寸法
  6
Continuous
 62
     0
100
AcDbText
 10
-120.65
 20
40.6375
 30
0.0
 40
3.0
  1
700
 50
90.0
  7
TextStyle03
 72
     5
 11
-120.65
 21
45.5125
 31
0.0
100
AcDbText
  0
ENDBLK
  5
185
330
180
100
AcDbEntity
  8
0
100
AcDbBlockEnd
  0
BLOCK
  5
186
330
187
100
AcDbEntity
  8
0
100
AcDbBlockBegin
  2
*U11
 70
     1
 71
     0
 10
0.0
 20
0.0
 30
0.0
  3
*U11
  1

  0
LINE
  5
188
330
187
100
AcDbEntity
  8
寸法
  6
ByBlock
 62
     0
100
AcDbLine
 10
-79.420225
 20
67.756625
 30
0.0
 11
-79.420225
 21
96.86469700000001
 31
0.0
  0
LINE
  5
189
330
187
100
AcDbEntity
  8
寸法
  6
ByBlock
 62
     0
100
AcDbLine
 10
-56.086892
 20
67.756625
 30
0.0
 11
-56.086892
 21
96.86469700000001
 31
0.0
  0
LINE
  5
18A
330
187
100
AcDbEntity
  8
寸法
  6
ByBlock
 62
     0
100
AcDbLine
 10
-79.420225
 20
96.86469700000001
 30
0.0
 11
-56.086892
 21
96.86469700000001
 31
0.0
  0
POINT
  5
18B
330
187
100
AcDbEntity
  8
寸法
 62
     0
100
AcDbPoint
 10
-79.420225
 20
96.86469700000001
 30
0.0
  0
POINT
  5
18C
330
187
100
AcDbEntity
  8
寸法
 62
     0
100
AcDbPoint
 10
-56.086892
 20
96.86469700000001
 30
0.0
  0
TEXT
  5
18D
330
187
100
AcDbEntity
  8
寸法
  6
Continuous
 62
     0
100
AcDbText
 10
-70.1875
 20
97.22499999999999
 30
0.0
 40
3.0
  1
700
  7
TextStyle03
 72
     5
 11
-65.3125
 21
97.22499999999999
 31
0.0
100
AcDbText
  0
ENDBLK
  5
18E
330
187
100
AcDbEntity
  8
0
100
AcDbBlockEnd
  0
BLOCK
  5
18F
330
190
100
AcDbEntity
  8
0
100
AcDbBlockBegin
  2
*U12
 70
     1
 71
     0
 10
0.0
 20
0.0
 30
0.0
  3
*U12
  1

  0
LINE
  5
191
330
190
100
AcDbEntity
  8
寸法
  6
ByBlock
 62
     0
100
AcDbLine
 10
-32.75356
 20
67.756625
 30
0.0
 11
-32.75356
 21
96.86469700000001
 31
0.0
  0
LINE
  5
192
330
190
100
AcDbEntity
  8
寸法
  6
ByBlock
 62
     0
100
AcDbLine
 10
-56.086892
 20
96.86469700000001
 30
0.0
 11
-32.75356
 21
96.86469700000001
 31
0.0
  0
POINT
  5
193
330
190
100
AcDbEntity
  8
寸法
 62
     0
100
AcDbPoint
 10
-32.75356
 20
96.86469700000001
 30
0.0
  0
TEXT
  5
194
330
190
100
AcDbEntity
  8
寸法
  6
Continuous
 62
     0
100
AcDbText
 10
-46.8625
 20
97.22499999999999
 30
0.0
 40
3.0
  1
700
  7
TextStyle03
 72
     5
 11
-41.9875
 21
97.22499999999999
 31
0.0
100
AcDbText
  0
ENDBLK
  5
195
330
190
100
AcDbEntity
  8
0
100
AcDbBlockEnd
  0
BLOCK
  5
196
330
197
100
AcDbEntity
  8
0
100
AcDbBlockBegin
  2
*U13
 70
     1
 71
     0
 10
0.0
 20
0.0
 30
0.0
  3
*U13
  1

  0
LINE
  5
198
330
197
100
AcDbEntity
  8
寸法
  6
ByBlock
 62
     0
100
AcDbLine
 10
-9.420225
 20
67.756625
 30
0.0
 11
-9.420225
 21
96.86469700000001
 31
0.0
  0
LINE
  5
199
330
197
100
AcDbEntity
  8
寸法
  6
ByBlock
 62
     0
100
AcDbLine
 10
-32.75356
 20
96.86469700000001
 30
0.0
 11
-9.420225
 21
96.86469700000001
 31
0.0
  0
POINT
  5
19A
330
197
100
AcDbEntity
  8
寸法
 62
     0
100
AcDbPoint
 10
-9.420225
 20
96.86469700000001
 30
0.0
  0
TEXT
  5
19B
330
197
100
AcDbEntity
  8
寸法
  6
Continuous
 62
     0
100
AcDbText
 10
-23.5375
 20
97.22499999999999
 30
0.0
 40
3.0
  1
700
  7
TextStyle03
 72
     5
 11
-18.6625
 21
97.22499999999999
 31
0.0
100
AcDbText
  0
ENDBLK
  5
19C
330
197
100
AcDbEntity
  8
0
100
AcDbBlockEnd
  0
BLOCK
  5
19D
330
19E
100
AcDbEntity
  8
0
100
AcDbBlockBegin
  2
*U14
 70
     1
 71
     0
 10
0.0
 20
0.0
 30
0.0
  3
*U14
  1

  0
LINE
  5
19F
330
19E
100
AcDbEntity
  8
寸法
  6
ByBlock
 62
     0
100
AcDbLine
 10
13.913107
 20
67.756625
 30
0.0
 11
13.913107
 21
96.86469700000001
 31
0.0
  0
LINE
  5
1A0
330
19E
100
AcDbEntity
  8
寸法
  6
ByBlock
 62
     0
100
AcDbLine
 10
-9.420225
 20
96.86469700000001
 30
0.0
 11
13.913107
 21
96.86469700000001
 31
0.0
  0
POINT
  5
1A1
330
19E
100
AcDbEntity
  8
寸法
 62
     0
100
AcDbPoint
 10
13.913107
 20
96.86469700000001
 30
0.0
  0
TEXT
  5
1A2
330
19E
100
AcDbEntity
  8
寸法
  6
Continuous
 62
     0
100
AcDbText
 10
-0.1875
 20
97.22499999999999
 30
0.0
 40
3.0
  1
700
  7
TextStyle03
 72
     5
 11
4.6875
 21
97.22499999999999
 31
0.0
100
AcDbText
  0
ENDBLK
  5
1A3
330
19E
100
AcDbEntity
  8
0
100
AcDbBlockEnd
  0
BLOCK
  5
1A4
330
1A5
100
AcDbEntity
  8
0
100
AcDbBlockBegin
  2
*U15
 70
     1
 71
     0
 10
0.0
 20
0.0
 30
0.0
  3
*U15
  1

  0
LINE
  5
1A6
330
1A5
100
AcDbEntity
  8
寸法
  6
ByBlock
 62
     0
100
AcDbLine
 10
37.24644
 20
67.756625
 30
0.0
 11
37.24644
 21
96.86469700000001
 31
0.0
  0
LINE
  5
1A7
330
1A5
100
AcDbEntity
  8
寸法
  6
ByBlock
 62
     0
100
AcDbLine
 10
13.913107
 20
96.86469700000001
 30
0.0
 11
37.24644
 21
96.86469700000001
 31
0.0
  0
POINT
  5
1A8
330
1A5
100
AcDbEntity
  8
寸法
 62
     0
100
AcDbPoint
 10
37.24644
 20
96.86469700000001
 30
0.0
  0
TEXT
  5
1A9
330
1A5
100
AcDbEntity
  8
寸法
  6
Continuous
 62
     0
100
AcDbText
 10
23.1375
 20
97.22499999999999
 30
0.0
 40
3.0
  1
700
  7
TextStyle03
 72
     5
 11
28.0125
 21
97.22499999999999
 31
0.0
100
AcDbText
  0
ENDBLK
  5
1AA
330
1A5
100
AcDbEntity
  8
0
100
AcDbBlockEnd
  0
BLOCK
  5
1AB
330
1AC
100
AcDbEntity
  8
0
100
AcDbBlockBegin
  2
*U16
 70
     1
 71
     0
 10
0.0
 20
0.0
 30
0.0
  3
*U16
  1

  0
LINE
  5
1AD
330
1AC
100
AcDbEntity
  8
寸法
  6
ByBlock
 62
     0
100
AcDbLine
 10
-90.920227
 20
-79.95817
 30
0.0
 11
-90.920227
 21
-29.63158
 31
0.0
  0
LINE
  5
1AE
330
1AC
100
AcDbEntity
  8
寸法
  6
ByBlock
 62
     0
100
AcDbLine
 10
-87.753557
 20
-29.63158
 30
0.0
 11
-90.920227
 21
-29.63158
 31
0.0
  0
POINT
  5
1AF
330
1AC
100
AcDbEntity
  8
寸法
 62
     0
100
AcDbPoint
 10
-87.753557
 20
-29.63158
 30
0.0
  0
POINT
  5
1B0
330
1AC
100
AcDbEntity
  8
寸法
 62
     0
100
AcDbPoint
 10
-90.920227
 20
-29.63158
 30
0.0
  0
TEXT
  5
1B1
330
1AC
100
AcDbEntity
  8
寸法
  6
Continuous
 62
     0
100
AcDbText
 10
-90.94374999999999
 20
-29.275
 30
0.0
 40
3.0
  1
95
  7
TextStyle03
 72
     5
 11
-87.75624999999999
 21
-29.275
 31
0.0
100
AcDbText
  0
ENDBLK
  5
1B2
330
1AC
100
AcDbEntity
  8
0
100
AcDbBlockEnd
  0
BLOCK
  5
1B3
330
1B4
100
AcDbEntity
  8
0
100
AcDbBlockBegin
  2
*U17
 70
     1
 71
     0
 10
0.0
 20
0.0
 30
0.0
  3
*U17
  1

  0
LINE
  5
1B5
330
1B4
100
AcDbEntity
  8
寸法
  6
ByBlock
 62
     0
100
AcDbLine
 10
48.746443
 20
-79.95817
 30
0.0
 11
48.746443
 21
-29.63158
 31
0.0
  0
LINE
  5
1B6
330
1B4
100
AcDbEntity
  8
寸法
  6
ByBlock
 62
     0
100
AcDbLine
 10
45.579775
 20
-29.63158
 30
0.0
 11
48.746443
 21
-29.63158
 31
0.0
  0
POINT
  5
1B7
330
1B4
100
AcDbEntity
  8
寸法
 62
     0
100
AcDbPoint
 10
45.579775
 20
-29.63158
 30
0.0
  0
POINT
  5
1B8
330
1B4
100
AcDbEntity
  8
寸法
 62
     0
100
AcDbPoint
 10
48.746443
 20
-29.63158
 30
0.0
  0
TEXT
  5
1B9
330
1B4
100
AcDbEntity
  8
寸法
  6
Continuous
 62
     0
100
AcDbText
 10
45.55625
 20
-29.275
 30
0.0
 40
3.0
  1
95
  7
TextStyle03
 72
     5
 11
48.74375
 21
-29.275
 31
0.0
100
AcDbText
  0
ENDBLK
  5
1BA
330
1B4
100
AcDbEntity
  8
0
100
AcDbBlockEnd
  0
BLOCK
  5
1BB
330
1BC
100
AcDbEntity
  8
0
100
AcDbBlockBegin
  2
*U18
 70
     1
 71
     0
 10
0.0
 20
0.0
 30
0.0
  3
*U18
  1

  0
LINE
  5
1BD
330
1BC
100
AcDbEntity
  8
寸法
  6
ByBlock
 62
     0
100
AcDbLine
 10
135.446613
 20
67.92328999999999
 30
0.0
 11
82.21223999999999
 21
67.92328999999999
 31
0.0
  0
LINE
  5
1BE
330
1BC
100
AcDbEntity
  8
寸法
  6
ByBlock
 62
     0
100
AcDbLine
 10
82.21223999999999
 20
64.756625
 30
0.0
 11
82.21223999999999
 21
67.92328999999999
 31
0.0
  0
POINT
  5
1BF
330
1BC
100
AcDbEntity
  8
寸法
 62
     0
100
AcDbPoint
 10
82.21223999999999
 20
64.756625
 30
0.0
  0
POINT
  5
1C0
330
1BC
100
AcDbEntity
  8
寸法
 62
     0
100
AcDbPoint
 10
82.21223999999999
 20
67.92328999999999
 30
0.0
  0
TEXT
  5
1C1
330
1BC
100
AcDbEntity
  8
寸法
  6
Continuous
 62
     0
100
AcDbText
 10
81.825
 20
64.73125
 30
0.0
 40
3.0
  1
95
 50
90.0
  7
TextStyle03
 72
     5
 11
81.825
 21
67.91875
 31
0.0
100
AcDbText
  0
ENDBLK
  5
1C2
330
1BC
100
AcDbEntity
  8
0
100
AcDbBlockEnd
  0
BLOCK
  5
1C3
330
1C4
100
AcDbEntity
  8
0
100
AcDbBlockBegin
  2
*U19
 70
     1
 71
     0
 10
0.0
 20
0.0
 30
0.0
  3
*U19
  1

  0
LINE
  5
1C5
330
1C4
100
AcDbEntity
  8
寸法
  6
ByBlock
 62
     0
100
AcDbLine
 10
135.446613
 20
-5.076705
 30
0.0
 11
82.21223999999999
 21
-5.076705
 31
0.0
  0
LINE
  5
1C6
330
1C4
100
AcDbEntity
  8
寸法
  6
ByBlock
 62
     0
100
AcDbLine
 10
82.21223999999999
 20
-1.910042
 30
0.0
 11
82.21223999999999
 21
-5.076705
 31
0.0
  0
POINT
  5
1C7
330
1C4
100
AcDbEntity
  8
寸法
 62
     0
100
AcDbPoint
 10
82.21223999999999
 20
-1.910042
 30
0.0
  0
POINT
  5
1C8
330
1C4
100
AcDbEntity
  8
寸法
 62
     0
100
AcDbPoint
 10
82.21223999999999
 20
-5.076705
 30
0.0
  0
TEXT
  5
1C9
330
1C4
100
AcDbEntity
  8
寸法
  6
Continuous
 62
     0
100
AcDbText
 10
81.825
 20
-5.09375
 30
0.0
 40
3.0
  1
95
 50
90.0
  7
TextStyle03
 72
     5
 11
81.825
 21
-1.90625
 31
0.0
100
AcDbText
  0
ENDBLK
  5
1CA
330
1C4
100
AcDbEntity
  8
0
100
AcDbBlockEnd
  0
BLOCK
  5
1CB
330
1CC
100
AcDbEntity
  8
0
100
AcDbBlockBegin
  2
*U20
 70
     1
 71
     0
 10
0.0
 20
0.0
 30
0.0
  3
*U20
  1

  0
LINE
  5
1CD
330
1CC
100
AcDbEntity
  8
寸法
  6
ByBlock
 62
     0
100
AcDbLine
 10
158.537835
 20
-49.367047
 30
0.0
 11
165.404422
 21
-49.367047
 31
0.0
  0
LINE
  5
1CE
330
1CC
100
AcDbEntity
  8
寸法
  6
ByBlock
 62
     0
100
AcDbLine
 10
158.537835
 20
-82.00038000000001
 30
0.0
 11
165.404422
 21
-82.00038000000001
 31
0.0
  0
LINE
  5
1CF
330
1CC
100
AcDbEntity
  8
寸法
  6
ByBlock
 62
     0
100
AcDbLine
 10
165.404422
 20
-49.367047
 30
0.0
 11
165.404422
 21
-82.00038000000001
 31
0.0
  0
POINT
  5
1D0
330
1CC
100
AcDbEntity
  8
寸法
 62
     0
100
AcDbPoint
 10
165.404422
 20
-49.367047
 30
0.0
  0
POINT
  5
1D1
330
1CC
100
AcDbEntity
  8
寸法
 62
     0
100
AcDbPoint
 10
165.404422
 20
-82.00038000000001
 30
0.0
  0
TEXT
  5
1D2
330
1CC
100
AcDbEntity
  8
寸法
  6
Continuous
 62
     0
100
AcDbText
 10
165.025
 20
-68.95
 30
0.0
 40
4.0
  1
979
 50
90.0
  7
TextStyle03
 72
     5
 11
165.025
 21
-62.45
 31
0.0
100
AcDbText
  0
ENDBLK
  5
1D3
330
1CC
100
AcDbEntity
  8
0
100
AcDbBlockEnd
  0
BLOCK
  5
1D4
330
1D5
100
AcDbEntity
  8
0
100
AcDbBlockBegin
  2
*U21
 70
     1
 71
     0
 10
0.0
 20
0.0
 30
0.0
  3
*U21
  1

  0
LINE
  5
1D6
330
1D5
100
AcDbEntity
  8
寸法
  6
ByBlock
 62
     0
100
AcDbLine
 10
123.087835
 20
-46.367047
 30
0.0
 11
123.087835
 21
-41.368167
 31
0.0
  0
LINE
  5
1D7
330
1D5
100
AcDbEntity
  8
寸法
  6
ByBlock
 62
     0
100
AcDbLine
 10
155.537835
 20
-46.367047
 30
0.0
 11
155.537835
 21
-41.368167
 31
0.0
  0
LINE
  5
1D8
330
1D5
100
AcDbEntity
  8
寸法
  6
ByBlock
 62
     0
100
AcDbLine
 10
123.087835
 20
-41.368167
 30
0.0
 11
155.537835
 21
-41.368167
 31
0.0
  0
POINT
  5
1D9
330
1D5
100
AcDbEntity
  8
寸法
 62
     0
100
AcDbPoint
 10
123.087835
 20
-41.368167
 30
0.0
  0
POINT
  5
1DA
330
1D5
100
AcDbEntity
  8
寸法
 62
     0
100
AcDbPoint
 10
155.537835
 20
-41.368167
 30
0.0
  0
TEXT
  5
1DB
330
1D5
100
AcDbEntity
  8
寸法
  6
Continuous
 62
     0
100
AcDbText
 10
133.8
 20
-41.0
 30
0.0
 40
4.0
  1
973.5
  7
TextStyle03
 72
     5
 11
144.8
 21
-41.0
 31
0.0
100
AcDbText
  0
ENDBLK
  5
1DC
330
1D5
100
AcDbEntity
  8
0
100
AcDbBlockEnd
  0
BLOCK
  5
1DD
330
1DE
100
AcDbEntity
  8
0
100
AcDbBlockBegin
  2
*U22
 70
     1
 71
     0
 10
0.0
 20
0.0
 30
0.0
  3
*U22
  1

  0
LINE
  5
1DF
330
1DE
100
AcDbEntity
  8
ボルト／ビス
  6
Continuous
100
AcDbLine
 10
-88.420227
 20
-79.62459699999999
 30
0.0
 11
-88.420227
 21
-79.15792999999999
 31
0.0
  0
LINE
  5
1E0
330
1DE
100
AcDbEntity
  8
ボルト／ビス
  6
Continuous
100
AcDbLine
 10
-88.786895
 20
-79.62459699999999
 30
0.0
 11
-88.786895
 21
-79.55793
 31
0.0
  0
LINE
  5
1E1
330
1DE
100
AcDbEntity
  8
ボルト／ビス
  6
Continuous
100
AcDbLine
 10
-88.786895
 20
-79.55793
 30
0.0
 11
-88.053563
 21
-79.55793
 31
0.0
  0
LINE
  5
1E2
330
1DE
100
AcDbEntity
  8
ボルト／ビス
  6
Continuous
100
AcDbLine
 10
-88.053563
 20
-79.55793
 30
0.0
 11
-88.053563
 21
-79.62459699999999
 31
0.0
  0
LINE
  5
1E3
330
1DE
100
AcDbEntity
  8
ボルト／ビス
  6
Continuous
100
AcDbLine
 10
-88.786895
 20
-79.62459699999999
 30
0.0
 11
-88.053563
 21
-79.62459699999999
 31
0.0
  0
LINE
  5
1E4
330
1DE
100
AcDbEntity
  8
ボルト／ビス
  6
Continuous
100
AcDbLine
 10
-88.72022699999999
 20
-79.524597
 30
0.0
 11
-88.72022699999999
 21
-79.55793
 31
0.0
  0
LINE
  5
1E5
330
1DE
100
AcDbEntity
  8
ボルト／ビス
  6
Continuous
100
AcDbLine
 10
-88.72022699999999
 20
-79.524597
 30
0.0
 11
-88.120227
 21
-79.524597
 31
0.0
  0
LINE
  5
1E6
330
1DE
100
AcDbEntity
  8
ボルト／ビス
  6
Continuous
100
AcDbLine
 10
-88.120227
 20
-79.524597
 30
0.0
 11
-88.120227
 21
-79.55793
 31
0.0
  0
LINE
  5
1E7
330
1DE
100
AcDbEntity
  8
ボルト／ビス
  6
Continuous
 62
    64
100
AcDbLine
 10
-88.580602
 20
-79.324597
 30
0.0
 11
-88.61267700000001
 21
-79.33627199999999
 31
0.0
  0
ARC
  5
1E8
330
1DE
100
AcDbEntity
  8
ボルト／ビス
  6
Continuous
 62
    64
100
AcDbCircle
 10
-88.564565
 20
-79.429576
 30
0.0
 40
0.104978
100
AcDbArc
 50
62.721967
 51
90.0
  0
ARC
  5
1E9
330
1DE
100
AcDbEntity
  8
ボルト／ビス
  6
Continuous
 62
    64
100
AcDbCircle
 10
-88.420227
 20
-79.727
 30
0.0
 40
0.402402
100
AcDbArc
 50
76.165002
 51
103.834985
  0
LINE
  5
1EA
330
1DE
100
AcDbEntity
  8
ボルト／ビス
  6
Continuous
 62
    64
100
AcDbLine
 10
-88.25985300000001
 20
-79.324597
 30
0.0
 11
-88.227777
 21
-79.33627199999999
 31
0.0
  0
ARC
  5
1EB
330
1DE
100
AcDbEntity
  8
ボルト／ビス
  6
Continuous
 62
    64
100
AcDbCircle
 10
-88.27589
 20
-79.429576
 30
0.0
 40
0.104978
100
AcDbArc
 50
90.0
 51
117.278033
  0
LINE
  5
1EC
330
1DE
100
AcDbEntity
  8
ボルト／ビス
  6
Continuous
 62
    64
100
AcDbLine
 10
-88.580602
 20
-79.324597
 30
0.0
 11
-88.25985300000001
 21
-79.324597
 31
0.0
  0
LINE
  5
1ED
330
1DE
100
AcDbEntity
  8
ボルト／ビス
  6
Continuous
 62
    64
100
AcDbLine
 10
-88.227777
 20
-79.33627199999999
 30
0.0
 11
-88.227777
 21
-79.45793000000001
 31
0.0
  0
LINE
  5
1EE
330
1DE
100
AcDbEntity
  8
ボルト／ビス
  6
Continuous
 62
    64
100
AcDbLine
 10
-88.32400300000001
 20
-79.33627199999999
 30
0.0
 11
-88.32400300000001
 21
-79.45793000000001
 31
0.0
  0
LINE
  5
1EF
330
1DE
100
AcDbEntity
  8
ボルト／ビス
  6
Continuous
 62
    64
100
AcDbLine
 10
-88.61267700000001
 20
-79.33627199999999
 30
0.0
 11
-88.61267700000001
 21
-79.45793000000001
 31
0.0
  0
LINE
  5
1F0
330
1DE
100
AcDbEntity
  8
ボルト／ビス
  6
Continuous
 62
    64
100
AcDbLine
 10
-88.516453
 20
-79.33627199999999
 30
0.0
 11
-88.516453
 21
-79.45793000000001
 31
0.0
  0
LINE
  5
1F1
330
1DE
100
AcDbEntity
  8
ボルト／ビス
  6
Continuous
100
AcDbLine
 10
-88.61267700000001
 20
-79.45793000000001
 30
0.0
 11
-88.227777
 21
-79.45793000000001
 31
0.0
  0
LINE
  5
1F2
330
1DE
100
AcDbEntity
  8
ボルト／ビス
  6
Continuous
100
AcDbLine
 10
-88.620227
 20
-79.45793000000001
 30
0.0
 11
-88.620227
 21
-79.524597
 31
0.0
  0
LINE
  5
1F3
330
1DE
100
AcDbEntity
  8
ボルト／ビス
  6
Continuous
100
AcDbLine
 10
-88.620227
 20
-79.45793000000001
 30
0.0
 11
-88.22022699999999
 21
-79.45793000000001
 31
0.0
  0
LINE
  5
1F4
330
1DE
100
AcDbEntity
  8
ボルト／ビス
  6
Continuous
100
AcDbLine
 10
-88.22022699999999
 20
-79.45793000000001
 30
0.0
 11
-88.22022699999999
 21
-79.524597
 31
0.0
  0
ENDBLK
  5
1F5
330
1DE
100
AcDbEntity
  8
0
100
AcDbBlockEnd
  0
BLOCK
  5
1F6
330
1F7
100
AcDbEntity
  8
0
100
AcDbBlockBegin
  2
*U23
 70
     1
 71
     0
 10
0.0
 20
0.0
 30
0.0
  3
*U23
  1

  0
LINE
  5
1F8
330
1F7
100
AcDbEntity
  8
ボルト／ビス
  6
Continuous
100
AcDbLine
 10
46.246443
 20
-79.62459699999999
 30
0.0
 11
46.246443
 21
-79.15792999999999
 31
0.0
  0
LINE
  5
1F9
330
1F7
100
AcDbEntity
  8
ボルト／ビス
  6
Continuous
100
AcDbLine
 10
45.879775
 20
-79.62459699999999
 30
0.0
 11
45.879775
 21
-79.55793
 31
0.0
  0
LINE
  5
1FA
330
1F7
100
AcDbEntity
  8
ボルト／ビス
  6
Continuous
100
AcDbLine
 10
45.879775
 20
-79.55793
 30
0.0
 11
46.613107
 21
-79.55793
 31
0.0
  0
LINE
  5
1FB
330
1F7
100
AcDbEntity
  8
ボルト／ビス
  6
Continuous
100
AcDbLine
 10
46.613107
 20
-79.55793
 30
0.0
 11
46.613107
 21
-79.62459699999999
 31
0.0
  0
LINE
  5
1FC
330
1F7
100
AcDbEntity
  8
ボルト／ビス
  6
Continuous
100
AcDbLine
 10
45.879775
 20
-79.62459699999999
 30
0.0
 11
46.613107
 21
-79.62459699999999
 31
0.0
  0
LINE
  5
1FD
330
1F7
100
AcDbEntity
  8
ボルト／ビス
  6
Continuous
100
AcDbLine
 10
45.946443
 20
-79.524597
 30
0.0
 11
45.946443
 21
-79.55793
 31
0.0
  0
LINE
  5
1FE
330
1F7
100
AcDbEntity
  8
ボルト／ビス
  6
Continuous
100
AcDbLine
 10
45.946443
 20
-79.524597
 30
0.0
 11
46.546443
 21
-79.524597
 31
0.0
  0
LINE
  5
1FF
330
1F7
100
AcDbEntity
  8
ボルト／ビス
  6
Continuous
100
AcDbLine
 10
46.546443
 20
-79.524597
 30
0.0
 11
46.546443
 21
-79.55793
 31
0.0
  0
LINE
  5
200
330
1F7
100
AcDbEntity
  8
ボルト／ビス
  6
Continuous
 62
    64
100
AcDbLine
 10
46.086067
 20
-79.324597
 30
0.0
 11
46.053992
 21
-79.33627199999999
 31
0.0
  0
ARC
  5
201
330
1F7
100
AcDbEntity
  8
ボルト／ビス
  6
Continuous
 62
    64
100
AcDbCircle
 10
46.102104
 20
-79.429576
 30
0.0
 40
0.104978
100
AcDbArc
 50
62.721967
 51
90.0
  0
ARC
  5
202
330
1F7
100
AcDbEntity
  8
ボルト／ビス
  6
Continuous
 62
    64
100
AcDbCircle
 10
46.246442
 20
-79.727
 30
0.0
 40
0.402402
100
AcDbArc
 50
76.165002
 51
103.834985
  0
LINE
  5
203
330
1F7
100
AcDbEntity
  8
ボルト／ビス
  6
Continuous
 62
    64
100
AcDbLine
 10
46.406818
 20
-79.324597
 30
0.0
 11
46.438892
 21
-79.33627199999999
 31
0.0
  0
ARC
  5
204
330
1F7
100
AcDbEntity
  8
ボルト／ビス
  6
Continuous
 62
    64
100
AcDbCircle
 10
46.390779
 20
-79.429576
 30
0.0
 40
0.104978
100
AcDbArc
 50
90.0
 51
117.278033
  0
LINE
  5
205
330
1F7
100
AcDbEntity
  8
ボルト／ビス
  6
Continuous
 62
    64
100
AcDbLine
 10
46.086067
 20
-79.324597
 30
0.0
 11
46.406818
 21
-79.324597
 31
0.0
  0
LINE
  5
206
330
1F7
100
AcDbEntity
  8
ボルト／ビス
  6
Continuous
 62
    64
100
AcDbLine
 10
46.438892
 20
-79.33627199999999
 30
0.0
 11
46.438892
 21
-79.45793000000001
 31
0.0
  0
LINE
  5
207
330
1F7
100
AcDbEntity
  8
ボルト／ビス
  6
Continuous
 62
    64
100
AcDbLine
 10
46.342668
 20
-79.33627199999999
 30
0.0
 11
46.342668
 21
-79.45793000000001
 31
0.0
  0
LINE
  5
208
330
1F7
100
AcDbEntity
  8
ボルト／ビス
  6
Continuous
 62
    64
100
AcDbLine
 10
46.053992
 20
-79.33627199999999
 30
0.0
 11
46.053992
 21
-79.45793000000001
 31
0.0
  0
LINE
  5
209
330
1F7
100
AcDbEntity
  8
ボルト／ビス
  6
Continuous
 62
    64
100
AcDbLine
 10
46.150217
 20
-79.33627199999999
 30
0.0
 11
46.150217
 21
-79.45793000000001
 31
0.0
  0
LINE
  5
20A
330
1F7
100
AcDbEntity
  8
ボルト／ビス
  6
Continuous
100
AcDbLine
 10
46.053992
 20
-79.45793000000001
 30
0.0
 11
46.438892
 21
-79.45793000000001
 31
0.0
  0
LINE
  5
20B
330
1F7
100
AcDbEntity
  8
ボルト／ビス
  6
Continuous
100
AcDbLine
 10
46.046443
 20
-79.45793000000001
 30
0.0
 11
46.046443
 21
-79.524597
 31
0.0
  0
LINE
  5
20C
330
1F7
100
AcDbEntity
  8
ボルト／ビス
  6
Continuous
100
AcDbLine
 10
46.046443
 20
-79.45793000000001
 30
0.0
 11
46.446443
 21
-79.45793000000001
 31
0.0
  0
LINE
  5
20D
330
1F7
100
AcDbEntity
  8
ボルト／ビス
  6
Continuous
100
AcDbLine
 10
46.446443
 20
-79.45793000000001
 30
0.0
 11
46.446443
 21
-79.524597
 31
0.0
  0
ENDBLK
  5
20E
330
1F7
100
AcDbEntity
  8
0
100
AcDbBlockEnd
  0
BLOCK
  5
20F
330
210
100
AcDbEntity
  8
0
100
AcDbBlockBegin
  2
*U24
 70
     1
 71
     0
 10
0.0
 20
0.0
 30
0.0
  3
*U24
  1

  0
LINE
  5
211
330
210
100
AcDbEntity
  8
ボルト／ビス
  6
Continuous
100
AcDbLine
 10
135.11304
 20
-2.57671
 30
0.0
 11
134.646372
 21
-2.57671
 31
0.0
  0
LINE
  5
212
330
210
100
AcDbEntity
  8
ボルト／ビス
  6
Continuous
100
AcDbLine
 10
135.11304
 20
-2.943378
 30
0.0
 11
135.046372
 21
-2.943378
 31
0.0
  0
LINE
  5
213
330
210
100
AcDbEntity
  8
ボルト／ビス
  6
Continuous
100
AcDbLine
 10
135.046372
 20
-2.943378
 30
0.0
 11
135.046372
 21
-2.210045
 31
0.0
  0
LINE
  5
214
330
210
100
AcDbEntity
  8
ボルト／ビス
  6
Continuous
100
AcDbLine
 10
135.046372
 20
-2.210045
 30
0.0
 11
135.11304
 21
-2.210045
 31
0.0
  0
LINE
  5
215
330
210
100
AcDbEntity
  8
ボルト／ビス
  6
Continuous
100
AcDbLine
 10
135.11304
 20
-2.943378
 30
0.0
 11
135.11304
 21
-2.210045
 31
0.0
  0
LINE
  5
216
330
210
100
AcDbEntity
  8
ボルト／ビス
  6
Continuous
100
AcDbLine
 10
135.01304
 20
-2.87671
 30
0.0
 11
135.046372
 21
-2.87671
 31
0.0
  0
LINE
  5
217
330
210
100
AcDbEntity
  8
ボルト／ビス
  6
Continuous
100
AcDbLine
 10
135.01304
 20
-2.87671
 30
0.0
 11
135.01304
 21
-2.27671
 31
0.0
  0
LINE
  5
218
330
210
100
AcDbEntity
  8
ボルト／ビス
  6
Continuous
100
AcDbLine
 10
135.01304
 20
-2.27671
 30
0.0
 11
135.046372
 21
-2.27671
 31
0.0
  0
LINE
  5
219
330
210
100
AcDbEntity
  8
ボルト／ビス
  6
Continuous
 62
    64
100
AcDbLine
 10
134.81304
 20
-2.737085
 30
0.0
 11
134.824715
 21
-2.76916
 31
0.0
  0
ARC
  5
21A
330
210
100
AcDbEntity
  8
ボルト／ビス
  6
Continuous
 62
    64
100
AcDbCircle
 10
134.91802
 20
-2.721049
 30
0.0
 40
0.104978
100
AcDbArc
 50
152.721967
 51
180.0
  0
ARC
  5
21B
330
210
100
AcDbEntity
  8
ボルト／ビス
  6
Continuous
 62
    64
100
AcDbCircle
 10
135.215444
 20
-2.576712
 30
0.0
 40
0.402402
100
AcDbArc
 50
166.165002
 51
193.834985
  0
LINE
  5
21C
330
210
100
AcDbEntity
  8
ボルト／ビス
  6
Continuous
 62
    64
100
AcDbLine
 10
134.81304
 20
-2.416335
 30
0.0
 11
134.824715
 21
-2.38426
 31
0.0
  0
ARC
  5
21D
330
210
100
AcDbEntity
  8
ボルト／ビス
  6
Continuous
 62
    64
100
AcDbCircle
 10
134.91802
 20
-2.432374
 30
0.0
 40
0.104978
100
AcDbArc
 50
180.0
 51
207.278033
  0
LINE
  5
21E
330
210
100
AcDbEntity
  8
ボルト／ビス
  6
Continuous
 62
    64
100
AcDbLine
 10
134.81304
 20
-2.737085
 30
0.0
 11
134.81304
 21
-2.416335
 31
0.0
  0
LINE
  5
21F
330
210
100
AcDbEntity
  8
ボルト／ビス
  6
Continuous
 62
    64
100
AcDbLine
 10
134.824715
 20
-2.38426
 30
0.0
 11
134.946372
 21
-2.38426
 31
0.0
  0
LINE
  5
220
330
210
100
AcDbEntity
  8
ボルト／ビス
  6
Continuous
 62
    64
100
AcDbLine
 10
134.824715
 20
-2.480485
 30
0.0
 11
134.946372
 21
-2.480485
 31
0.0
  0
LINE
  5
221
330
210
100
AcDbEntity
  8
ボルト／ビス
  6
Continuous
 62
    64
100
AcDbLine
 10
134.824715
 20
-2.76916
 30
0.0
 11
134.946372
 21
-2.76916
 31
0.0
  0
LINE
  5
222
330
210
100
AcDbEntity
  8
ボルト／ビス
  6
Continuous
 62
    64
100
AcDbLine
 10
134.824715
 20
-2.672935
 30
0.0
 11
134.946372
 21
-2.672935
 31
0.0
  0
LINE
  5
223
330
210
100
AcDbEntity
  8
ボルト／ビス
  6
Continuous
100
AcDbLine
 10
134.946372
 20
-2.76916
 30
0.0
 11
134.946372
 21
-2.38426
 31
0.0
  0
LINE
  5
224
330
210
100
AcDbEntity
  8
ボルト／ビス
  6
Continuous
100
AcDbLine
 10
134.946372
 20
-2.77671
 30
0.0
 11
135.01304
 21
-2.77671
 31
0.0
  0
LINE
  5
225
330
210
100
AcDbEntity
  8
ボルト／ビス
  6
Continuous
100
AcDbLine
 10
134.946372
 20
-2.77671
 30
0.0
 11
134.946372
 21
-2.37671
 31
0.0
  0
LINE
  5
226
330
210
100
AcDbEntity
  8
ボルト／ビス
  6
Continuous
100
AcDbLine
 10
134.946372
 20
-2.37671
 30
0.0
 11
135.01304
 21
-2.37671
 31
0.0
  0
ENDBLK
  5
227
330
210
100
AcDbEntity
  8
0
100
AcDbBlockEnd
  0
BLOCK
  5
228
330
229
100
AcDbEntity
  8
0
100
AcDbBlockBegin
  2
*U25
 70
     1
 71
     0
 10
0.0
 20
0.0
 30
0.0
  3
*U25
  1

  0
LINE
  5
22A
330
229
100
AcDbEntity
  8
ボルト／ビス
  6
Continuous
100
AcDbLine
 10
135.11304
 20
65.42328999999999
 30
0.0
 11
134.646372
 21
65.42328999999999
 31
0.0
  0
LINE
  5
22B
330
229
100
AcDbEntity
  8
ボルト／ビス
  6
Continuous
100
AcDbLine
 10
135.11304
 20
65.056623
 30
0.0
 11
135.046372
 21
65.056623
 31
0.0
  0
LINE
  5
22C
330
229
100
AcDbEntity
  8
ボルト／ビス
  6
Continuous
100
AcDbLine
 10
135.046372
 20
65.056623
 30
0.0
 11
135.046372
 21
65.78995500000001
 31
0.0
  0
LINE
  5
22D
330
229
100
AcDbEntity
  8
ボルト／ビス
  6
Continuous
100
AcDbLine
 10
135.046372
 20
65.78995500000001
 30
0.0
 11
135.11304
 21
65.78995500000001
 31
0.0
  0
LINE
  5
22E
330
229
100
AcDbEntity
  8
ボルト／ビス
  6
Continuous
100
AcDbLine
 10
135.11304
 20
65.056623
 30
0.0
 11
135.11304
 21
65.78995500000001
 31
0.0
  0
LINE
  5
22F
330
229
100
AcDbEntity
  8
ボルト／ビス
  6
Continuous
100
AcDbLine
 10
135.01304
 20
65.12329
 30
0.0
 11
135.046372
 21
65.12329
 31
0.0
  0
LINE
  5
230
330
229
100
AcDbEntity
  8
ボルト／ビス
  6
Continuous
100
AcDbLine
 10
135.01304
 20
65.12329
 30
0.0
 11
135.01304
 21
65.72329000000001
 31
0.0
  0
LINE
  5
231
330
229
100
AcDbEntity
  8
ボルト／ビス
  6
Continuous
100
AcDbLine
 10
135.01304
 20
65.72329000000001
 30
0.0
 11
135.046372
 21
65.72329000000001
 31
0.0
  0
LINE
  5
232
330
229
100
AcDbEntity
  8
ボルト／ビス
  6
Continuous
 62
    64
100
AcDbLine
 10
134.81304
 20
65.26291500000001
 30
0.0
 11
134.824715
 21
65.23084
 31
0.0
  0
ARC
  5
233
330
229
100
AcDbEntity
  8
ボルト／ビス
  6
Continuous
 62
    64
100
AcDbCircle
 10
134.91802
 20
65.27895100000001
 30
0.0
 40
0.104978
100
AcDbArc
 50
152.721967
 51
180.0
  0
ARC
  5
234
330
229
100
AcDbEntity
  8
ボルト／ビス
  6
Continuous
 62
    64
100
AcDbCircle
 10
135.215444
 20
65.423288
 30
0.0
 40
0.402402
100
AcDbArc
 50
166.165002
 51
193.834985
  0
LINE
  5
235
330
229
100
AcDbEntity
  8
ボルト／ビス
  6
Continuous
 62
    64
100
AcDbLine
 10
134.81304
 20
65.583665
 30
0.0
 11
134.824715
 21
65.61574
 31
0.0
  0
ARC
  5
236
330
229
100
AcDbEntity
  8
ボルト／ビス
  6
Continuous
 62
    64
100
AcDbCircle
 10
134.91802
 20
65.567626
 30
0.0
 40
0.104978
100
AcDbArc
 50
180.0
 51
207.278033
  0
LINE
  5
237
330
229
100
AcDbEntity
  8
ボルト／ビス
  6
Continuous
 62
    64
100
AcDbLine
 10
134.81304
 20
65.26291500000001
 30
0.0
 11
134.81304
 21
65.583665
 31
0.0
  0
LINE
  5
238
330
229
100
AcDbEntity
  8
ボルト／ビス
  6
Continuous
 62
    64
100
AcDbLine
 10
134.824715
 20
65.61574
 30
0.0
 11
134.946372
 21
65.61574
 31
0.0
  0
LINE
  5
239
330
229
100
AcDbEntity
  8
ボルト／ビス
  6
Continuous
 62
    64
100
AcDbLine
 10
134.824715
 20
65.519515
 30
0.0
 11
134.946372
 21
65.519515
 31
0.0
  0
LINE
  5
23A
330
229
100
AcDbEntity
  8
ボルト／ビス
  6
Continuous
 62
    64
100
AcDbLine
 10
134.824715
 20
65.23084
 30
0.0
 11
134.946372
 21
65.23084
 31
0.0
  0
LINE
  5
23B
330
229
100
AcDbEntity
  8
ボルト／ビス
  6
Continuous
 62
    64
100
AcDbLine
 10
134.824715
 20
65.32706500000001
 30
0.0
 11
134.946372
 21
65.32706500000001
 31
0.0
  0
LINE
  5
23C
330
229
100
AcDbEntity
  8
ボルト／ビス
  6
Continuous
100
AcDbLine
 10
134.946372
 20
65.23084
 30
0.0
 11
134.946372
 21
65.61574
 31
0.0
  0
LINE
  5
23D
330
229
100
AcDbEntity
  8
ボルト／ビス
  6
Continuous
100
AcDbLine
 10
134.946372
 20
65.22329000000001
 30
0.0
 11
135.01304
 21
65.22329000000001
 31
0.0
  0
LINE
  5
23E
330
229
100
AcDbEntity
  8
ボルト／ビス
  6
Continuous
100
AcDbLine
 10
134.946372
 20
65.22329000000001
 30
0.0
 11
134.946372
 21
65.62329
 31
0.0
  0
LINE
  5
23F
330
229
100
AcDbEntity
  8
ボルト／ビス
  6
Continuous
100
AcDbLine
 10
134.946372
 20
65.62329
 30
0.0
 11
135.01304
 21
65.62329
 31
0.0
  0
ENDBLK
  5
240
330
229
100
AcDbEntity
  8
0
100
AcDbBlockEnd
  0
ENDSEC
  0
SECTION
  2
ENTITIES
  0
LWPOLYLINE
  5
241
330
1D
100
AcDbEntity
  8
通り芯
  6
Continuous
100
AcDbPolyline
 90
        4
 70
     1
 43
0.0
 10
-210.0
 20
-148.5
 10
210.0
 20
-148.5
 10
210.0
 20
148.5
 10
-210.0
 20
148.5
  0
INSERT
  5
247
330
1D
100
AcDbEntity
  8
型材断面
  6
Continuous
100
AcDbBlockReference
  2
*U0
 10
0.0
 20
0.0
 30
0.0
  0
LINE
  5
248
330
1D
100
AcDbEntity
  8
型材断面
  6
DASHDOT
100
AcDbLine
 10
45.579775
 20
64.756625
 30
0.0
 11
45.579775
 21
-87.251428
 31
0.0
  0
LINE
  5
249
330
1D
100
AcDbEntity
  8
型材断面
  6
DASHDOT
100
AcDbLine
 10
-21.086892
 20
64.756625
 30
0.0
 11
-21.086892
 21
-87.251428
 31
0.0
  0
LINE
  5
24A
330
1D
100
AcDbEntity
  8
型材断面
  6
DASHDOT
100
AcDbLine
 10
-87.753557
 20
64.756625
 30
0.0
 11
-87.753557
 21
-87.251428
 31
0.0
  0
LINE
  5
24B
330
1D
100
AcDbEntity
  8
型材断面
  6
DASHDOT
100
AcDbLine
 10
143.256538
 20
64.756625
 30
0.0
 11
-87.753557
 21
64.756625
 31
0.0
  0
LINE
  5
24C
330
1D
100
AcDbEntity
  8
型材断面
  6
DASHDOT
100
AcDbLine
 10
143.256538
 20
31.423293
 30
0.0
 11
-87.753557
 21
31.423293
 31
0.0
  0
LINE
  5
24D
330
1D
100
AcDbEntity
  8
型材断面
  6
DASHDOT
100
AcDbLine
 10
143.256538
 20
-1.910042
 30
0.0
 11
-87.753557
 21
-1.910042
 31
0.0
  0
LINE
  5
24E
330
1D
100
AcDbEntity
  8
型材断面
  6
DASHDOT
100
AcDbLine
 10
-21.086892
 20
-1.910042
 30
0.0
 11
-21.086892
 21
64.756625
 31
0.0
  0
LINE
  5
24F
330
1D
100
AcDbEntity
  8
型材断面
  6
DOT
100
AcDbLine
 10
-22.336892
 20
-1.910042
 30
0.0
 11
-22.336892
 21
64.756625
 31
0.0
  0
LINE
  5
250
330
1D
100
AcDbEntity
  8
型材断面
  6
DOT
100
AcDbLine
 10
-19.836892
 20
-1.910042
 30
0.0
 11
-19.836892
 21
64.756625
 31
0.0
  0
LINE
  5
251
330
1D
100
AcDbEntity
  8
型材断面
  6
Continuous
100
AcDbLine
 10
-90.383687
 20
31.423293
 30
0.0
 11
-92.974195
 21
32.918923
 31
0.0
  0
LINE
  5
252
330
1D
100
AcDbEntity
  8
型材断面
  6
Continuous
100
AcDbLine
 10
-90.383687
 20
31.423293
 30
0.0
 11
-92.974195
 21
29.927663
 31
0.0
  0
LINE
  5
253
330
1D
100
AcDbEntity
  8
型材断面
  6
Continuous
100
AcDbLine
 10
-92.974195
 20
29.927663
 30
0.0
 11
-92.974195
 21
32.918923
 31
0.0
  0
LINE
  5
254
330
1D
100
AcDbEntity
  8
型材断面
  6
Continuous
100
AcDbLine
 10
-128.605765
 20
109.263973
 30
0.0
 11
-130.101395
 21
106.673465
 31
0.0
  0
LINE
  5
255
330
1D
100
AcDbEntity
  8
型材断面
  6
Continuous
100
AcDbLine
 10
-128.605765
 20
109.263973
 30
0.0
 11
-127.110135
 21
106.673465
 31
0.0
  0
LINE
  5
256
330
1D
100
AcDbEntity
  8
型材断面
  6
Continuous
100
AcDbLine
 10
-127.110135
 20
106.673465
 30
0.0
 11
-130.101395
 21
106.673465
 31
0.0
  0
LINE
  5
257
330
1D
100
AcDbEntity
  8
型材断面
  6
Continuous
100
AcDbLine
 10
-134.628352
 20
105.73487
 30
0.0
 11
-88.38657499999999
 21
105.73487
 31
0.0
  0
LINE
  5
258
330
1D
100
AcDbEntity
  8
型材断面
  6
Continuous
100
AcDbLine
 10
48.209902
 20
31.423293
 30
0.0
 11
50.80041
 21
32.918923
 31
0.0
  0
LINE
  5
259
330
1D
100
AcDbEntity
  8
型材断面
  6
Continuous
100
AcDbLine
 10
48.209902
 20
31.423293
 30
0.0
 11
50.80041
 21
29.927663
 31
0.0
  0
LINE
  5
25A
330
1D
100
AcDbEntity
  8
型材断面
  6
Continuous
100
AcDbLine
 10
50.80041
 20
29.927663
 30
0.0
 11
50.80041
 21
32.918923
 31
0.0
  0
LINE
  5
25B
330
1D
100
AcDbEntity
  8
型材断面
  6
Continuous
100
AcDbLine
 10
-71.08689
 20
-4.54017
 30
0.0
 11
-72.58252
 21
-7.130678
 31
0.0
  0
LINE
  5
25C
330
1D
100
AcDbEntity
  8
型材断面
  6
Continuous
100
AcDbLine
 10
-71.08689
 20
-4.54017
 30
0.0
 11
-69.59126000000001
 21
-7.130678
 31
0.0
  0
LINE
  5
25D
330
1D
100
AcDbEntity
  8
型材断面
  6
Continuous
100
AcDbLine
 10
-69.59126000000001
 20
-7.130678
 30
0.0
 11
-72.58252
 21
-7.130678
 31
0.0
  0
LINE
  5
25E
330
1D
100
AcDbEntity
  8
型材断面
  6
Continuous
100
AcDbLine
 10
-71.08689
 20
67.38675499999999
 30
0.0
 11
-72.58252
 21
69.977262
 31
0.0
  0
LINE
  5
25F
330
1D
100
AcDbEntity
  8
型材断面
  6
Continuous
100
AcDbLine
 10
-71.08689
 20
67.38675499999999
 30
0.0
 11
-69.59126000000001
 21
69.977262
 31
0.0
  0
LINE
  5
260
330
1D
100
AcDbEntity
  8
型材断面
  6
Continuous
100
AcDbLine
 10
-69.59126000000001
 20
69.977262
 30
0.0
 11
-72.58252
 21
69.977262
 31
0.0
  0
LINE
  5
261
330
1D
100
AcDbEntity
  8
型材断面
  6
Continuous
100
AcDbLine
 10
28.913105
 20
-4.54017
 30
0.0
 11
30.408735
 21
-7.130678
 31
0.0
  0
LINE
  5
262
330
1D
100
AcDbEntity
  8
型材断面
  6
Continuous
100
AcDbLine
 10
28.913105
 20
-4.54017
 30
0.0
 11
27.417475
 21
-7.130678
 31
0.0
  0
LINE
  5
263
330
1D
100
AcDbEntity
  8
型材断面
  6
Continuous
100
AcDbLine
 10
27.417475
 20
-7.130678
 30
0.0
 11
30.408735
 21
-7.130678
 31
0.0
  0
LINE
  5
264
330
1D
100
AcDbEntity
  8
型材断面
  6
Continuous
100
AcDbLine
 10
28.913105
 20
67.38675499999999
 30
0.0
 11
30.408735
 21
69.977262
 31
0.0
  0
LINE
  5
265
330
1D
100
AcDbEntity
  8
型材断面
  6
Continuous
100
AcDbLine
 10
28.913105
 20
67.38675499999999
 30
0.0
 11
27.417475
 21
69.977262
 31
0.0
  0
LINE
  5
266
330
1D
100
AcDbEntity
  8
型材断面
  6
Continuous
100
AcDbLine
 10
27.417475
 20
69.977262
 30
0.0
 11
30.408735
 21
69.977262
 31
0.0
  0
LINE
  5
267
330
1D
100
AcDbEntity
  8
型材断面
  6
Continuous
100
AcDbLine
 10
-134.628352
 20
99.778395
 30
0.0
 11
-88.38657499999999
 21
99.778395
 31
0.0
  0
LINE
  5
268
330
1D
100
AcDbEntity
  8
型材断面
  6
Continuous
100
AcDbLine
 10
47.646443
 20
66.823295
 30
0.0
 11
48.74644
 21
67.92328999999999
 31
0.0
  0
LINE
  5
269
330
1D
100
AcDbEntity
  8
型材断面
  6
Continuous
100
AcDbLine
 10
48.74644
 20
67.92328999999999
 30
0.0
 11
48.74644
 21
-5.076707
 31
0.0
  0
LINE
  5
26A
330
1D
100
AcDbEntity
  8
型材断面
  6
Continuous
100
AcDbLine
 10
47.646443
 20
-3.97671
 30
0.0
 11
48.74644
 21
-5.076707
 31
0.0
  0
LINE
  5
26B
330
1D
100
AcDbEntity
  8
型材断面
  6
Continuous
100
AcDbLine
 10
48.74644
 20
-5.076707
 30
0.0
 11
-90.920225
 21
-5.076707
 31
0.0
  0
LINE
  5
26C
330
1D
100
AcDbEntity
  8
型材断面
  6
Continuous
100
AcDbLine
 10
-89.820227
 20
-3.97671
 30
0.0
 11
-90.920225
 21
-5.076707
 31
0.0
  0
LINE
  5
26D
330
1D
100
AcDbEntity
  8
型材断面
  6
Continuous
100
AcDbLine
 10
-90.920225
 20
-5.076707
 30
0.0
 11
-90.920225
 21
67.92328999999999
 31
0.0
  0
LINE
  5
26E
330
1D
100
AcDbEntity
  8
型材断面
  6
Continuous
100
AcDbLine
 10
48.74644
 20
67.92328999999999
 30
0.0
 11
-90.920225
 21
67.92328999999999
 31
0.0
  0
LINE
  5
26F
330
1D
100
AcDbEntity
  8
型材断面
  6
Continuous
100
AcDbLine
 10
-89.820227
 20
66.823295
 30
0.0
 11
-90.920225
 21
67.92328999999999
 31
0.0
  0
LINE
  5
270
330
1D
100
AcDbEntity
  8
型材断面
  6
DOT
100
AcDbLine
 10
-19.836892
 20
30.173293
 30
0.0
 11
11.013105
 21
30.173293
 31
0.0
  0
LINE
  5
271
330
1D
100
AcDbEntity
  8
型材断面
  6
DOT
100
AcDbLine
 10
45.579775
 20
30.173293
 30
0.0
 11
13.513105
 21
30.173293
 31
0.0
  0
LINE
  5
272
330
1D
100
AcDbEntity
  8
型材断面
  6
DOT
100
AcDbLine
 10
45.579775
 20
32.673293
 30
0.0
 11
13.513105
 21
32.673293
 31
0.0
  0
LINE
  5
273
330
1D
100
AcDbEntity
  8
型材断面
  6
DOT
100
AcDbLine
 10
-19.836892
 20
32.673293
 30
0.0
 11
11.013105
 21
32.673293
 31
0.0
  0
LINE
  5
274
330
1D
100
AcDbEntity
  8
型材断面
  6
DOT
100
AcDbLine
 10
-22.336892
 20
32.673293
 30
0.0
 11
-53.18689
 21
32.673293
 31
0.0
  0
LINE
  5
275
330
1D
100
AcDbEntity
  8
型材断面
  6
DOT
100
AcDbLine
 10
-22.336892
 20
30.173293
 30
0.0
 11
-53.18689
 21
30.173293
 31
0.0
  0
LINE
  5
276
330
1D
100
AcDbEntity
  8
型材断面
  6
DOT
100
AcDbLine
 10
-87.75355999999999
 20
30.173293
 30
0.0
 11
-55.68689
 21
30.173293
 31
0.0
  0
LINE
  5
277
330
1D
100
AcDbEntity
  8
型材断面
  6
DOT
100
AcDbLine
 10
-87.75355999999999
 20
32.673293
 30
0.0
 11
-55.68689
 21
32.673293
 31
0.0
  0
LINE
  5
278
330
1D
100
AcDbEntity
  8
型材断面
  6
DASHDOT
100
AcDbLine
 10
-54.603557
 20
-1.910042
 30
0.0
 11
-54.603557
 21
64.756625
 31
0.0
  0
LINE
  5
279
330
1D
100
AcDbEntity
  8
型材断面
  6
DOT
100
AcDbLine
 10
-53.353557
 20
-1.910042
 30
0.0
 11
-53.353557
 21
64.756625
 31
0.0
  0
LINE
  5
27A
330
1D
100
AcDbEntity
  8
型材断面
  6
DOT
100
AcDbLine
 10
-55.853557
 20
-1.910042
 30
0.0
 11
-55.853557
 21
64.756625
 31
0.0
  0
LINE
  5
27B
330
1D
100
AcDbEntity
  8
型材断面
  6
DASHDOT
100
AcDbLine
 10
12.429773
 20
-1.910042
 30
0.0
 11
12.429773
 21
64.756625
 31
0.0
  0
LINE
  5
27C
330
1D
100
AcDbEntity
  8
型材断面
  6
DOT
100
AcDbLine
 10
11.179773
 20
-1.910042
 30
0.0
 11
11.179773
 21
64.756625
 31
0.0
  0
LINE
  5
27D
330
1D
100
AcDbEntity
  8
型材断面
  6
DOT
100
AcDbLine
 10
13.679773
 20
-1.910042
 30
0.0
 11
13.679773
 21
64.756625
 31
0.0
  0
LINE
  5
27E
330
1D
100
AcDbEntity
  8
型材断面
  6
Continuous
 62
    14
100
AcDbLine
 10
138.94661
 20
67.923287
 30
0.0
 11
138.44661
 21
67.923287
 31
0.0
  0
LINE
  5
27F
330
1D
100
AcDbEntity
  8
型材断面
  6
Continuous
100
AcDbLine
 10
138.279945
 20
66.08995299999999
 30
0.0
 11
138.44661
 21
67.923287
 31
0.0
  0
LINE
  5
280
330
1D
100
AcDbEntity
  8
型材断面
  6
Continuous
100
AcDbLine
 10
138.44661
 20
67.923287
 30
0.0
 11
138.94661
 21
67.923287
 31
0.0
  0
LINE
  5
281
330
1D
100
AcDbEntity
  8
型材断面
  6
Continuous
100
AcDbLine
 10
138.94661
 20
67.08995299999999
 30
0.0
 11
139.279945
 21
67.08995299999999
 31
0.0
  0
LWPOLYLINE
  5
282
330
1D
100
AcDbEntity
  8
型材断面
  6
Continuous
100
AcDbPolyline
 90
        3
 70
     0
 43
0.0
 10
136.11304
 20
65.956625
 10
136.463278
 20
65.956625
 10
136.59661
 20
66.089957
  0
LINE
  5
287
330
1D
100
AcDbEntity
  8
型材断面
  6
Continuous
100
AcDbLine
 10
138.279945
 20
66.08995299999999
 30
0.0
 11
136.596605
 21
66.08995299999999
 31
0.0
  0
LINE
  5
288
330
1D
100
AcDbEntity
  8
型材断面
  6
Continuous
 62
    14
100
AcDbLine
 10
138.94661
 20
-5.076703
 30
0.0
 11
138.44661
 21
-5.076703
 31
0.0
  0
LINE
  5
289
330
1D
100
AcDbEntity
  8
型材断面
  6
Continuous
100
AcDbLine
 10
138.279945
 20
-3.243368
 30
0.0
 11
138.44661
 21
-5.076703
 31
0.0
  0
LINE
  5
28A
330
1D
100
AcDbEntity
  8
型材断面
  6
Continuous
100
AcDbLine
 10
138.44661
 20
-5.076703
 30
0.0
 11
138.94661
 21
-5.076703
 31
0.0
  0
LINE
  5
28B
330
1D
100
AcDbEntity
  8
型材断面
  6
Continuous
100
AcDbLine
 10
138.94661
 20
-4.243368
 30
0.0
 11
139.279945
 21
-4.243368
 31
0.0
  0
LWPOLYLINE
  5
28C
330
1D
100
AcDbEntity
  8
型材断面
  6
Continuous
100
AcDbPolyline
 90
        3
 70
     0
 43
0.0
 10
136.11304
 20
-3.11004
 10
136.463278
 20
-3.11004
 10
136.59661
 20
-3.243372
  0
LINE
  5
291
330
1D
100
AcDbEntity
  8
型材断面
  6
Continuous
100
AcDbLine
 10
138.279945
 20
-3.243368
 30
0.0
 11
136.596605
 21
-3.243368
 31
0.0
  0
LINE
  5
292
330
1D
100
AcDbEntity
  8
型材断面
  6
Continuous
100
AcDbLine
 10
138.44661
 20
67.923287
 30
0.0
 11
138.44661
 21
-5.076703
 31
0.0
  0
LINE
  5
293
330
1D
100
AcDbEntity
  8
型材断面
  6
Continuous
100
AcDbLine
 10
138.94661
 20
67.923287
 30
0.0
 11
138.94661
 21
-5.076703
 31
0.0
  0
LINE
  5
294
330
1D
100
AcDbEntity
  8
型材断面
  6
Continuous
100
AcDbLine
 10
139.279942
 20
67.08995299999999
 30
0.0
 11
139.279942
 21
-4.243368
 31
0.0
  0
LINE
  5
295
330
1D
100
AcDbEntity
  8
型材断面
  6
Continuous
100
AcDbLine
 10
138.279945
 20
66.08995299999999
 30
0.0
 11
138.279945
 21
-3.243368
 31
0.0
  0
LINE
  5
296
330
1D
100
AcDbEntity
  8
型材断面
  6
Continuous
100
AcDbLine
 10
136.463278
 20
65.956625
 30
0.0
 11
136.463278
 21
-3.11004
 31
0.0
  0
LINE
  5
297
330
1D
100
AcDbEntity
  8
型材断面
  6
Continuous
100
AcDbLine
 10
136.59661
 20
66.089957
 30
0.0
 11
136.59661
 21
-3.243372
 31
0.0
  0
LINE
  5
298
330
1D
100
AcDbEntity
  8
型材断面
  6
Continuous
 62
    14
100
AcDbLine
 10
48.74644
 20
-83.458168
 30
0.0
 11
48.74644
 21
-82.958168
 31
0.0
  0
LINE
  5
299
330
1D
100
AcDbEntity
  8
型材断面
  6
Continuous
100
AcDbLine
 10
46.913105
 20
-82.79150300000001
 30
0.0
 11
48.74644
 21
-82.958168
 31
0.0
  0
LINE
  5
29A
330
1D
100
AcDbEntity
  8
型材断面
  6
Continuous
100
AcDbLine
 10
48.74644
 20
-82.958168
 30
0.0
 11
48.74644
 21
-83.458168
 31
0.0
  0
LINE
  5
29B
330
1D
100
AcDbEntity
  8
型材断面
  6
Continuous
100
AcDbLine
 10
47.913105
 20
-83.458168
 30
0.0
 11
47.913105
 21
-83.79150300000001
 31
0.0
  0
LWPOLYLINE
  5
29C
330
1D
100
AcDbEntity
  8
型材断面
  6
Continuous
100
AcDbPolyline
 90
        3
 70
     0
 43
0.0
 10
46.779777
 20
-80.62459699999999
 10
46.779777
 20
-80.974835
 10
46.91311
 20
-81.10816800000001
  0
LINE
  5
2A1
330
1D
100
AcDbEntity
  8
型材断面
  6
Continuous
100
AcDbLine
 10
46.913105
 20
-82.79150300000001
 30
0.0
 11
46.913105
 21
-81.10816199999999
 31
0.0
  0
LINE
  5
2A2
330
1D
100
AcDbEntity
  8
型材断面
  6
Continuous
 62
    14
100
AcDbLine
 10
-90.92021800000001
 20
-83.458168
 30
0.0
 11
-90.92021800000001
 21
-82.958168
 31
0.0
  0
LINE
  5
2A3
330
1D
100
AcDbEntity
  8
型材断面
  6
Continuous
100
AcDbLine
 10
-89.086882
 20
-82.79150300000001
 30
0.0
 11
-90.92021800000001
 21
-82.958168
 31
0.0
  0
LINE
  5
2A4
330
1D
100
AcDbEntity
  8
型材断面
  6
Continuous
100
AcDbLine
 10
-90.92021800000001
 20
-82.958168
 30
0.0
 11
-90.92021800000001
 21
-83.458168
 31
0.0
  0
LINE
  5
2A5
330
1D
100
AcDbEntity
  8
型材断面
  6
Continuous
100
AcDbLine
 10
-90.086882
 20
-83.458168
 30
0.0
 11
-90.086882
 21
-83.79150300000001
 31
0.0
  0
LWPOLYLINE
  5
2A6
330
1D
100
AcDbEntity
  8
型材断面
  6
Continuous
100
AcDbPolyline
 90
        3
 70
     0
 43
0.0
 10
-88.95355499999999
 20
-80.62459699999999
 10
-88.95355499999999
 20
-80.974835
 10
-89.086888
 20
-81.10816800000001
  0
LINE
  5
2AB
330
1D
100
AcDbEntity
  8
型材断面
  6
Continuous
100
AcDbLine
 10
-89.086882
 20
-82.79150300000001
 30
0.0
 11
-89.086882
 21
-81.10816199999999
 31
0.0
  0
LINE
  5
2AC
330
1D
100
AcDbEntity
  8
型材断面
  6
Continuous
100
AcDbLine
 10
48.74644
 20
-82.958168
 30
0.0
 11
-90.92021800000001
 21
-82.958168
 31
0.0
  0
LINE
  5
2AD
330
1D
100
AcDbEntity
  8
型材断面
  6
Continuous
100
AcDbLine
 10
48.74644
 20
-83.458168
 30
0.0
 11
-90.92021800000001
 21
-83.458168
 31
0.0
  0
LINE
  5
2AE
330
1D
100
AcDbEntity
  8
型材断面
  6
Continuous
100
AcDbLine
 10
47.913105
 20
-83.7915
 30
0.0
 11
-90.086882
 21
-83.7915
 31
0.0
  0
LINE
  5
2AF
330
1D
100
AcDbEntity
  8
型材断面
  6
Continuous
100
AcDbLine
 10
46.913105
 20
-82.79150300000001
 30
0.0
 11
-89.086882
 21
-82.79150300000001
 31
0.0
  0
LINE
  5
2B0
330
1D
100
AcDbEntity
  8
型材断面
  6
Continuous
100
AcDbLine
 10
46.779777
 20
-80.974835
 30
0.0
 11
-88.95355499999999
 21
-80.974835
 31
0.0
  0
LINE
  5
2B1
330
1D
100
AcDbEntity
  8
型材断面
  6
Continuous
100
AcDbLine
 10
46.91311
 20
-81.10816800000001
 30
0.0
 11
-89.086888
 21
-81.10816800000001
 31
0.0
  0
TEXT
  5
2B2
330
1D
100
AcDbEntity
  8
文字
  6
Continuous
100
AcDbText
 10
-125.825
 20
106.85
 30
0.0
 40
3.0
  1
は排水穴位置を示す
  7
TextStyle03
 72
     5
 11
-95.825
 21
106.85
 31
0.0
100
AcDbText
  0
TEXT
  5
2B3
330
1D
100
AcDbEntity
  8
文字
  6
Continuous
100
AcDbText
 10
137.0
 20
-75.575
 30
0.0
 40
3.0
  1
網入り6.8t
  7
TextStyle03
 72
     5
 11
153.6875
 21
-75.575
 31
0.0
100
AcDbText
  0
TEXT
  5
2B4
330
1D
100
AcDbEntity
  8
文字
  6
Continuous
100
AcDbText
 10
143.675
 20
-80.25
 30
0.0
 40
3.0
  1
×８枚
  7
TextStyle03
 72
     5
 11
153.425
 21
-80.25
 31
0.0
100
AcDbText
  0
TEXT
  5
2B5
330
1D
100
AcDbEntity
  8
文字
  6
Continuous
100
AcDbText
 10
-126.5
 20
2.025
 30
0.0
 40
3.0
  1
アンカーピッチ
 50
90.0
  7
TextStyle03
 72
     5
 11
-126.5
 21
25.275
 31
0.0
100
AcDbText
  0
TEXT
  5
2B6
330
1D
100
AcDbEntity
  8
文字
  6
Continuous
100
AcDbText
 10
-79.65000000000001
 20
102.775
 30
0.0
 40
3.0
  1
アンカーピッチ
  7
TextStyle03
 72
     5
 11
-56.4
 21
102.775
 31
0.0
100
AcDbText
  0
TEXT
  5
2B7
330
1D
100
AcDbEntity
  8
文字
  6
Continuous
100
AcDbText
 10
-129.55
 20
100.675
 30
0.0
 40
3.0
  1
アンカー数量　１８ヶ所
  7
TextStyle03
 72
     5
 11
-92.8
 21
100.675
 31
0.0
100
AcDbText
  0
TEXT
  5
2B8
330
1D
100
AcDbEntity
  8
文字
  6
Continuous
100
AcDbText
 10
77.65000000000001
 20
104.325
 30
0.0
 40
5.0
  1
ＮＳコード：ＮＳＫＬ
  7
TextStyle03
 72
     5
 11
133.275
 21
104.325
 31
0.0
100
AcDbText
  0
TEXT
  5
2B9
330
1D
100
AcDbEntity
  8
文字
  6
Continuous
100
AcDbText
 10
78.09999999999999
 20
125.25
 30
0.0
 40
5.0
  1
シリーズ：ＴＤ１ＫＬ
  7
TextStyle03
 72
     5
 11
133.725
 21
125.25
 31
0.0
100
AcDbText
  0
TEXT
  5
2BA
330
1D
100
AcDbEntity
  8
文字
  6
Continuous
100
AcDbText
 10
78.09999999999999
 20
119.625
 30
0.0
 40
5.0
  1
　　　　　（固定）2000×4000タイプ
  7
TextStyle03
 72
     5
 11
173.1
 21
119.625
 31
0.0
100
AcDbText
  0
TEXT
  5
2BB
330
1D
100
AcDbEntity
  8
文字
  6
Continuous
100
AcDbText
 10
78.09999999999999
 20
114.0
 30
0.0
 40
5.0
  1
図面名　：外観姿図
  7
TextStyle03
 72
     5
 11
128.1
 21
114.0
 31
0.0
100
AcDbText
  0
TEXT
  5
2BC
330
1D
100
AcDbEntity
  8
文字
  6
Continuous
100
AcDbText
 10
78.09999999999999
 20
108.375
 30
0.0
 40
5.0
  1
　　　　　　
  7
TextStyle03
 72
     5
 11
111.225
 21
108.375
 31
0.0
100
AcDbText
  0
INSERT
  5
2BD
330
1D
100
AcDbEntity
  8
寸法
  6
Continuous
100
AcDbBlockReference
  2
*U1
 10
0.0
 20
0.0
 30
0.0
  0
INSERT
  5
2BE
330
1D
100
AcDbEntity
  8
寸法
  6
Continuous
100
AcDbBlockReference
  2
*U2
 10
0.0
 20
0.0
 30
0.0
  0
INSERT
  5
2BF
330
1D
100
AcDbEntity
  8
寸法
  6
Continuous
100
AcDbBlockReference
  2
*U4
 10
0.0
 20
0.0
 30
0.0
  0
INSERT
  5
2C0
330
1D
100
AcDbEntity
  8
寸法
  6
Continuous
100
AcDbBlockReference
  2
*U5
 10
0.0
 20
0.0
 30
0.0
  0
INSERT
  5
2C1
330
1D
100
AcDbEntity
  8
寸法
  6
Continuous
100
AcDbBlockReference
  2
*U6
 10
0.0
 20
0.0
 30
0.0
  0
INSERT
  5
2C2
330
1D
100
AcDbEntity
  8
寸法
  6
Continuous
100
AcDbBlockReference
  2
*U7
 10
0.0
 20
0.0
 30
0.0
  0
INSERT
  5
2C3
330
1D
100
AcDbEntity
  8
寸法
  6
Continuous
100
AcDbBlockReference
  2
*U8
 10
0.0
 20
0.0
 30
0.0
  0
INSERT
  5
2C4
330
1D
100
AcDbEntity
  8
寸法
  6
Continuous
100
AcDbBlockReference
  2
*U9
 10
0.0
 20
0.0
 30
0.0
  0
INSERT
  5
2C5
330
1D
100
AcDbEntity
  8
寸法
  6
Continuous
100
AcDbBlockReference
  2
*U10
 10
0.0
 20
0.0
 30
0.0
  0
INSERT
  5
2C6
330
1D
100
AcDbEntity
  8
寸法
  6
Continuous
100
AcDbBlockReference
  2
*U11
 10
0.0
 20
0.0
 30
0.0
  0
INSERT
  5
2C7
330
1D
100
AcDbEntity
  8
寸法
  6
Continuous
100
AcDbBlockReference
  2
*U12
 10
0.0
 20
0.0
 30
0.0
  0
INSERT
  5
2C8
330
1D
100
AcDbEntity
  8
寸法
  6
Continuous
100
AcDbBlockReference
  2
*U13
 10
0.0
 20
0.0
 30
0.0
  0
INSERT
  5
2C9
330
1D
100
AcDbEntity
  8
寸法
  6
Continuous
100
AcDbBlockReference
  2
*U14
 10
0.0
 20
0.0
 30
0.0
  0
INSERT
  5
2CA
330
1D
100
AcDbEntity
  8
寸法
  6
Continuous
100
AcDbBlockReference
  2
*U15
 10
0.0
 20
0.0
 30
0.0
  0
INSERT
  5
2CB
330
1D
100
AcDbEntity
  8
寸法
  6
Continuous
100
AcDbBlockReference
  2
*U16
 10
0.0
 20
0.0
 30
0.0
  0
INSERT
  5
2CC
330
1D
100
AcDbEntity
  8
寸法
  6
Continuous
100
AcDbBlockReference
  2
*U17
 10
0.0
 20
0.0
 30
0.0
  0
INSERT
  5
2CD
330
1D
100
AcDbEntity
  8
寸法
  6
Continuous
100
AcDbBlockReference
  2
*U18
 10
0.0
 20
0.0
 30
0.0
  0
INSERT
  5
2CE
330
1D
100
AcDbEntity
  8
寸法
  6
Continuous
100
AcDbBlockReference
  2
*U19
 10
0.0
 20
0.0
 30
0.0
  0
INSERT
  5
2CF
330
1D
100
AcDbEntity
  8
寸法
  6
Continuous
100
AcDbBlockReference
  2
*U20
 10
0.0
 20
0.0
 30
0.0
  0
INSERT
  5
2D0
330
1D
100
AcDbEntity
  8
寸法
  6
Continuous
100
AcDbBlockReference
  2
*U21
 10
0.0
 20
0.0
 30
0.0
  0
LINE
  5
2D1
330
1D
100
AcDbEntity
  8
別途部材
  6
Continuous
100
AcDbLine
 10
47.646443
 20
-3.97671
 30
0.0
 11
47.246443
 21
-3.57671
 31
0.0
  0
LINE
  5
2D2
330
1D
100
AcDbEntity
  8
別途部材
  6
Continuous
100
AcDbLine
 10
45.579775
 20
-1.910042
 30
0.0
 11
37.52052
 21
6.149215
 31
0.0
  0
LINE
  5
2D3
330
1D
100
AcDbEntity
  8
別途部材
  6
Continuous
100
AcDbLine
 10
47.646443
 20
-3.97671
 30
0.0
 11
47.646443
 21
31.423293
 31
0.0
  0
LINE
  5
2D4
330
1D
100
AcDbEntity
  8
別途部材
  6
Continuous
100
AcDbLine
 10
47.246443
 20
-3.57671
 30
0.0
 11
47.246443
 21
31.423293
 31
0.0
  0
LINE
  5
2D5
330
1D
100
AcDbEntity
  8
別途部材
  6
Continuous
100
AcDbLine
 10
47.646443
 20
66.823295
 30
0.0
 11
47.246443
 21
66.423295
 31
0.0
  0
LINE
  5
2D6
330
1D
100
AcDbEntity
  8
別途部材
  6
Continuous
100
AcDbLine
 10
45.579775
 20
64.756627
 30
0.0
 11
37.52052
 21
56.69737
 31
0.0
  0
LINE
  5
2D7
330
1D
100
AcDbEntity
  8
別途部材
  6
Continuous
100
AcDbLine
 10
47.646443
 20
66.823295
 30
0.0
 11
47.646443
 21
31.423293
 31
0.0
  0
LINE
  5
2D8
330
1D
100
AcDbEntity
  8
別途部材
  6
Continuous
100
AcDbLine
 10
47.246443
 20
66.423295
 30
0.0
 11
47.246443
 21
31.423293
 31
0.0
  0
LINE
  5
2D9
330
1D
100
AcDbEntity
  8
別途部材
  6
Continuous
100
AcDbLine
 10
47.646443
 20
-3.97671
 30
0.0
 11
-21.086892
 21
-3.97671
 31
0.0
  0
LINE
  5
2DA
330
1D
100
AcDbEntity
  8
別途部材
  6
Continuous
100
AcDbLine
 10
47.246443
 20
-3.57671
 30
0.0
 11
-21.086892
 21
-3.57671
 31
0.0
  0
LINE
  5
2DB
330
1D
100
AcDbEntity
  8
別途部材
  6
Continuous
100
AcDbLine
 10
47.246443
 20
66.423295
 30
0.0
 11
-21.086892
 21
66.423295
 31
0.0
  0
LINE
  5
2DC
330
1D
100
AcDbEntity
  8
別途部材
  6
Continuous
100
AcDbLine
 10
47.646443
 20
66.823295
 30
0.0
 11
-21.086892
 21
66.823295
 31
0.0
  0
LINE
  5
2DD
330
1D
100
AcDbEntity
  8
別途部材
  6
Continuous
100
AcDbLine
 10
-89.820227
 20
-3.97671
 30
0.0
 11
-89.420227
 21
-3.57671
 31
0.0
  0
LINE
  5
2DE
330
1D
100
AcDbEntity
  8
別途部材
  6
Continuous
100
AcDbLine
 10
-87.75355999999999
 20
-1.910042
 30
0.0
 11
-79.694305
 21
6.149215
 31
0.0
  0
LINE
  5
2DF
330
1D
100
AcDbEntity
  8
別途部材
  6
Continuous
100
AcDbLine
 10
-89.820227
 20
-3.97671
 30
0.0
 11
-89.820227
 21
31.423293
 31
0.0
  0
LINE
  5
2E0
330
1D
100
AcDbEntity
  8
別途部材
  6
Continuous
100
AcDbLine
 10
-89.420227
 20
-3.57671
 30
0.0
 11
-89.420227
 21
31.423293
 31
0.0
  0
LINE
  5
2E1
330
1D
100
AcDbEntity
  8
別途部材
  6
Continuous
100
AcDbLine
 10
-89.820227
 20
66.823295
 30
0.0
 11
-89.420227
 21
66.423295
 31
0.0
  0
LINE
  5
2E2
330
1D
100
AcDbEntity
  8
別途部材
  6
Continuous
100
AcDbLine
 10
-87.75355999999999
 20
64.756627
 30
0.0
 11
-79.694305
 21
56.69737
 31
0.0
  0
LINE
  5
2E3
330
1D
100
AcDbEntity
  8
別途部材
  6
Continuous
100
AcDbLine
 10
-89.820227
 20
66.823295
 30
0.0
 11
-89.820227
 21
31.423293
 31
0.0
  0
LINE
  5
2E4
330
1D
100
AcDbEntity
  8
別途部材
  6
Continuous
100
AcDbLine
 10
-89.420227
 20
66.423295
 30
0.0
 11
-89.420227
 21
31.423293
 31
0.0
  0
LINE
  5
2E5
330
1D
100
AcDbEntity
  8
別途部材
  6
Continuous
100
AcDbLine
 10
-89.820227
 20
-3.97671
 30
0.0
 11
-21.086892
 21
-3.97671
 31
0.0
  0
LINE
  5
2E6
330
1D
100
AcDbEntity
  8
別途部材
  6
Continuous
100
AcDbLine
 10
-89.420227
 20
-3.57671
 30
0.0
 11
-21.086892
 21
-3.57671
 31
0.0
  0
LINE
  5
2E7
330
1D
100
AcDbEntity
  8
別途部材
  6
Continuous
100
AcDbLine
 10
-89.420227
 20
66.423295
 30
0.0
 11
-21.086892
 21
66.423295
 31
0.0
  0
LINE
  5
2E8
330
1D
100
AcDbEntity
  8
別途部材
  6
Continuous
100
AcDbLine
 10
-89.820227
 20
66.823295
 30
0.0
 11
-21.086892
 21
66.823295
 31
0.0
  0
LINE
  5
2E9
330
1D
100
AcDbEntity
  8
別途部材
  6
Continuous
 62
    96
100
AcDbLine
 10
135.11304
 20
-3.57671
 30
0.0
 11
136.11304
 21
-3.97671
 31
0.0
  0
ARC
  5
2EA
330
1D
100
AcDbEntity
  8
別途部材
  6
Continuous
100
AcDbCircle
 10
160.113036
 20
31.42329
 30
0.0
 40
41.666665
100
AcDbArc
 50
180.0
 51
233.130105
  0
ARC
  5
2EB
330
1D
100
AcDbEntity
  8
別途部材
  6
Continuous
100
AcDbCircle
 10
160.113036
 20
31.423291
 30
0.0
 40
41.666665
100
AcDbArc
 50
126.869895
 51
180.0
  0
LINE
  5
2EC
330
1D
100
AcDbEntity
  8
別途部材
  6
Continuous
100
AcDbLine
 10
136.11304
 20
-3.97671
 30
0.0
 11
136.11304
 21
31.42329
 31
0.0
  0
LINE
  5
2ED
330
1D
100
AcDbEntity
  8
別途部材
  6
Continuous
 62
    96
100
AcDbLine
 10
135.11304
 20
-3.57671
 30
0.0
 11
135.11304
 21
31.42329
 31
0.0
  0
LINE
  5
2EE
330
1D
100
AcDbEntity
  8
別途部材
  6
Continuous
 62
    96
100
AcDbLine
 10
135.11304
 20
66.42328999999999
 30
0.0
 11
136.11304
 21
66.82329
 31
0.0
  0
LINE
  5
2EF
330
1D
100
AcDbEntity
  8
別途部材
  6
Continuous
100
AcDbLine
 10
136.11304
 20
66.82329
 30
0.0
 11
136.11304
 21
31.42329
 31
0.0
  0
LINE
  5
2F0
330
1D
100
AcDbEntity
  8
別途部材
  6
Continuous
 62
    96
100
AcDbLine
 10
135.11304
 20
66.42328999999999
 30
0.0
 11
135.11304
 21
31.42329
 31
0.0
  0
INSERT
  5
2F1
330
1D
100
AcDbEntity
  8
別途部材
  6
Continuous
100
AcDbBlockReference
  2
*U3
 10
0.0
 20
0.0
 30
0.0
  0
INSERT
  5
2F2
330
1D
100
AcDbEntity
  8
別途部材
  6
DOT
100
AcDbBlockReference
  2
*U22
 10
0.0
 20
0.0
 30
0.0
  0
INSERT
  5
2F3
330
1D
100
AcDbEntity
  8
別途部材
  6
DOT
100
AcDbBlockReference
  2
*U23
 10
0.0
 20
0.0
 30
0.0
  0
INSERT
  5
2F4
330
1D
100
AcDbEntity
  8
別途部材
  6
DOT
100
AcDbBlockReference
  2
*U24
 10
0.0
 20
0.0
 30
0.0
  0
INSERT
  5
2F5
330
1D
100
AcDbEntity
  8
別途部材
  6
DOT
100
AcDbBlockReference
  2
*U25
 10
0.0
 20
0.0
 30
0.0
  0
LINE
  5
2F6
330
1D
100
AcDbEntity
  8
曲げ物
  6
Continuous
100
AcDbLine
 10
123.087835
 20
-49.367047
 30
0.0
 11
123.087835
 21
-82.00038000000001
 31
0.0
  0
LINE
  5
2F7
330
1D
100
AcDbEntity
  8
曲げ物
  6
Continuous
100
AcDbLine
 10
155.537835
 20
-82.00038000000001
 30
0.0
 11
123.087835
 21
-82.00038000000001
 31
0.0
  0
LINE
  5
2F8
330
1D
100
AcDbEntity
  8
曲げ物
  6
Continuous
100
AcDbLine
 10
155.537835
 20
-82.00038000000001
 30
0.0
 11
155.537835
 21
-49.367047
 31
0.0
  0
LINE
  5
2F9
330
1D
100
AcDbEntity
  8
曲げ物
  6
Continuous
100
AcDbLine
 10
123.087835
 20
-49.367047
 30
0.0
 11
155.537835
 21
-49.367047
 31
0.0
  0
ENDSEC
  0
SECTION
  2
OBJECTS
  0
DICTIONARY
  5
C
330
0
100
AcDbDictionary
281
     1
  3
ACAD_GROUP
350
D
  3
ACAD_LAYOUT
350
1A
  3
ACAD_MLINESTYLE
350
17
  3
ACAD_PLOTSETTINGS
350
19
  3
ACAD_PLOTSTYLENAME
350
E
  0
DICTIONARY
  5
D
102
{ACAD_REACTORS
330
C
102
}
330
C
100
AcDbDictionary
281
     1
  0
DICTIONARY
  5
1A
102
{ACAD_REACTORS
330
C
102
}
330
C
100
AcDbDictionary
281
     1
  3
Layout1
350
1C
  3
Model
350
1E
  0
DICTIONARY
  5
17
102
{ACAD_REACTORS
330
C
102
}
330
C
100
AcDbDictionary
281
     1
  3
Standard
350
18
  0
DICTIONARY
  5
19
102
{ACAD_REACTORS
330
C
102
}
330
C
100
AcDbDictionary
281
     1
  0
ACDBDICTIONARYWDFLT
  5
E
102
{ACAD_REACTORS
330
C
102
}
330
C
100
AcDbDictionary
281
     1
  3
Normal
350
F
100
AcDbDictionaryWithDefault
340
F
  0
LAYOUT
  5
1C
102
{ACAD_REACTORS
330
1A
102
}
330
1A
100
AcDbPlotSettings
  1

  2

  4

  6

 40
0.0
 41
0.0
 42
0.0
 43
0.0
 44
0.0
 45
0.0
 46
0.0
 47
0.0
 48
0.0
 49
0.0
140
0.0
141
0.0
142
1.0
143
1.0
 70
   688
 72
     0
 73
     0
 74
     5
  7

 75
    16
 76
     0
 77
     2
 78
   300
147
1.0
148
0.0
149
0.0
100
AcDbLayout
  1
Layout1
 70
     1
 71
     1
 10
0.0
 20
0.0
 11
12.0
 21
9.0
 12
0.0
 22
0.0
 32
0.0
 14
1.000000000000000E+20
 24
1.000000000000000E+20
 34
1.000000000000000E+20
 15
-1.000000000000000E+20
 25
-1.000000000000000E+20
 35
-1.000000000000000E+20
146
0.0
 13
0.0
 23
0.0
 33
0.0
 16
1.0
 26
0.0
 36
0.0
 17
0.0
 27
1.0
 37
0.0
 76
     0
330
1B
  0
LAYOUT
  5
1E
102
{ACAD_REACTORS
330
1A
102
}
330
1A
100
AcDbPlotSettings
  1

  2

  4

  6

 40
0.0
 41
0.0
 42
0.0
 43
0.0
 44
0.0
 45
0.0
 46
0.0
 47
0.0
 48
0.0
 49
0.0
140
0.0
141
0.0
142
1.0
143
1.0
 70
  1712
 72
     0
 73
     0
 74
     0
  7

 75
     0
 76
     0
 77
     2
 78
   300
147
1.0
148
0.0
149
0.0
100
AcDbLayout
  1
Model
 70
     1
 71
     0
 10
0.0
 20
0.0
 11
0.0
 21
0.0
 12
0.0
 22
0.0
 32
0.0
 14
-210.0
 24
-148.5
 34
0.0
 15
210.0
 25
148.5
 35
0.0
146
0.0
 13
0.0
 23
0.0
 33
0.0
 16
1.0
 26
0.0
 36
0.0
 17
0.0
 27
1.0
 37
0.0
 76
     0
330
1D
  0
MLINESTYLE
  5
18
102
{ACAD_REACTORS
330
17
102
}
330
17
100
AcDbMlineStyle
  2
Standard
 70
     0
  3

 62
   256
 51
90.0
 52
90.0
 71
     2
 49
0.5
 62
   256
  6
BYLAYER
 49
-0.5
 62
   256
  6
BYLAYER
  0
ACDBPLACEHOLDER
  5
F
102
{ACAD_REACTORS
330
E
102
}
330
E
  0
ENDSEC
  0
EOF
