  0
SECTION
  2
HEADER
  9
$ACADVER
  1
AC1018
  9
$ACADMAINTVER
 70
     0
  9
$DWGCODEPAGE
  3
ANSI_932
  9
$INSBASE
 10
0.0
 20
0.0
 30
0.0
  9
$EXTMIN
 10
-210.0
 20
-148.5
 30
0.0
  9
$EXTMAX
 10
210.0
 20
148.5
 30
0.0
  9
$LIMMIN
 10
0.0
 20
0.0
  9
$LIMMAX
 10
12.0
 20
9.0
  9
$ORTHOMODE
 70
     0
  9
$REGENMODE
 70
     1
  9
$FILLMODE
 70
     1
  9
$QTEXTMODE
 70
     0
  9
$MIRRTEXT
 70
     1
  9
$LTSCALE
 40
10.0
  9
$ATTMODE
 70
     1
  9
$TEXTSIZE
 40
0.2
  9
$TRACEWID
 40
0.05
  9
$TEXTSTYLE
  7
STANDARD
  9
$CLAYER
  8
0
  9
$CELTYPE
  6
ByBlock
  9
$CECOLOR
 62
   256
  9
$CELTSCALE
 40
1.0
  9
$DISPSILH
 70
     0
  9
$DIMSCALE
 40
1.0
  9
$DIMASZ
 40
0.18
  9
$DIMEXO
 40
0.0625
  9
$DIMDLI
 40
0.38
  9
$DIMRND
 40
0.0
  9
$DIMDLE
 40
0.0
  9
$DIMEXE
 40
0.18
  9
$DIMTP
 40
0.0
  9
$DIMTM
 40
0.0
  9
$DIMTXT
 40
0.18
  9
$DIMCEN
 40
0.09
  9
$DIMTSZ
 40
0.0
  9
$DIMTOL
 70
     0
  9
$DIMLIM
 70
     0
  9
$DIMTIH
 70
     1
  9
$DIMTOH
 70
     1
  9
$DIMSE1
 70
     0
  9
$DIMSE2
 70
     0
  9
$DIMTAD
 70
     0
  9
$DIMZIN
 70
     0
  9
$DIMBLK
  1

  9
$DIMASO
 70
     1
  9
$DIMSHO
 70
     1
  9
$DIMPOST
  1

  9
$DIMAPOST
  1

  9
$DIMALT
 70
     0
  9
$DIMALTD
 70
     2
  9
$DIMALTF
 40
25.4
  9
$DIMLFAC
 40
1.0
  9
$DIMTOFL
 70
     0
  9
$DIMTVP
 40
0.0
  9
$DIMTIX
 70
     0
  9
$DIMSOXD
 70
     0
  9
$DIMSAH
 70
     0
  9
$DIMBLK1
  1

  9
$DIMBLK2
  1

  9
$DIMSTYLE
  2
Standard
  9
$DIMCLRD
 70
     0
  9
$DIMCLRE
 70
     0
  9
$DIMCLRT
 70
     0
  9
$DIMTFAC
 40
1.0
  9
$DIMGAP
 40
0.09
  9
$DIMJUST
 70
     0
  9
$DIMSD1
 70
     0
  9
$DIMSD2
 70
     0
  9
$DIMTOLJ
 70
     1
  9
$DIMTZIN
 70
     0
  9
$DIMALTZ
 70
     0
  9
$DIMALTTZ
 70
     0
  9
$DIMUPT
 70
     0
  9
$DIMDEC
 70
     4
  9
$DIMTDEC
 70
     4
  9
$DIMALTU
 70
     2
  9
$DIMALTTD
 70
     2
  9
$DIMTXSTY
  7
STANDARD
  9
$DIMAUNIT
 70
     0
  9
$DIMADEC
 70
     0
  9
$DIMALTRND
 40
0.0
  9
$DIMAZIN
 70
     0
  9
$DIMDSEP
 70
    46
  9
$DIMATFIT
 70
     3
  9
$DIMFRAC
 70
     0
  9
$DIMLDRBLK
  1

  9
$DIMLUNIT
 70
     2
  9
$DIMLWD
 70
    -2
  9
$DIMLWE
 70
    -2
  9
$DIMTMOVE
 70
     0
  9
$LUNITS
 70
     2
  9
$LUPREC
 70
     4
  9
$SKETCHINC
 40
0.1
  9
$FILLETRAD
 40
0.5
  9
$AUNITS
 70
     0
  9
$AUPREC
 70
     0
  9
$MENU
  1
.
  9
$ELEVATION
 40
0.0
  9
$PELEVATION
 40
0.0
  9
$THICKNESS
 40
0.0
  9
$LIMCHECK
 70
     0
  9
$CHAMFERA
 40
0.5
  9
$CHAMFERB
 40
0.5
  9
$CHAMFERC
 40
1.0
  9
$CHAMFERD
 40
0.0
  9
$SKPOLY
 70
     0
  9
$TDCREATE
 40
2460242.406054386
  9
$TDUCREATE
 40
2460242.031054386
  9
$TDUPDATE
 40
2460242.406054398
  9
$TDUUPDATE
 40
2460242.031054398
  9
$TDINDWG
 40
0.0000000116
  9
$TDUSRTIMER
 40
0.0000000116
  9
$USRTIMER
 70
     1
  9
$ANGBASE
 50
0.0
  9
$ANGDIR
 70
     0
  9
$PDMODE
 70
    32
  9
$PDSIZE
 40
1.5
  9
$PLINEWID
 40
0.0
  9
$SPLFRAME
 70
     0
  9
$SPLINETYPE
 70
     6
  9
$SPLINESEGS
 70
     8
  9
$HANDSEED
  5
995
  9
$SURFTAB1
 70
     6
  9
$SURFTAB2
 70
     6
  9
$SURFTYPE
 70
     6
  9
$SURFU
 70
     6
  9
$SURFV
 70
     6
  9
$UCSBASE
  2

  9
$UCSNAME
  2

  9
$UCSORG
 10
0.0
 20
0.0
 30
0.0
  9
$UCSXDIR
 10
1.0
 20
0.0
 30
0.0
  9
$UCSYDIR
 10
0.0
 20
1.0
 30
0.0
  9
$UCSORTHOREF
  2

  9
$UCSORTHOVIEW
 70
     0
  9
$UCSORGTOP
 10
0.0
 20
0.0
 30
0.0
  9
$UCSORGBOTTOM
 10
0.0
 20
0.0
 30
0.0
  9
$UCSORGLEFT
 10
0.0
 20
0.0
 30
0.0
  9
$UCSORGRIGHT
 10
0.0
 20
0.0
 30
0.0
  9
$UCSORGFRONT
 10
0.0
 20
0.0
 30
0.0
  9
$UCSORGBACK
 10
0.0
 20
0.0
 30
0.0
  9
$PUCSBASE
  2

  9
$PUCSNAME
  2

  9
$PUCSORG
 10
0.0
 20
0.0
 30
0.0
  9
$PUCSXDIR
 10
1.0
 20
0.0
 30
0.0
  9
$PUCSYDIR
 10
0.0
 20
1.0
 30
0.0
  9
$PUCSORTHOREF
  2

  9
$PUCSORTHOVIEW
 70
     0
  9
$PUCSORGTOP
 10
0.0
 20
0.0
 30
0.0
  9
$PUCSORGBOTTOM
 10
0.0
 20
0.0
 30
0.0
  9
$PUCSORGLEFT
 10
0.0
 20
0.0
 30
0.0
  9
$PUCSORGRIGHT
 10
0.0
 20
0.0
 30
0.0
  9
$PUCSORGFRONT
 10
0.0
 20
0.0
 30
0.0
  9
$PUCSORGBACK
 10
0.0
 20
0.0
 30
0.0
  9
$USERI1
 70
     0
  9
$USERI2
 70
     0
  9
$USERI3
 70
     0
  9
$USERI4
 70
     0
  9
$USERI5
 70
     0
  9
$USERR1
 40
0.0
  9
$USERR2
 40
0.0
  9
$USERR3
 40
0.0
  9
$USERR4
 40
0.0
  9
$USERR5
 40
0.0
  9
$WORLDVIEW
 70
     1
  9
$SHADEDGE
 70
     3
  9
$SHADEDIF
 70
    70
  9
$TILEMODE
 70
     1
  9
$MAXACTVP
 70
    64
  9
$PINSBASE
 10
0.0
 20
0.0
 30
0.0
  9
$PLIMCHECK
 70
     0
  9
$PEXTMIN
 10
1.000000000000000E+20
 20
1.000000000000000E+20
 30
1.000000000000000E+20
  9
$PEXTMAX
 10
-1.000000000000000E+20
 20
-1.000000000000000E+20
 30
-1.000000000000000E+20
  9
$PLIMMIN
 10
0.0
 20
0.0
  9
$PLIMMAX
 10
12.0
 20
9.0
  9
$UNITMODE
 70
     0
  9
$VISRETAIN
 70
     1
  9
$PLINEGEN
 70
     0
  9
$PSLTSCALE
 70
     1
  9
$TREEDEPTH
 70
  3020
  9
$CMLSTYLE
  2
Standard
  9
$CMLJUST
 70
     0
  9
$CMLSCALE
 40
1.0
  9
$PROXYGRAPHICS
 70
     1
  9
$MEASUREMENT
 70
     0
  9
$CELWEIGHT
370
    -1
  9
$ENDCAPS
280
     0
  9
$JOINSTYLE
280
     0
  9
$LWDISPLAY
290
     0
  9
$INSUNITS
 70
     0
  9
$HYPERLINKBASE
  1

  9
$STYLESHEET
  1

  9
$XEDIT
290
     1
  9
$CEPSNTYPE
380
     0
  9
$PSTYLEMODE
290
     1
  9
$FINGERPRINTGUID
  2
{EE9F17A5-8FC2-4A8E-ADF9-02FA72754745}
  9
$VERSIONGUID
  2
{FAEB1C32-E019-11D5-929B-00C0DF256EC4}
  9
$EXTNAMES
290
     1
  9
$PSVPSCALE
 40
0.0
  9
$OLESTARTUP
290
     0
  9
$SORTENTS
280
   127
  9
$INDEXCTL
280
     0
  9
$HIDETEXT
280
     1
  9
$XCLIPFRAME
290
     0
  9
$HALOGAP
280
     0
  9
$OBSCOLOR
 70
   257
  9
$OBSLTYPE
280
     0
  9
$INTERSECTIONDISPLAY
280
     0
  9
$INTERSECTIONCOLOR
 70
   257
  9
$DIMASSOC
280
     2
  9
$PROJECTNAME
  1

  0
ENDSEC
  0
SECTION
  2
CLASSES
  0
CLASS
  1
ACDBDICTIONARYWDFLT
  2
AcDbDictionaryWithDefault
  3
ObjectDBX Classes
 90
        0
 91
        3
280
     0
281
     0
  0
ENDSEC
  0
SECTION
  2
TABLES
  0
TABLE
  2
VPORT
  5
8
330
0
100
AcDbSymbolTable
 70
     1
  0
VPORT
  5
990
330
8
100
AcDbSymbolTableRecord
100
AcDbViewportTableRecord
  2
*Active
 70
     0
 10
0.0
 20
0.0
 11
1.0
 21
1.0
 12
10.42990654205607
 22
4.5
 13
0.0
 23
0.0
 14
0.5
 24
0.5
 15
0.5
 25
0.5
 16
0.0
 26
0.0
 36
1.0
 17
0.0
 27
0.0
 37
0.0
 40
9.0
 41
1.972972972850329
 42
50.0
 43
0.0
 44
0.0
 50
0.0
 51
0.0
 71
     0
 72
   100
 73
     1
 74
     3
 75
     0
 76
     0
 77
     0
 78
     0
281
     0
 65
     1
110
0.0
120
0.0
130
0.0
111
1.0
121
0.0
131
0.0
112
0.0
122
1.0
132
0.0
 79
     0
146
0.0
  0
ENDTAB
  0
TABLE
  2
LTYPE
  5
5
330
0
100
AcDbSymbolTable
 70
     9
  0
LTYPE
  5
14
330
5
100
AcDbSymbolTableRecord
100
AcDbLinetypeTableRecord
  2
ByBlock
 70
     0
  3

 72
    65
 73
     0
 40
0.0
  0
LTYPE
  5
15
330
5
100
AcDbSymbolTableRecord
100
AcDbLinetypeTableRecord
  2
ByLayer
 70
     0
  3

 72
    65
 73
     0
 40
0.0
  0
LTYPE
  5
16
330
5
100
AcDbSymbolTableRecord
100
AcDbLinetypeTableRecord
  2
CONTINUOUS
 70
     0
  3
実線
 72
    65
 73
     0
 40
0.0
  0
LTYPE
  5
21
330
5
100
AcDbSymbolTableRecord
100
AcDbLinetypeTableRecord
  2
DASHED
 70
     0
  3
破線A
 72
    65
 73
     2
 40
0.6000000000000001
 49
0.4
 74
     0
 49
-0.2
 74
     0
  0
LTYPE
  5
22
330
5
100
AcDbSymbolTableRecord
100
AcDbLinetypeTableRecord
  2
DASHEDX2
 70
     0
  3
破線B
 72
    65
 73
     2
 40
1.3
 49
0.9
 74
     0
 49
-0.4
 74
     0
  0
LTYPE
  5
23
330
5
100
AcDbSymbolTableRecord
100
AcDbLinetypeTableRecord
  2
DASHDOT
 70
     0
  3
１点鎖線A
 72
    65
 73
     4
 40
0.5375
 49
0.375
 74
     0
 49
-0.05
 74
     0
 49
0.0625
 74
     0
 49
-0.05
 74
     0
  0
LTYPE
  5
24
330
5
100
AcDbSymbolTableRecord
100
AcDbLinetypeTableRecord
  2
DASHDOTX2
 70
     0
  3
１点鎖線B
 72
    65
 73
     4
 40
1.075
 49
0.75
 74
     0
 49
-0.1
 74
     0
 49
0.125
 74
     0
 49
-0.1
 74
     0
  0
LTYPE
  5
25
330
5
100
AcDbSymbolTableRecord
100
AcDbLinetypeTableRecord
  2
DIVIDE2
 70
     0
  3
２点鎖線A
 72
    65
 73
     6
 40
0.5125
 49
0.3
 74
     0
 49
-0.0375
 74
     0
 49
0.05
 74
     0
 49
-0.0375
 74
     0
 49
0.05
 74
     0
 49
-0.0375
 74
     0
  0
LTYPE
  5
26
330
5
100
AcDbSymbolTableRecord
100
AcDbLinetypeTableRecord
  2
DIVIDE
 70
     0
  3
２点鎖線B
 72
    65
 73
     6
 40
1.05
 49
0.55
 74
     0
 49
-0.1
 74
     0
 49
0.1
 74
     0
 49
-0.1
 74
     0
 49
0.1
 74
     0
 49
-0.1
 74
     0
  0
LTYPE
  5
27
330
5
100
AcDbSymbolTableRecord
100
AcDbLinetypeTableRecord
  2
DOT
 70
     0
  3
点線A
 72
    65
 73
     2
 40
0.1125
 49
0.0625
 74
     0
 49
-0.05
 74
     0
  0
LTYPE
  5
28
330
5
100
AcDbSymbolTableRecord
100
AcDbLinetypeTableRecord
  2
DOTX2
 70
     0
  3
点線B
 72
    65
 73
     2
 40
0.275
 49
0.15
 74
     0
 49
-0.125
 74
     0
  0
ENDTAB
  0
TABLE
  2
LAYER
  5
2
330
0
100
AcDbSymbolTable
 70
    35
  0
LAYER
  5
10
330
2
100
AcDbSymbolTableRecord
100
AcDbLayerTableRecord
  2
0
 70
     0
 62
    17
  6
CONTINUOUS
370
    -3
390
F
  0
LAYER
  5
2F
330
2
100
AcDbSymbolTableRecord
100
AcDbLayerTableRecord
  2
通り芯
 70
     0
 62
    15
  6
CONTINUOUS
370
    -3
390
F
  0
LAYER
  5
30
330
2
100
AcDbSymbolTableRecord
100
AcDbLayerTableRecord
  2
補助線
 70
     0
 62
    16
  6
DOT
370
    -3
390
F
  0
LAYER
  5
31
330
2
100
AcDbSymbolTableRecord
100
AcDbLayerTableRecord
  2
躯体
 70
     0
 62
    31
  6
CONTINUOUS
370
    -3
390
F
  0
LAYER
  5
32
330
2
100
AcDbSymbolTableRecord
100
AcDbLayerTableRecord
  2
型材
 70
     0
 62
    32
  6
CONTINUOUS
370
    -3
390
F
  0
LAYER
  5
33
330
2
100
AcDbSymbolTableRecord
100
AcDbLayerTableRecord
  2
型材断面
 70
     0
 62
    47
  6
CONTINUOUS
370
    -3
390
F
  0
LAYER
  5
34
330
2
100
AcDbSymbolTableRecord
100
AcDbLayerTableRecord
  2
ガラス
 70
     0
 62
    48
  6
CONTINUOUS
370
    -3
390
F
  0
LAYER
  5
35
330
2
100
AcDbSymbolTableRecord
100
AcDbLayerTableRecord
  2
ゴム等
 70
     0
 62
    63
  6
CONTINUOUS
370
    -3
390
F
  0
LAYER
  5
36
330
2
100
AcDbSymbolTableRecord
100
AcDbLayerTableRecord
  2
ボルト／ビス
 70
     0
 62
    64
  6
CONTINUOUS
370
    -3
390
F
  0
LAYER
  5
37
330
2
100
AcDbSymbolTableRecord
100
AcDbLayerTableRecord
  2
文字
 70
     0
 62
    79
  6
CONTINUOUS
370
    -3
390
F
  0
LAYER
  5
38
330
2
100
AcDbSymbolTableRecord
100
AcDbLayerTableRecord
  2
寸法
 70
     0
 62
    80
  6
CONTINUOUS
370
    -3
390
F
  0
LAYER
  5
39
330
2
100
AcDbSymbolTableRecord
100
AcDbLayerTableRecord
  2
ﾊｯﾁﾝｸﾞ
 70
     0
 62
    95
  6
CONTINUOUS
370
    -3
390
F
  0
LAYER
  5
3A
330
2
100
AcDbSymbolTableRecord
100
AcDbLayerTableRecord
  2
別途部材
 70
     0
 62
    96
  6
CONTINUOUS
370
    -3
390
F
  0
LAYER
  5
3B
330
2
100
AcDbSymbolTableRecord
100
AcDbLayerTableRecord
  2
曲げ物
 70
     0
 62
   111
  6
CONTINUOUS
370
    -3
390
F
  0
LAYER
  5
3C
330
2
100
AcDbSymbolTableRecord
100
AcDbLayerTableRecord
  2
鉄骨等
 70
     0
 62
   112
  6
CONTINUOUS
370
    -3
390
F
  0
LAYER
  5
3D
330
2
100
AcDbSymbolTableRecord
100
AcDbLayerTableRecord
  2
St
 70
     0
 62
   127
  6
CONTINUOUS
370
    -3
390
F
  0
LAYER
  5
3E
330
2
100
AcDbSymbolTableRecord
100
AcDbLayerTableRecord
  2
その他部品等
 70
     0
 62
   128
  6
CONTINUOUS
370
    -3
390
F
  0
LAYER
  5
3F
330
2
100
AcDbSymbolTableRecord
100
AcDbLayerTableRecord
  2
ｶﾞｽｹｯﾄ
 70
     0
 62
   143
  6
CONTINUOUS
370
    -3
390
F
  0
LAYER
  5
40
330
2
100
AcDbSymbolTableRecord
100
AcDbLayerTableRecord
  2
ｽｹｯﾁ
 70
     0
 62
    14
  6
CONTINUOUS
370
    -3
390
F
  0
LAYER
  5
42
330
2
100
AcDbSymbolTableRecord
100
AcDbLayerTableRecord
  2
1
 70
     0
 62
    30
  6
CONTINUOUS
370
    -3
390
F
  0
LAYER
  5
43
330
2
100
AcDbSymbolTableRecord
100
AcDbLayerTableRecord
  2
4
 70
     0
 62
    33
  6
CONTINUOUS
370
    -3
390
F
  0
LAYER
  5
44
330
2
100
AcDbSymbolTableRecord
100
AcDbLayerTableRecord
  2
ﾚｲﾔ3
 70
     0
 62
    46
  6
CONTINUOUS
370
    -3
390
F
  0
LAYER
  5
45
330
2
100
AcDbSymbolTableRecord
100
AcDbLayerTableRecord
  2
外形線
 70
     0
 62
    49
  6
CONTINUOUS
370
    -3
390
F
  0
LAYER
  5
46
330
2
100
AcDbSymbolTableRecord
100
AcDbLayerTableRecord
  2
部品
 70
     0
 62
    14
  6
CONTINUOUS
370
    -3
390
F
  0
LAYER
  5
47
330
2
100
AcDbSymbolTableRecord
100
AcDbLayerTableRecord
  2
サッシ芯
 70
     0
 62
    17
  6
DASHDOTX2
370
    -3
390
F
  0
LAYER
  5
48
330
2
100
AcDbSymbolTableRecord
100
AcDbLayerTableRecord
  2
寸法線
 70
     0
 62
    62
  6
CONTINUOUS
370
    -3
390
F
  0
LAYER
  5
49
330
2
100
AcDbSymbolTableRecord
100
AcDbLayerTableRecord
  2
姿図外形線
 70
     0
 62
    65
  6
CONTINUOUS
370
    -3
390
F
  0
LAYER
  5
4A
330
2
100
AcDbSymbolTableRecord
100
AcDbLayerTableRecord
  2
姿補助線
 70
     0
 62
    30
  6
CONTINUOUS
370
    -3
390
F
  0
LAYER
  5
4B
330
2
100
AcDbSymbolTableRecord
100
AcDbLayerTableRecord
  2
透視線
 70
     0
 62
    78
  6
DOT
370
    -3
390
F
  0
LAYER
  5
4C
330
2
100
AcDbSymbolTableRecord
100
AcDbLayerTableRecord
  2
用紙
 70
     0
 62
    81
  6
CONTINUOUS
370
    -3
390
F
  0
LAYER
  5
4D
330
2
100
AcDbSymbolTableRecord
100
AcDbLayerTableRecord
  2
実線図枠
 70
     0
 62
    94
  6
CONTINUOUS
370
    -3
390
F
  0
LAYER
  5
4E
330
2
100
AcDbSymbolTableRecord
100
AcDbLayerTableRecord
  2
補助図枠
 70
     0
 62
    97
  6
CONTINUOUS
370
    -3
390
F
  0
LAYER
  5
4F
330
2
100
AcDbSymbolTableRecord
100
AcDbLayerTableRecord
  2
建具記号
 70
     0
 62
   110
  6
CONTINUOUS
370
    -3
390
F
  0
LAYER
  5
50
330
2
100
AcDbSymbolTableRecord
100
AcDbLayerTableRecord
  2
補助文字
 70
     0
 62
   113
  6
CONTINUOUS
370
    -3
390
F
  0
LAYER
  5
51
330
2
100
AcDbSymbolTableRecord
100
AcDbLayerTableRecord
  2
投影線02
 70
     0
 62
    12
  6
CONTINUOUS
370
    -3
390
F
  0
ENDTAB
  0
TABLE
  2
STYLE
  5
3
330
0
100
AcDbSymbolTable
 70
    10
  0
STYLE
  5
11
330
3
100
AcDbSymbolTableRecord
100
AcDbTextStyleTableRecord
  2
STANDARD
 70
     0
 40
1.0
 41
1.0
 50
0.0
 71
     0
 42
1.0
  3
TXT
  4
BIGFONT
  0
STYLE
  5
53
330
3
100
AcDbSymbolTableRecord
100
AcDbTextStyleTableRecord
  2
TATE
 70
     4
 40
1.0
 41
1.0
 50
0.0
 71
     0
 42
1.0
  3
TXT
  4
BIGFONT
  0
STYLE
  5
54
330
3
100
AcDbSymbolTableRecord
100
AcDbTextStyleTableRecord
  2
TextStyle03
 70
     0
 40
1.0
 41
1.0
 50
0.0
 71
     0
 42
1.0
  3
MONOTXT
  4
BIGFONT
  0
STYLE
  5
55
330
3
100
AcDbSymbolTableRecord
100
AcDbTextStyleTableRecord
  2
TextStyle04
 70
     0
 40
1.0
 41
1.0
 50
0.0
 71
     0
 42
1.0
  3
MONOTXT
  4
BIGFONT
  0
STYLE
  5
56
330
3
100
AcDbSymbolTableRecord
100
AcDbTextStyleTableRecord
  2
TextStyle05
 70
     0
 40
1.0
 41
1.0
 50
0.0
 71
     0
 42
1.0
  3
MONOTXT
  4
BIGFONT
  0
STYLE
  5
57
330
3
100
AcDbSymbolTableRecord
100
AcDbTextStyleTableRecord
  2
TextStyle06
 70
     0
 40
1.0
 41
1.0
 50
0.0
 71
     0
 42
1.0
  3
MONOTXT
  4
BIGFONT
  0
STYLE
  5
58
330
3
100
AcDbSymbolTableRecord
100
AcDbTextStyleTableRecord
  2
TextStyle07
 70
     0
 40
1.0
 41
1.0
 50
0.0
 71
     0
 42
1.0
  3
MONOTXT
  4
BIGFONT
  0
STYLE
  5
59
330
3
100
AcDbSymbolTableRecord
100
AcDbTextStyleTableRecord
  2
TextStyle08
 70
     0
 40
1.0
 41
1.0
 50
0.0
 71
     0
 42
1.0
  3
MONOTXT
  4
BIGFONT
  0
STYLE
  5
5A
330
3
100
AcDbSymbolTableRecord
100
AcDbTextStyleTableRecord
  2
TextStyle09
 70
     0
 40
1.0
 41
1.0
 50
0.0
 71
     0
 42
1.0
  3
MONOTXT
  4
BIGFONT
  0
STYLE
  5
5B
330
3
100
AcDbSymbolTableRecord
100
AcDbTextStyleTableRecord
  2
TextStyle10
 70
     0
 40
1.0
 41
1.0
 50
0.0
 71
     0
 42
1.0
  3
MONOTXT
  4
BIGFONT
  0
ENDTAB
  0
TABLE
  2
VIEW
  5
6
330
0
100
AcDbSymbolTable
 70
     0
  0
ENDTAB
  0
TABLE
  2
UCS
  5
7
330
0
100
AcDbSymbolTable
 70
     0
  0
ENDTAB
  0
TABLE
  2
APPID
  5
9
330
0
100
AcDbSymbolTable
 70
     1
  0
APPID
  5
12
330
9
100
AcDbSymbolTableRecord
100
AcDbRegAppTableRecord
  2
ACAD
 70
     0
  0
ENDTAB
  0
TABLE
  2
DIMSTYLE
  5
A
330
0
100
AcDbSymbolTable
 70
     1
100
AcDbDimStyleTable
  0
DIMSTYLE
105
5C
330
A
100
AcDbSymbolTableRecord
100
AcDbDimStyleTableRecord
  2
Standard
 70
     0
340
11
  0
ENDTAB
  0
TABLE
  2
BLOCK_RECORD
  5
1
330
0
100
AcDbSymbolTable
 70
    64
  0
BLOCK_RECORD
  5
1D
330
1
100
AcDbSymbolTableRecord
100
AcDbBlockTableRecord
  2
*Model_Space
340
1E
  0
BLOCK_RECORD
  5
1B
330
1
100
AcDbSymbolTableRecord
100
AcDbBlockTableRecord
  2
*Paper_Space
340
1C
  0
BLOCK_RECORD
  5
5E
330
1
100
AcDbSymbolTableRecord
100
AcDbBlockTableRecord
  2
*U0
340
0
102
{BLKREFS
331
8FC
102
}
  0
BLOCK_RECORD
  5
67
330
1
100
AcDbSymbolTableRecord
100
AcDbBlockTableRecord
  2
*U1
340
0
102
{BLKREFS
331
8FA
102
}
  0
BLOCK_RECORD
  5
6C
330
1
100
AcDbSymbolTableRecord
100
AcDbBlockTableRecord
  2
*U2
340
0
102
{BLKREFS
331
8FB
102
}
  0
BLOCK_RECORD
  5
71
330
1
100
AcDbSymbolTableRecord
100
AcDbBlockTableRecord
  2
*U3
340
0
102
{BLKREFS
331
90C
102
}
  0
BLOCK_RECORD
  5
8B
330
1
100
AcDbSymbolTableRecord
100
AcDbBlockTableRecord
  2
*U4
340
0
102
{BLKREFS
331
90D
102
}
  0
BLOCK_RECORD
  5
A0
330
1
100
AcDbSymbolTableRecord
100
AcDbBlockTableRecord
  2
*U5
340
0
102
{BLKREFS
331
910
102
}
  0
BLOCK_RECORD
  5
FA
330
1
100
AcDbSymbolTableRecord
100
AcDbBlockTableRecord
  2
*U6
340
0
102
{BLKREFS
331
911
102
}
  0
BLOCK_RECORD
  5
154
330
1
100
AcDbSymbolTableRecord
100
AcDbBlockTableRecord
  2
*U7
340
0
102
{BLKREFS
331
912
102
}
  0
BLOCK_RECORD
  5
1AE
330
1
100
AcDbSymbolTableRecord
100
AcDbBlockTableRecord
  2
*U8
340
0
102
{BLKREFS
331
913
102
}
  0
BLOCK_RECORD
  5
208
330
1
100
AcDbSymbolTableRecord
100
AcDbBlockTableRecord
  2
*U9
340
0
102
{BLKREFS
331
914
102
}
  0
BLOCK_RECORD
  5
262
330
1
100
AcDbSymbolTableRecord
100
AcDbBlockTableRecord
  2
*U10
340
0
102
{BLKREFS
331
915
102
}
  0
BLOCK_RECORD
  5
2BC
330
1
100
AcDbSymbolTableRecord
100
AcDbBlockTableRecord
  2
*U11
340
0
102
{BLKREFS
331
916
102
}
  0
BLOCK_RECORD
  5
316
330
1
100
AcDbSymbolTableRecord
100
AcDbBlockTableRecord
  2
*U12
340
0
102
{BLKREFS
331
917
102
}
  0
BLOCK_RECORD
  5
370
330
1
100
AcDbSymbolTableRecord
100
AcDbBlockTableRecord
  2
*U13
340
0
102
{BLKREFS
331
918
102
}
  0
BLOCK_RECORD
  5
3CA
330
1
100
AcDbSymbolTableRecord
100
AcDbBlockTableRecord
  2
*U14
340
0
102
{BLKREFS
331
919
102
}
  0
BLOCK_RECORD
  5
424
330
1
100
AcDbSymbolTableRecord
100
AcDbBlockTableRecord
  2
*U15
340
0
102
{BLKREFS
331
91A
102
}
  0
BLOCK_RECORD
  5
47E
330
1
100
AcDbSymbolTableRecord
100
AcDbBlockTableRecord
  2
*U16
340
0
102
{BLKREFS
331
91B
102
}
  0
BLOCK_RECORD
  5
4D8
330
1
100
AcDbSymbolTableRecord
100
AcDbBlockTableRecord
  2
*U17
340
0
102
{BLKREFS
331
91C
102
}
  0
BLOCK_RECORD
  5
532
330
1
100
AcDbSymbolTableRecord
100
AcDbBlockTableRecord
  2
*U18
340
0
102
{BLKREFS
331
91D
102
}
  0
BLOCK_RECORD
  5
58C
330
1
100
AcDbSymbolTableRecord
100
AcDbBlockTableRecord
  2
*U19
340
0
102
{BLKREFS
331
91E
102
}
  0
BLOCK_RECORD
  5
5E6
330
1
100
AcDbSymbolTableRecord
100
AcDbBlockTableRecord
  2
*U20
340
0
102
{BLKREFS
331
91F
102
}
  0
BLOCK_RECORD
  5
640
330
1
100
AcDbSymbolTableRecord
100
AcDbBlockTableRecord
  2
*U21
340
0
102
{BLKREFS
331
925
102
}
  0
BLOCK_RECORD
  5
651
330
1
100
AcDbSymbolTableRecord
100
AcDbBlockTableRecord
  2
*U22
340
0
102
{BLKREFS
331
926
102
}
  0
BLOCK_RECORD
  5
667
330
1
100
AcDbSymbolTableRecord
100
AcDbBlockTableRecord
  2
*U23
340
0
102
{BLKREFS
331
927
102
}
  0
BLOCK_RECORD
  5
688
330
1
100
AcDbSymbolTableRecord
100
AcDbBlockTableRecord
  2
*U24
340
0
102
{BLKREFS
331
928
102
}
  0
BLOCK_RECORD
  5
6A9
330
1
100
AcDbSymbolTableRecord
100
AcDbBlockTableRecord
  2
*U25
340
0
102
{BLKREFS
331
929
102
}
  0
BLOCK_RECORD
  5
6BB
330
1
100
AcDbSymbolTableRecord
100
AcDbBlockTableRecord
  2
*U26
340
0
102
{BLKREFS
331
92A
102
}
  0
BLOCK_RECORD
  5
6CC
330
1
100
AcDbSymbolTableRecord
100
AcDbBlockTableRecord
  2
*U27
340
0
102
{BLKREFS
331
92B
102
}
  0
BLOCK_RECORD
  5
6ED
330
1
100
AcDbSymbolTableRecord
100
AcDbBlockTableRecord
  2
*U28
340
0
102
{BLKREFS
331
92C
102
}
  0
BLOCK_RECORD
  5
70A
330
1
100
AcDbSymbolTableRecord
100
AcDbBlockTableRecord
  2
*U29
340
0
102
{BLKREFS
331
92D
102
}
  0
BLOCK_RECORD
  5
727
330
1
100
AcDbSymbolTableRecord
100
AcDbBlockTableRecord
  2
*U30
340
0
102
{BLKREFS
331
92E
102
}
  0
BLOCK_RECORD
  5
744
330
1
100
AcDbSymbolTableRecord
100
AcDbBlockTableRecord
  2
*U31
340
0
102
{BLKREFS
331
92F
102
}
  0
BLOCK_RECORD
  5
761
330
1
100
AcDbSymbolTableRecord
100
AcDbBlockTableRecord
  2
*U32
340
0
102
{BLKREFS
331
930
102
}
  0
BLOCK_RECORD
  5
771
330
1
100
AcDbSymbolTableRecord
100
AcDbBlockTableRecord
  2
*U33
340
0
102
{BLKREFS
331
931
102
}
  0
BLOCK_RECORD
  5
78E
330
1
100
AcDbSymbolTableRecord
100
AcDbBlockTableRecord
  2
*U34
340
0
102
{BLKREFS
331
936
102
}
  0
BLOCK_RECORD
  5
7AF
330
1
100
AcDbSymbolTableRecord
100
AcDbBlockTableRecord
  2
*U35
340
0
102
{BLKREFS
331
945
102
}
  0
BLOCK_RECORD
  5
7B8
330
1
100
AcDbSymbolTableRecord
100
AcDbBlockTableRecord
  2
*U36
340
0
102
{BLKREFS
331
947
102
}
  0
BLOCK_RECORD
  5
7C1
330
1
100
AcDbSymbolTableRecord
100
AcDbBlockTableRecord
  2
*U37
340
0
102
{BLKREFS
331
948
102
}
  0
BLOCK_RECORD
  5
7C8
330
1
100
AcDbSymbolTableRecord
100
AcDbBlockTableRecord
  2
*U38
340
0
102
{BLKREFS
331
949
102
}
  0
BLOCK_RECORD
  5
7D0
330
1
100
AcDbSymbolTableRecord
100
AcDbBlockTableRecord
  2
*U39
340
0
102
{BLKREFS
331
94A
102
}
  0
BLOCK_RECORD
  5
7D9
330
1
100
AcDbSymbolTableRecord
100
AcDbBlockTableRecord
  2
*U40
340
0
102
{BLKREFS
331
94B
102
}
  0
BLOCK_RECORD
  5
7E0
330
1
100
AcDbSymbolTableRecord
100
AcDbBlockTableRecord
  2
*U41
340
0
102
{BLKREFS
331
94C
102
}
  0
BLOCK_RECORD
  5
7E9
330
1
100
AcDbSymbolTableRecord
100
AcDbBlockTableRecord
  2
*U42
340
0
102
{BLKREFS
331
94D
102
}
  0
BLOCK_RECORD
  5
7F0
330
1
100
AcDbSymbolTableRecord
100
AcDbBlockTableRecord
  2
*U43
340
0
102
{BLKREFS
331
94E
102
}
  0
BLOCK_RECORD
  5
7F9
330
1
100
AcDbSymbolTableRecord
100
AcDbBlockTableRecord
  2
*U44
340
0
102
{BLKREFS
331
94F
102
}
  0
BLOCK_RECORD
  5
800
330
1
100
AcDbSymbolTableRecord
100
AcDbBlockTableRecord
  2
*U45
340
0
102
{BLKREFS
331
950
102
}
  0
BLOCK_RECORD
  5
807
330
1
100
AcDbSymbolTableRecord
100
AcDbBlockTableRecord
  2
*U46
340
0
102
{BLKREFS
331
951
102
}
  0
BLOCK_RECORD
  5
810
330
1
100
AcDbSymbolTableRecord
100
AcDbBlockTableRecord
  2
*U47
340
0
102
{BLKREFS
331
952
102
}
  0
BLOCK_RECORD
  5
819
330
1
100
AcDbSymbolTableRecord
100
AcDbBlockTableRecord
  2
*U48
340
0
102
{BLKREFS
331
953
102
}
  0
BLOCK_RECORD
  5
820
330
1
100
AcDbSymbolTableRecord
100
AcDbBlockTableRecord
  2
*U49
340
0
102
{BLKREFS
331
954
102
}
  0
BLOCK_RECORD
  5
828
330
1
100
AcDbSymbolTableRecord
100
AcDbBlockTableRecord
  2
*U50
340
0
102
{BLKREFS
331
955
102
}
  0
BLOCK_RECORD
  5
82C
330
1
100
AcDbSymbolTableRecord
100
AcDbBlockTableRecord
  2
*U51
340
0
102
{BLKREFS
331
956
102
}
  0
BLOCK_RECORD
  5
834
330
1
100
AcDbSymbolTableRecord
100
AcDbBlockTableRecord
  2
*U52
340
0
102
{BLKREFS
331
957
102
}
  0
BLOCK_RECORD
  5
838
330
1
100
AcDbSymbolTableRecord
100
AcDbBlockTableRecord
  2
*U53
340
0
102
{BLKREFS
331
958
102
}
  0
BLOCK_RECORD
  5
840
330
1
100
AcDbSymbolTableRecord
100
AcDbBlockTableRecord
  2
*U54
340
0
102
{BLKREFS
331
959
102
}
  0
BLOCK_RECORD
  5
848
330
1
100
AcDbSymbolTableRecord
100
AcDbBlockTableRecord
  2
*U55
340
0
102
{BLKREFS
331
95A
102
}
  0
BLOCK_RECORD
  5
850
330
1
100
AcDbSymbolTableRecord
100
AcDbBlockTableRecord
  2
*U56
340
0
102
{BLKREFS
331
95B
102
}
  0
BLOCK_RECORD
  5
858
330
1
100
AcDbSymbolTableRecord
100
AcDbBlockTableRecord
  2
*U57
340
0
102
{BLKREFS
331
95C
102
}
  0
BLOCK_RECORD
  5
860
330
1
100
AcDbSymbolTableRecord
100
AcDbBlockTableRecord
  2
*U58
340
0
102
{BLKREFS
331
968
102
}
  0
BLOCK_RECORD
  5
872
330
1
100
AcDbSymbolTableRecord
100
AcDbBlockTableRecord
  2
*U59
340
0
102
{BLKREFS
331
95D
102
}
  0
BLOCK_RECORD
  5
87B
330
1
100
AcDbSymbolTableRecord
100
AcDbBlockTableRecord
  2
*U60
340
0
102
{BLKREFS
331
95E
102
}
  0
BLOCK_RECORD
  5
883
330
1
100
AcDbSymbolTableRecord
100
AcDbBlockTableRecord
  2
*U61
340
0
102
{BLKREFS
331
95F
102
}
  0
BLOCK_RECORD
  5
88B
330
1
100
AcDbSymbolTableRecord
100
AcDbBlockTableRecord
  2
*U62
340
0
102
{BLKREFS
331
90E
102
}
  0
BLOCK_RECORD
  5
8C6
330
1
100
AcDbSymbolTableRecord
100
AcDbBlockTableRecord
  2
*U63
340
0
102
{BLKREFS
331
90F
102
}
  0
ENDTAB
  0
ENDSEC
  0
SECTION
  2
BLOCKS
  0
BLOCK
  5
991
330
1D
100
AcDbEntity
  8
0
100
AcDbBlockBegin
  2
*Model_Space
 70
     0
 71
     0
 10
0.0
 20
0.0
 30
0.0
  3
*Model_Space
  1

  0
ENDBLK
  5
992
330
1D
100
AcDbEntity
  8
0
100
AcDbBlockEnd
  0
BLOCK
  5
993
330
1B
100
AcDbEntity
 67
     1
  8
0
100
AcDbBlockBegin
  2
*Paper_Space
 70
     0
 71
     0
 10
0.0
 20
0.0
 30
0.0
  3
*Paper_Space
  1

  0
ENDBLK
  5
994
330
1B
100
AcDbEntity
 67
     1
  8
0
100
AcDbBlockEnd
  0
BLOCK
  5
5D
330
5E
100
AcDbEntity
  8
0
100
AcDbBlockBegin
  2
*U0
 70
     1
 71
     0
 10
0.0
 20
0.0
 30
0.0
  3
*U0
  1

  0
LINE
  5
5F
330
5E
100
AcDbEntity
  8
型材断面
  6
Continuous
100
AcDbLine
 10
195.0
 20
133.5
 30
0.0
 11
195.0
 21
-133.5
 31
0.0
  0
LINE
  5
60
330
5E
100
AcDbEntity
  8
型材断面
  6
Continuous
100
AcDbLine
 10
195.0
 20
-133.5
 30
0.0
 11
-185.0
 21
-133.5
 31
0.0
  0
LINE
  5
61
330
5E
100
AcDbEntity
  8
型材断面
  6
Continuous
100
AcDbLine
 10
-185.0
 20
-133.5
 30
0.0
 11
-185.0
 21
133.5
 31
0.0
  0
LINE
  5
62
330
5E
100
AcDbEntity
  8
型材断面
  6
Continuous
100
AcDbLine
 10
195.0
 20
133.5
 30
0.0
 11
-185.0
 21
133.5
 31
0.0
  0
LINE
  5
63
330
5E
100
AcDbEntity
  8
型材断面
  6
Continuous
100
AcDbLine
 10
145.0
 20
-133.5
 30
0.0
 11
145.0
 21
-118.5
 31
0.0
  0
LINE
  5
64
330
5E
100
AcDbEntity
  8
型材断面
  6
Continuous
100
AcDbLine
 10
195.0
 20
-118.5
 30
0.0
 11
145.0
 21
-118.5
 31
0.0
  0
ENDBLK
  5
65
330
5E
100
AcDbEntity
  8
0
100
AcDbBlockEnd
  0
BLOCK
  5
66
330
67
100
AcDbEntity
  8
0
100
AcDbBlockBegin
  2
*U1
 70
     1
 71
     0
 10
0.0
 20
0.0
 30
0.0
  3
*U1
  1

  0
LINE
  5
68
330
67
100
AcDbEntity
  8
補助線
  6
Continuous
100
AcDbLine
 10
205.427593
 20
230.334492
 30
0.0
 11
204.427593
 21
230.334492
 31
0.0
  0
LINE
  5
69
330
67
100
AcDbEntity
  8
補助線
  6
Continuous
100
AcDbLine
 10
204.927593
 20
230.834492
 30
0.0
 11
204.927593
 21
229.834492
 31
0.0
  0
ENDBLK
  5
6A
330
67
100
AcDbEntity
  8
0
100
AcDbBlockEnd
  0
BLOCK
  5
6B
330
6C
100
AcDbEntity
  8
0
100
AcDbBlockBegin
  2
*U2
 70
     1
 71
     0
 10
0.0
 20
0.0
 30
0.0
  3
*U2
  1

  0
LINE
  5
6D
330
6C
100
AcDbEntity
  8
補助線
  6
Continuous
100
AcDbLine
 10
205.427593
 20
230.334492
 30
0.0
 11
204.427593
 21
230.334492
 31
0.0
  0
LINE
  5
6E
330
6C
100
AcDbEntity
  8
補助線
  6
Continuous
100
AcDbLine
 10
204.927593
 20
230.834492
 30
0.0
 11
204.927593
 21
229.834492
 31
0.0
  0
ENDBLK
  5
6F
330
6C
100
AcDbEntity
  8
0
100
AcDbBlockEnd
  0
BLOCK
  5
70
330
71
100
AcDbEntity
  8
0
100
AcDbBlockBegin
  2
*U3
 70
     1
 71
     0
 10
0.0
 20
0.0
 30
0.0
  3
*U3
  1

  0
LINE
  5
72
330
71
100
AcDbEntity
  8
型材断面
  6
Continuous
100
AcDbLine
 10
-10.44995
 20
15.641403
 30
0.0
 11
-10.44995
 21
-0.358602
 31
0.0
  0
LINE
  5
73
330
71
100
AcDbEntity
  8
型材断面
  6
Continuous
100
AcDbLine
 10
13.150052
 20
15.641403
 30
0.0
 11
-10.44995
 21
15.641403
 31
0.0
  0
ARC
  5
74
330
71
100
AcDbEntity
  8
型材断面
  6
Continuous
100
AcDbCircle
 10
14.050085
 20
17.341493
 30
0.0
 40
0.3
100
AcDbArc
 50
0.0
 51
90.0
  0
LINE
  5
75
330
71
100
AcDbEntity
  8
型材断面
  6
Continuous
100
AcDbLine
 10
13.150052
 20
15.641403
 30
0.0
 11
13.150052
 21
14.941397
 31
0.0
  0
ARC
  5
76
330
71
100
AcDbEntity
  8
型材断面
  6
Continuous
100
AcDbCircle
 10
13.450085
 20
14.941493
 30
0.0
 40
0.3
100
AcDbArc
 50
180.0
 51
270.0
  0
LINE
  5
77
330
71
100
AcDbEntity
  8
型材断面
  6
Continuous
100
AcDbLine
 10
14.050052
 20
14.641397
 30
0.0
 11
13.450052
 21
14.641397
 31
0.0
  0
LINE
  5
78
330
71
100
AcDbEntity
  8
型材断面
  6
Continuous
100
AcDbLine
 10
14.350052
 20
14.941397
 30
0.0
 11
14.350052
 21
17.341397
 31
0.0
  0
ARC
  5
79
330
71
100
AcDbEntity
  8
型材断面
  6
Continuous
100
AcDbCircle
 10
14.050085
 20
14.941493
 30
0.0
 40
0.3
100
AcDbArc
 50
270.0
 51
0.0
  0
LINE
  5
7A
330
71
100
AcDbEntity
  8
型材断面
  6
Continuous
100
AcDbLine
 10
14.050052
 20
17.641397
 30
0.0
 11
-12.149945
 21
17.641397
 31
0.0
  0
LINE
  5
7B
330
71
100
AcDbEntity
  8
型材断面
  6
Continuous
100
AcDbLine
 10
-12.449945
 20
17.341397
 30
0.0
 11
-12.449945
 21
13.141397
 31
0.0
  0
ARC
  5
7C
330
71
100
AcDbEntity
  8
型材断面
  6
Continuous
100
AcDbCircle
 10
-12.149915
 20
17.341493
 30
0.0
 40
0.3
100
AcDbArc
 50
90.0
 51
180.0
  0
LINE
  5
7D
330
71
100
AcDbEntity
  8
型材断面
  6
Continuous
100
AcDbLine
 10
-12.449945
 20
11.641397
 30
0.0
 11
-12.449945
 21
-2.058597
 31
0.0
  0
ARC
  5
7E
330
71
100
AcDbEntity
  8
型材断面
  6
Continuous
100
AcDbCircle
 10
-12.149915
 20
-2.058507
 30
0.0
 40
0.3
100
AcDbArc
 50
180.0
 51
270.0
  0
LINE
  5
7F
330
71
100
AcDbEntity
  8
型材断面
  6
Continuous
100
AcDbLine
 10
-8.049950000000001
 20
-2.358597
 30
0.0
 11
-12.149945
 21
-2.358597
 31
0.0
  0
ARC
  5
80
330
71
100
AcDbEntity
  8
型材断面
  6
Continuous
100
AcDbCircle
 10
-8.049915
 20
-2.058507
 30
0.0
 40
0.3
100
AcDbArc
 50
270.0
 51
0.0
  0
LINE
  5
81
330
71
100
AcDbEntity
  8
型材断面
  6
Continuous
100
AcDbLine
 10
-7.74995
 20
-0.658602
 30
0.0
 11
-7.74995
 21
-2.058597
 31
0.0
  0
LINE
  5
82
330
71
100
AcDbEntity
  8
型材断面
  6
Continuous
100
AcDbLine
 10
-8.049950000000001
 20
-0.358602
 30
0.0
 11
-10.44995
 21
-0.358602
 31
0.0
  0
ARC
  5
83
330
71
100
AcDbEntity
  8
型材断面
  6
Continuous
100
AcDbCircle
 10
-8.049915
 20
-0.658507
 30
0.0
 40
0.3
100
AcDbArc
 50
0.0
 51
90.0
  0
LINE
  5
84
330
71
100
AcDbEntity
  8
型材断面
  6
Continuous
100
AcDbLine
 10
-13.949945
 20
13.141397
 30
0.0
 11
-12.449945
 21
13.141397
 31
0.0
  0
ARC
  5
85
330
71
100
AcDbEntity
  8
型材断面
  6
Continuous
100
AcDbCircle
 10
-13.949915
 20
12.841493
 30
0.0
 40
0.3
100
AcDbArc
 50
90.0
 51
180.0
  0
LINE
  5
86
330
71
100
AcDbEntity
  8
型材断面
  6
Continuous
100
AcDbLine
 10
-14.249945
 20
12.841397
 30
0.0
 11
-14.249945
 21
11.941397
 31
0.0
  0
LINE
  5
87
330
71
100
AcDbEntity
  8
型材断面
  6
Continuous
100
AcDbLine
 10
-13.949945
 20
11.641397
 30
0.0
 11
-12.449945
 21
11.641397
 31
0.0
  0
ARC
  5
88
330
71
100
AcDbEntity
  8
型材断面
  6
Continuous
100
AcDbCircle
 10
-13.949915
 20
11.941493
 30
0.0
 40
0.3
100
AcDbArc
 50
180.0
 51
270.0
  0
ENDBLK
  5
89
330
71
100
AcDbEntity
  8
0
100
AcDbBlockEnd
  0
BLOCK
  5
8A
330
8B
100
AcDbEntity
  8
0
100
AcDbBlockBegin
  2
*U4
 70
     1
 71
     0
 10
0.0
 20
0.0
 30
0.0
  3
*U4
  1

  0
LINE
  5
8C
330
8B
100
AcDbEntity
  8
型材断面
  6
Continuous
100
AcDbLine
 10
14.350052
 20
-5.958575
 30
0.0
 11
13.150052
 21
-5.958575
 31
0.0
  0
LINE
  5
8D
330
8B
100
AcDbEntity
  8
型材断面
  6
Continuous
100
AcDbLine
 10
-12.449945
 20
15.141423
 30
0.0
 11
-12.449945
 21
13.641423
 31
0.0
  0
LINE
  5
8E
330
8B
100
AcDbEntity
  8
型材断面
  6
Continuous
100
AcDbLine
 10
-12.449945
 20
13.641423
 30
0.0
 11
-14.64995
 21
13.641423
 31
0.0
  0
LINE
  5
8F
330
8B
100
AcDbEntity
  8
型材断面
  6
Continuous
100
AcDbLine
 10
-12.449945
 20
15.141423
 30
0.0
 11
-16.649945
 21
15.141423
 31
0.0
  0
LINE
  5
90
330
8B
100
AcDbEntity
  8
型材断面
  6
Continuous
100
AcDbLine
 10
-16.649945
 20
15.141423
 30
0.0
 11
-16.649945
 21
-4.358577
 31
0.0
  0
LINE
  5
91
330
8B
100
AcDbEntity
  8
型材断面
  6
Continuous
100
AcDbLine
 10
-14.64995
 20
13.641423
 30
0.0
 11
-14.64995
 21
-2.358575
 31
0.0
  0
LINE
  5
92
330
8B
100
AcDbEntity
  8
型材断面
  6
Continuous
100
AcDbLine
 10
13.150052
 20
-0.358572
 30
0.0
 11
14.350052
 21
-0.358572
 31
0.0
  0
LINE
  5
93
330
8B
100
AcDbEntity
  8
型材断面
  6
Continuous
100
AcDbLine
 10
-16.649945
 20
-4.358577
 30
0.0
 11
13.150052
 21
-4.358577
 31
0.0
  0
LINE
  5
94
330
8B
100
AcDbEntity
  8
型材断面
  6
Continuous
100
AcDbLine
 10
13.150052
 20
-0.358572
 30
0.0
 11
13.150052
 21
-2.358575
 31
0.0
  0
LINE
  5
95
330
8B
100
AcDbEntity
  8
型材断面
  6
Continuous
100
AcDbLine
 10
-7.44995
 20
-2.358575
 30
0.0
 11
-7.44995
 21
-0.058572
 31
0.0
  0
LINE
  5
96
330
8B
100
AcDbEntity
  8
型材断面
  6
Continuous
100
AcDbLine
 10
-5.94995
 20
-2.358575
 30
0.0
 11
-5.94995
 21
1.441427
 31
0.0
  0
LINE
  5
97
330
8B
100
AcDbEntity
  8
型材断面
  6
Continuous
100
AcDbLine
 10
-5.94995
 20
1.441427
 30
0.0
 11
-9.949947
 21
1.441427
 31
0.0
  0
LINE
  5
98
330
8B
100
AcDbEntity
  8
型材断面
  6
Continuous
100
AcDbLine
 10
-9.949947
 20
1.441427
 30
0.0
 11
-9.949947
 21
-0.058572
 31
0.0
  0
LINE
  5
99
330
8B
100
AcDbEntity
  8
型材断面
  6
Continuous
100
AcDbLine
 10
-7.44995
 20
-0.058572
 30
0.0
 11
-9.949947
 21
-0.058572
 31
0.0
  0
LINE
  5
9A
330
8B
100
AcDbEntity
  8
型材断面
  6
Continuous
100
AcDbLine
 10
-14.64995
 20
-2.358575
 30
0.0
 11
-7.44995
 21
-2.358575
 31
0.0
  0
LINE
  5
9B
330
8B
100
AcDbEntity
  8
型材断面
  6
Continuous
100
AcDbLine
 10
-5.94995
 20
-2.358575
 30
0.0
 11
13.150052
 21
-2.358575
 31
0.0
  0
LINE
  5
9C
330
8B
100
AcDbEntity
  8
型材断面
  6
Continuous
100
AcDbLine
 10
14.350052
 20
-0.358572
 30
0.0
 11
14.350052
 21
-5.958575
 31
0.0
  0
LINE
  5
9D
330
8B
100
AcDbEntity
  8
型材断面
  6
Continuous
100
AcDbLine
 10
13.150052
 20
-4.358577
 30
0.0
 11
13.150052
 21
-5.958575
 31
0.0
  0
ENDBLK
  5
9E
330
8B
100
AcDbEntity
  8
0
100
AcDbBlockEnd
  0
BLOCK
  5
9F
330
A0
100
AcDbEntity
  8
0
100
AcDbBlockBegin
  2
*U5
 70
     1
 71
     0
 10
0.0
 20
0.0
 30
0.0
  3
*U5
  1

  0
POLYLINE
  5
A1
330
A0
100
AcDbEntity
  8
ガラス
  6
Continuous
100
AcDb2dPolyline
 66
     1
 10
0.0
 20
0.0
 30
0.0
 70
     4
  0
VERTEX
  5
A2
330
A1
100
AcDbEntity
  8
ガラス
  6
Continuous
100
AcDbVertex
100
AcDb2dVertex
 10
15.075
 20
-3.05
 30
0.0
 70
     8
  0
VERTEX
  5
A3
330
A1
100
AcDbEntity
  8
ガラス
  6
Continuous
100
AcDbVertex
100
AcDb2dVertex
 10
15.1
 20
-3.0
 30
0.0
 70
     8
  0
VERTEX
  5
A4
330
A1
100
AcDbEntity
  8
ガラス
  6
Continuous
100
AcDbVertex
100
AcDb2dVertex
 10
15.125
 20
-2.925
 30
0.0
 70
     8
  0
VERTEX
  5
A5
330
A1
100
AcDbEntity
  8
ガラス
  6
Continuous
100
AcDbVertex
100
AcDb2dVertex
 10
15.125
 20
-2.875
 30
0.0
 70
     8
  0
VERTEX
  5
A6
330
A1
100
AcDbEntity
  8
ガラス
  6
Continuous
100
AcDbVertex
100
AcDb2dVertex
 10
15.15
 20
-2.8
 30
0.0
 70
     8
  0
VERTEX
  5
A7
330
A1
100
AcDbEntity
  8
ガラス
  6
Continuous
100
AcDbVertex
100
AcDb2dVertex
 10
15.175
 20
-2.75
 30
0.0
 70
     8
  0
VERTEX
  5
A8
330
A1
100
AcDbEntity
  8
ガラス
  6
Continuous
100
AcDbVertex
100
AcDb2dVertex
 10
15.2
 20
-2.675
 30
0.0
 70
     8
  0
VERTEX
  5
A9
330
A1
100
AcDbEntity
  8
ガラス
  6
Continuous
100
AcDbVertex
100
AcDb2dVertex
 10
15.2
 20
-2.625
 30
0.0
 70
     8
  0
VERTEX
  5
AA
330
A1
100
AcDbEntity
  8
ガラス
  6
Continuous
100
AcDbVertex
100
AcDb2dVertex
 10
15.225
 20
-2.575
 30
0.0
 70
     8
  0
VERTEX
  5
AB
330
A1
100
AcDbEntity
  8
ガラス
  6
Continuous
100
AcDbVertex
100
AcDb2dVertex
 10
15.25
 20
-2.5
 30
0.0
 70
     8
  0
VERTEX
  5
AC
330
A1
100
AcDbEntity
  8
ガラス
  6
Continuous
100
AcDbVertex
100
AcDb2dVertex
 10
15.275
 20
-2.45
 30
0.0
 70
     8
  0
VERTEX
  5
AD
330
A1
100
AcDbEntity
  8
ガラス
  6
Continuous
100
AcDbVertex
100
AcDb2dVertex
 10
15.3
 20
-2.4
 30
0.0
 70
     8
  0
VERTEX
  5
AE
330
A1
100
AcDbEntity
  8
ガラス
  6
Continuous
100
AcDbVertex
100
AcDb2dVertex
 10
15.325
 20
-2.325
 30
0.0
 70
     8
  0
VERTEX
  5
AF
330
A1
100
AcDbEntity
  8
ガラス
  6
Continuous
100
AcDbVertex
100
AcDb2dVertex
 10
15.35
 20
-2.275
 30
0.0
 70
     8
  0
VERTEX
  5
B0
330
A1
100
AcDbEntity
  8
ガラス
  6
Continuous
100
AcDbVertex
100
AcDb2dVertex
 10
15.375
 20
-2.225
 30
0.0
 70
     8
  0
VERTEX
  5
B1
330
A1
100
AcDbEntity
  8
ガラス
  6
Continuous
100
AcDbVertex
100
AcDb2dVertex
 10
15.4
 20
-2.175
 30
0.0
 70
     8
  0
VERTEX
  5
B2
330
A1
100
AcDbEntity
  8
ガラス
  6
Continuous
100
AcDbVertex
100
AcDb2dVertex
 10
15.425
 20
-2.125
 30
0.0
 70
     8
  0
VERTEX
  5
B3
330
A1
100
AcDbEntity
  8
ガラス
  6
Continuous
100
AcDbVertex
100
AcDb2dVertex
 10
15.475
 20
-2.075
 30
0.0
 70
     8
  0
VERTEX
  5
B4
330
A1
100
AcDbEntity
  8
ガラス
  6
Continuous
100
AcDbVertex
100
AcDb2dVertex
 10
15.5
 20
-2.025
 30
0.0
 70
     8
  0
VERTEX
  5
B5
330
A1
100
AcDbEntity
  8
ガラス
  6
Continuous
100
AcDbVertex
100
AcDb2dVertex
 10
15.525
 20
-1.975
 30
0.0
 70
     8
  0
VERTEX
  5
B6
330
A1
100
AcDbEntity
  8
ガラス
  6
Continuous
100
AcDbVertex
100
AcDb2dVertex
 10
15.575
 20
-1.925
 30
0.0
 70
     8
  0
VERTEX
  5
B7
330
A1
100
AcDbEntity
  8
ガラス
  6
Continuous
100
AcDbVertex
100
AcDb2dVertex
 10
15.625
 20
-1.9
 30
0.0
 70
     8
  0
VERTEX
  5
B8
330
A1
100
AcDbEntity
  8
ガラス
  6
Continuous
100
AcDbVertex
100
AcDb2dVertex
 10
15.65
 20
-1.85
 30
0.0
 70
     8
  0
VERTEX
  5
B9
330
A1
100
AcDbEntity
  8
ガラス
  6
Continuous
100
AcDbVertex
100
AcDb2dVertex
 10
15.7
 20
-1.825
 30
0.0
 70
     8
  0
VERTEX
  5
BA
330
A1
100
AcDbEntity
  8
ガラス
  6
Continuous
100
AcDbVertex
100
AcDb2dVertex
 10
15.75
 20
-1.775
 30
0.0
 70
     8
  0
VERTEX
  5
BB
330
A1
100
AcDbEntity
  8
ガラス
  6
Continuous
100
AcDbVertex
100
AcDb2dVertex
 10
15.8
 20
-1.75
 30
0.0
 70
     8
  0
VERTEX
  5
BC
330
A1
100
AcDbEntity
  8
ガラス
  6
Continuous
100
AcDbVertex
100
AcDb2dVertex
 10
15.85
 20
-1.7
 30
0.0
 70
     8
  0
VERTEX
  5
BD
330
A1
100
AcDbEntity
  8
ガラス
  6
Continuous
100
AcDbVertex
100
AcDb2dVertex
 10
15.9
 20
-1.675
 30
0.0
 70
     8
  0
VERTEX
  5
BE
330
A1
100
AcDbEntity
  8
ガラス
  6
Continuous
100
AcDbVertex
100
AcDb2dVertex
 10
15.95
 20
-1.65
 30
0.0
 70
     8
  0
VERTEX
  5
BF
330
A1
100
AcDbEntity
  8
ガラス
  6
Continuous
100
AcDbVertex
100
AcDb2dVertex
 10
16.0
 20
-1.625
 30
0.0
 70
     8
  0
VERTEX
  5
C0
330
A1
100
AcDbEntity
  8
ガラス
  6
Continuous
100
AcDbVertex
100
AcDb2dVertex
 10
16.05
 20
-1.6
 30
0.0
 70
     8
  0
VERTEX
  5
C1
330
A1
100
AcDbEntity
  8
ガラス
  6
Continuous
100
AcDbVertex
100
AcDb2dVertex
 10
16.125
 20
-1.575
 30
0.0
 70
     8
  0
VERTEX
  5
C2
330
A1
100
AcDbEntity
  8
ガラス
  6
Continuous
100
AcDbVertex
100
AcDb2dVertex
 10
16.175
 20
-1.55
 30
0.0
 70
     8
  0
VERTEX
  5
C3
330
A1
100
AcDbEntity
  8
ガラス
  6
Continuous
100
AcDbVertex
100
AcDb2dVertex
 10
16.225
 20
-1.525
 30
0.0
 70
     8
  0
VERTEX
  5
C4
330
A1
100
AcDbEntity
  8
ガラス
  6
Continuous
100
AcDbVertex
100
AcDb2dVertex
 10
16.3
 20
-1.5
 30
0.0
 70
     8
  0
VERTEX
  5
C5
330
A1
100
AcDbEntity
  8
ガラス
  6
Continuous
100
AcDbVertex
100
AcDb2dVertex
 10
16.35
 20
-1.475
 30
0.0
 70
     8
  0
VERTEX
  5
C6
330
A1
100
AcDbEntity
  8
ガラス
  6
Continuous
100
AcDbVertex
100
AcDb2dVertex
 10
16.4
 20
-1.45
 30
0.0
 70
     8
  0
VERTEX
  5
C7
330
A1
100
AcDbEntity
  8
ガラス
  6
Continuous
100
AcDbVertex
100
AcDb2dVertex
 10
16.475
 20
-1.425
 30
0.0
 70
     8
  0
VERTEX
  5
C8
330
A1
100
AcDbEntity
  8
ガラス
  6
Continuous
100
AcDbVertex
100
AcDb2dVertex
 10
16.525
 20
-1.4
 30
0.0
 70
     8
  0
VERTEX
  5
C9
330
A1
100
AcDbEntity
  8
ガラス
  6
Continuous
100
AcDbVertex
100
AcDb2dVertex
 10
16.6
 20
-1.4
 30
0.0
 70
     8
  0
VERTEX
  5
CA
330
A1
100
AcDbEntity
  8
ガラス
  6
Continuous
100
AcDbVertex
100
AcDb2dVertex
 10
16.65
 20
-1.375
 30
0.0
 70
     8
  0
SEQEND
  5
CB
330
A1
100
AcDbEntity
  8
0
  0
POLYLINE
  5
CC
330
A0
100
AcDbEntity
  8
ガラス
  6
Continuous
100
AcDb2dPolyline
 66
     1
 10
0.0
 20
0.0
 30
0.0
 70
     4
  0
VERTEX
  5
CD
330
CC
100
AcDbEntity
  8
ガラス
  6
Continuous
100
AcDbVertex
100
AcDb2dVertex
 10
16.65
 20
-1.375
 30
0.0
 70
     8
  0
VERTEX
  5
CE
330
CC
100
AcDbEntity
  8
ガラス
  6
Continuous
100
AcDbVertex
100
AcDb2dVertex
 10
16.65
 20
-1.4
 30
0.0
 70
     8
  0
VERTEX
  5
CF
330
CC
100
AcDbEntity
  8
ガラス
  6
Continuous
100
AcDbVertex
100
AcDb2dVertex
 10
16.625
 20
-1.45
 30
0.0
 70
     8
  0
VERTEX
  5
D0
330
CC
100
AcDbEntity
  8
ガラス
  6
Continuous
100
AcDbVertex
100
AcDb2dVertex
 10
16.625
 20
-1.5
 30
0.0
 70
     8
  0
VERTEX
  5
D1
330
CC
100
AcDbEntity
  8
ガラス
  6
Continuous
100
AcDbVertex
100
AcDb2dVertex
 10
16.6
 20
-1.525
 30
0.0
 70
     8
  0
VERTEX
  5
D2
330
CC
100
AcDbEntity
  8
ガラス
  6
Continuous
100
AcDbVertex
100
AcDb2dVertex
 10
16.6
 20
-1.575
 30
0.0
 70
     8
  0
VERTEX
  5
D3
330
CC
100
AcDbEntity
  8
ガラス
  6
Continuous
100
AcDbVertex
100
AcDb2dVertex
 10
16.575
 20
-1.625
 30
0.0
 70
     8
  0
VERTEX
  5
D4
330
CC
100
AcDbEntity
  8
ガラス
  6
Continuous
100
AcDbVertex
100
AcDb2dVertex
 10
16.575
 20
-1.65
 30
0.0
 70
     8
  0
VERTEX
  5
D5
330
CC
100
AcDbEntity
  8
ガラス
  6
Continuous
100
AcDbVertex
100
AcDb2dVertex
 10
16.55
 20
-1.7
 30
0.0
 70
     8
  0
VERTEX
  5
D6
330
CC
100
AcDbEntity
  8
ガラス
  6
Continuous
100
AcDbVertex
100
AcDb2dVertex
 10
16.55
 20
-1.75
 30
0.0
 70
     8
  0
VERTEX
  5
D7
330
CC
100
AcDbEntity
  8
ガラス
  6
Continuous
100
AcDbVertex
100
AcDb2dVertex
 10
16.55
 20
-1.775
 30
0.0
 70
     8
  0
VERTEX
  5
D8
330
CC
100
AcDbEntity
  8
ガラス
  6
Continuous
100
AcDbVertex
100
AcDb2dVertex
 10
16.525
 20
-1.825
 30
0.0
 70
     8
  0
VERTEX
  5
D9
330
CC
100
AcDbEntity
  8
ガラス
  6
Continuous
100
AcDbVertex
100
AcDb2dVertex
 10
16.525
 20
-1.875
 30
0.0
 70
     8
  0
VERTEX
  5
DA
330
CC
100
AcDbEntity
  8
ガラス
  6
Continuous
100
AcDbVertex
100
AcDb2dVertex
 10
16.5
 20
-1.9
 30
0.0
 70
     8
  0
VERTEX
  5
DB
330
CC
100
AcDbEntity
  8
ガラス
  6
Continuous
100
AcDbVertex
100
AcDb2dVertex
 10
16.5
 20
-1.95
 30
0.0
 70
     8
  0
VERTEX
  5
DC
330
CC
100
AcDbEntity
  8
ガラス
  6
Continuous
100
AcDbVertex
100
AcDb2dVertex
 10
16.5
 20
-2.0
 30
0.0
 70
     8
  0
VERTEX
  5
DD
330
CC
100
AcDbEntity
  8
ガラス
  6
Continuous
100
AcDbVertex
100
AcDb2dVertex
 10
16.475
 20
-2.025
 30
0.0
 70
     8
  0
VERTEX
  5
DE
330
CC
100
AcDbEntity
  8
ガラス
  6
Continuous
100
AcDbVertex
100
AcDb2dVertex
 10
16.475
 20
-2.075
 30
0.0
 70
     8
  0
VERTEX
  5
DF
330
CC
100
AcDbEntity
  8
ガラス
  6
Continuous
100
AcDbVertex
100
AcDb2dVertex
 10
16.475
 20
-2.125
 30
0.0
 70
     8
  0
VERTEX
  5
E0
330
CC
100
AcDbEntity
  8
ガラス
  6
Continuous
100
AcDbVertex
100
AcDb2dVertex
 10
16.45
 20
-2.15
 30
0.0
 70
     8
  0
VERTEX
  5
E1
330
CC
100
AcDbEntity
  8
ガラス
  6
Continuous
100
AcDbVertex
100
AcDb2dVertex
 10
16.45
 20
-2.2
 30
0.0
 70
     8
  0
VERTEX
  5
E2
330
CC
100
AcDbEntity
  8
ガラス
  6
Continuous
100
AcDbVertex
100
AcDb2dVertex
 10
16.45
 20
-2.25
 30
0.0
 70
     8
  0
VERTEX
  5
E3
330
CC
100
AcDbEntity
  8
ガラス
  6
Continuous
100
AcDbVertex
100
AcDb2dVertex
 10
16.45
 20
-2.275
 30
0.0
 70
     8
  0
VERTEX
  5
E4
330
CC
100
AcDbEntity
  8
ガラス
  6
Continuous
100
AcDbVertex
100
AcDb2dVertex
 10
16.45
 20
-2.325
 30
0.0
 70
     8
  0
VERTEX
  5
E5
330
CC
100
AcDbEntity
  8
ガラス
  6
Continuous
100
AcDbVertex
100
AcDb2dVertex
 10
16.425
 20
-2.375
 30
0.0
 70
     8
  0
VERTEX
  5
E6
330
CC
100
AcDbEntity
  8
ガラス
  6
Continuous
100
AcDbVertex
100
AcDb2dVertex
 10
16.425
 20
-2.425
 30
0.0
 70
     8
  0
VERTEX
  5
E7
330
CC
100
AcDbEntity
  8
ガラス
  6
Continuous
100
AcDbVertex
100
AcDb2dVertex
 10
16.425
 20
-2.45
 30
0.0
 70
     8
  0
VERTEX
  5
E8
330
CC
100
AcDbEntity
  8
ガラス
  6
Continuous
100
AcDbVertex
100
AcDb2dVertex
 10
16.425
 20
-2.5
 30
0.0
 70
     8
  0
VERTEX
  5
E9
330
CC
100
AcDbEntity
  8
ガラス
  6
Continuous
100
AcDbVertex
100
AcDb2dVertex
 10
16.425
 20
-2.55
 30
0.0
 70
     8
  0
VERTEX
  5
EA
330
CC
100
AcDbEntity
  8
ガラス
  6
Continuous
100
AcDbVertex
100
AcDb2dVertex
 10
16.425
 20
-2.575
 30
0.0
 70
     8
  0
VERTEX
  5
EB
330
CC
100
AcDbEntity
  8
ガラス
  6
Continuous
100
AcDbVertex
100
AcDb2dVertex
 10
16.425
 20
-2.625
 30
0.0
 70
     8
  0
VERTEX
  5
EC
330
CC
100
AcDbEntity
  8
ガラス
  6
Continuous
100
AcDbVertex
100
AcDb2dVertex
 10
16.425
 20
-2.675
 30
0.0
 70
     8
  0
VERTEX
  5
ED
330
CC
100
AcDbEntity
  8
ガラス
  6
Continuous
100
AcDbVertex
100
AcDb2dVertex
 10
16.425
 20
-2.725
 30
0.0
 70
     8
  0
VERTEX
  5
EE
330
CC
100
AcDbEntity
  8
ガラス
  6
Continuous
100
AcDbVertex
100
AcDb2dVertex
 10
16.425
 20
-2.75
 30
0.0
 70
     8
  0
VERTEX
  5
EF
330
CC
100
AcDbEntity
  8
ガラス
  6
Continuous
100
AcDbVertex
100
AcDb2dVertex
 10
16.425
 20
-2.8
 30
0.0
 70
     8
  0
VERTEX
  5
F0
330
CC
100
AcDbEntity
  8
ガラス
  6
Continuous
100
AcDbVertex
100
AcDb2dVertex
 10
16.425
 20
-2.85
 30
0.0
 70
     8
  0
VERTEX
  5
F1
330
CC
100
AcDbEntity
  8
ガラス
  6
Continuous
100
AcDbVertex
100
AcDb2dVertex
 10
16.425
 20
-2.875
 30
0.0
 70
     8
  0
VERTEX
  5
F2
330
CC
100
AcDbEntity
  8
ガラス
  6
Continuous
100
AcDbVertex
100
AcDb2dVertex
 10
16.425
 20
-2.925
 30
0.0
 70
     8
  0
VERTEX
  5
F3
330
CC
100
AcDbEntity
  8
ガラス
  6
Continuous
100
AcDbVertex
100
AcDb2dVertex
 10
16.425
 20
-2.975
 30
0.0
 70
     8
  0
VERTEX
  5
F4
330
CC
100
AcDbEntity
  8
ガラス
  6
Continuous
100
AcDbVertex
100
AcDb2dVertex
 10
16.425
 20
-3.025
 30
0.0
 70
     8
  0
VERTEX
  5
F5
330
CC
100
AcDbEntity
  8
ガラス
  6
Continuous
100
AcDbVertex
100
AcDb2dVertex
 10
16.425
 20
-3.05
 30
0.0
 70
     8
  0
SEQEND
  5
F6
330
CC
100
AcDbEntity
  8
0
  0
ARC
  5
F7
330
A0
100
AcDbEntity
  8
ガラス
  6
Continuous
100
AcDbCircle
 10
15.759675
 20
-3.046963
 30
0.0
 40
0.668594
100
AcDbArc
 50
180.0
 51
0.0
  0
ENDBLK
  5
F8
330
A0
100
AcDbEntity
  8
0
100
AcDbBlockEnd
  0
BLOCK
  5
F9
330
FA
100
AcDbEntity
  8
0
100
AcDbBlockBegin
  2
*U6
 70
     1
 71
     0
 10
0.0
 20
0.0
 30
0.0
  3
*U6
  1

  0
POLYLINE
  5
FB
330
FA
100
AcDbEntity
  8
ガラス
  6
Continuous
100
AcDb2dPolyline
 66
     1
 10
0.0
 20
0.0
 30
0.0
 70
     4
  0
VERTEX
  5
FC
330
FB
100
AcDbEntity
  8
ガラス
  6
Continuous
100
AcDbVertex
100
AcDb2dVertex
 10
15.075
 20
-18.75
 30
0.0
 70
     8
  0
VERTEX
  5
FD
330
FB
100
AcDbEntity
  8
ガラス
  6
Continuous
100
AcDbVertex
100
AcDb2dVertex
 10
15.1
 20
-18.675
 30
0.0
 70
     8
  0
VERTEX
  5
FE
330
FB
100
AcDbEntity
  8
ガラス
  6
Continuous
100
AcDbVertex
100
AcDb2dVertex
 10
15.125
 20
-18.625
 30
0.0
 70
     8
  0
VERTEX
  5
FF
330
FB
100
AcDbEntity
  8
ガラス
  6
Continuous
100
AcDbVertex
100
AcDb2dVertex
 10
15.125
 20
-18.55
 30
0.0
 70
     8
  0
VERTEX
  5
100
330
FB
100
AcDbEntity
  8
ガラス
  6
Continuous
100
AcDbVertex
100
AcDb2dVertex
 10
15.15
 20
-18.5
 30
0.0
 70
     8
  0
VERTEX
  5
101
330
FB
100
AcDbEntity
  8
ガラス
  6
Continuous
100
AcDbVertex
100
AcDb2dVertex
 10
15.175
 20
-18.425
 30
0.0
 70
     8
  0
VERTEX
  5
102
330
FB
100
AcDbEntity
  8
ガラス
  6
Continuous
100
AcDbVertex
100
AcDb2dVertex
 10
15.2
 20
-18.375
 30
0.0
 70
     8
  0
VERTEX
  5
103
330
FB
100
AcDbEntity
  8
ガラス
  6
Continuous
100
AcDbVertex
100
AcDb2dVertex
 10
15.2
 20
-18.325
 30
0.0
 70
     8
  0
VERTEX
  5
104
330
FB
100
AcDbEntity
  8
ガラス
  6
Continuous
100
AcDbVertex
100
AcDb2dVertex
 10
15.225
 20
-18.25
 30
0.0
 70
     8
  0
VERTEX
  5
105
330
FB
100
AcDbEntity
  8
ガラス
  6
Continuous
100
AcDbVertex
100
AcDb2dVertex
 10
15.25
 20
-18.2
 30
0.0
 70
     8
  0
VERTEX
  5
106
330
FB
100
AcDbEntity
  8
ガラス
  6
Continuous
100
AcDbVertex
100
AcDb2dVertex
 10
15.275
 20
-18.125
 30
0.0
 70
     8
  0
VERTEX
  5
107
330
FB
100
AcDbEntity
  8
ガラス
  6
Continuous
100
AcDbVertex
100
AcDb2dVertex
 10
15.3
 20
-18.075
 30
0.0
 70
     8
  0
VERTEX
  5
108
330
FB
100
AcDbEntity
  8
ガラス
  6
Continuous
100
AcDbVertex
100
AcDb2dVertex
 10
15.325
 20
-18.025
 30
0.0
 70
     8
  0
VERTEX
  5
109
330
FB
100
AcDbEntity
  8
ガラス
  6
Continuous
100
AcDbVertex
100
AcDb2dVertex
 10
15.35
 20
-17.975
 30
0.0
 70
     8
  0
VERTEX
  5
10A
330
FB
100
AcDbEntity
  8
ガラス
  6
Continuous
100
AcDbVertex
100
AcDb2dVertex
 10
15.375
 20
-17.925
 30
0.0
 70
     8
  0
VERTEX
  5
10B
330
FB
100
AcDbEntity
  8
ガラス
  6
Continuous
100
AcDbVertex
100
AcDb2dVertex
 10
15.4
 20
-17.85
 30
0.0
 70
     8
  0
VERTEX
  5
10C
330
FB
100
AcDbEntity
  8
ガラス
  6
Continuous
100
AcDbVertex
100
AcDb2dVertex
 10
15.425
 20
-17.8
 30
0.0
 70
     8
  0
VERTEX
  5
10D
330
FB
100
AcDbEntity
  8
ガラス
  6
Continuous
100
AcDbVertex
100
AcDb2dVertex
 10
15.475
 20
-17.75
 30
0.0
 70
     8
  0
VERTEX
  5
10E
330
FB
100
AcDbEntity
  8
ガラス
  6
Continuous
100
AcDbVertex
100
AcDb2dVertex
 10
15.5
 20
-17.725
 30
0.0
 70
     8
  0
VERTEX
  5
10F
330
FB
100
AcDbEntity
  8
ガラス
  6
Continuous
100
AcDbVertex
100
AcDb2dVertex
 10
15.525
 20
-17.675
 30
0.0
 70
     8
  0
VERTEX
  5
110
330
FB
100
AcDbEntity
  8
ガラス
  6
Continuous
100
AcDbVertex
100
AcDb2dVertex
 10
15.575
 20
-17.625
 30
0.0
 70
     8
  0
VERTEX
  5
111
330
FB
100
AcDbEntity
  8
ガラス
  6
Continuous
100
AcDbVertex
100
AcDb2dVertex
 10
15.625
 20
-17.575
 30
0.0
 70
     8
  0
VERTEX
  5
112
330
FB
100
AcDbEntity
  8
ガラス
  6
Continuous
100
AcDbVertex
100
AcDb2dVertex
 10
15.65
 20
-17.55
 30
0.0
 70
     8
  0
VERTEX
  5
113
330
FB
100
AcDbEntity
  8
ガラス
  6
Continuous
100
AcDbVertex
100
AcDb2dVertex
 10
15.7
 20
-17.5
 30
0.0
 70
     8
  0
VERTEX
  5
114
330
FB
100
AcDbEntity
  8
ガラス
  6
Continuous
100
AcDbVertex
100
AcDb2dVertex
 10
15.75
 20
-17.475
 30
0.0
 70
     8
  0
VERTEX
  5
115
330
FB
100
AcDbEntity
  8
ガラス
  6
Continuous
100
AcDbVertex
100
AcDb2dVertex
 10
15.8
 20
-17.425
 30
0.0
 70
     8
  0
VERTEX
  5
116
330
FB
100
AcDbEntity
  8
ガラス
  6
Continuous
100
AcDbVertex
100
AcDb2dVertex
 10
15.85
 20
-17.4
 30
0.0
 70
     8
  0
VERTEX
  5
117
330
FB
100
AcDbEntity
  8
ガラス
  6
Continuous
100
AcDbVertex
100
AcDb2dVertex
 10
15.9
 20
-17.375
 30
0.0
 70
     8
  0
VERTEX
  5
118
330
FB
100
AcDbEntity
  8
ガラス
  6
Continuous
100
AcDbVertex
100
AcDb2dVertex
 10
15.95
 20
-17.35
 30
0.0
 70
     8
  0
VERTEX
  5
119
330
FB
100
AcDbEntity
  8
ガラス
  6
Continuous
100
AcDbVertex
100
AcDb2dVertex
 10
16.0
 20
-17.325
 30
0.0
 70
     8
  0
VERTEX
  5
11A
330
FB
100
AcDbEntity
  8
ガラス
  6
Continuous
100
AcDbVertex
100
AcDb2dVertex
 10
16.05
 20
-17.275
 30
0.0
 70
     8
  0
VERTEX
  5
11B
330
FB
100
AcDbEntity
  8
ガラス
  6
Continuous
100
AcDbVertex
100
AcDb2dVertex
 10
16.125
 20
-17.25
 30
0.0
 70
     8
  0
VERTEX
  5
11C
330
FB
100
AcDbEntity
  8
ガラス
  6
Continuous
100
AcDbVertex
100
AcDb2dVertex
 10
16.175
 20
-17.225
 30
0.0
 70
     8
  0
VERTEX
  5
11D
330
FB
100
AcDbEntity
  8
ガラス
  6
Continuous
100
AcDbVertex
100
AcDb2dVertex
 10
16.225
 20
-17.2
 30
0.0
 70
     8
  0
VERTEX
  5
11E
330
FB
100
AcDbEntity
  8
ガラス
  6
Continuous
100
AcDbVertex
100
AcDb2dVertex
 10
16.3
 20
-17.2
 30
0.0
 70
     8
  0
VERTEX
  5
11F
330
FB
100
AcDbEntity
  8
ガラス
  6
Continuous
100
AcDbVertex
100
AcDb2dVertex
 10
16.35
 20
-17.175
 30
0.0
 70
     8
  0
VERTEX
  5
120
330
FB
100
AcDbEntity
  8
ガラス
  6
Continuous
100
AcDbVertex
100
AcDb2dVertex
 10
16.4
 20
-17.15
 30
0.0
 70
     8
  0
VERTEX
  5
121
330
FB
100
AcDbEntity
  8
ガラス
  6
Continuous
100
AcDbVertex
100
AcDb2dVertex
 10
16.475
 20
-17.125
 30
0.0
 70
     8
  0
VERTEX
  5
122
330
FB
100
AcDbEntity
  8
ガラス
  6
Continuous
100
AcDbVertex
100
AcDb2dVertex
 10
16.525
 20
-17.1
 30
0.0
 70
     8
  0
VERTEX
  5
123
330
FB
100
AcDbEntity
  8
ガラス
  6
Continuous
100
AcDbVertex
100
AcDb2dVertex
 10
16.6
 20
-17.075
 30
0.0
 70
     8
  0
VERTEX
  5
124
330
FB
100
AcDbEntity
  8
ガラス
  6
Continuous
100
AcDbVertex
100
AcDb2dVertex
 10
16.65
 20
-17.05
 30
0.0
 70
     8
  0
SEQEND
  5
125
330
FB
100
AcDbEntity
  8
0
  0
POLYLINE
  5
126
330
FA
100
AcDbEntity
  8
ガラス
  6
Continuous
100
AcDb2dPolyline
 66
     1
 10
0.0
 20
0.0
 30
0.0
 70
     4
  0
VERTEX
  5
127
330
126
100
AcDbEntity
  8
ガラス
  6
Continuous
100
AcDbVertex
100
AcDb2dVertex
 10
16.65
 20
-17.05
 30
0.0
 70
     8
  0
VERTEX
  5
128
330
126
100
AcDbEntity
  8
ガラス
  6
Continuous
100
AcDbVertex
100
AcDb2dVertex
 10
16.65
 20
-17.1
 30
0.0
 70
     8
  0
VERTEX
  5
129
330
126
100
AcDbEntity
  8
ガラス
  6
Continuous
100
AcDbVertex
100
AcDb2dVertex
 10
16.625
 20
-17.15
 30
0.0
 70
     8
  0
VERTEX
  5
12A
330
126
100
AcDbEntity
  8
ガラス
  6
Continuous
100
AcDbVertex
100
AcDb2dVertex
 10
16.625
 20
-17.175
 30
0.0
 70
     8
  0
VERTEX
  5
12B
330
126
100
AcDbEntity
  8
ガラス
  6
Continuous
100
AcDbVertex
100
AcDb2dVertex
 10
16.6
 20
-17.225
 30
0.0
 70
     8
  0
VERTEX
  5
12C
330
126
100
AcDbEntity
  8
ガラス
  6
Continuous
100
AcDbVertex
100
AcDb2dVertex
 10
16.6
 20
-17.275
 30
0.0
 70
     8
  0
VERTEX
  5
12D
330
126
100
AcDbEntity
  8
ガラス
  6
Continuous
100
AcDbVertex
100
AcDb2dVertex
 10
16.575
 20
-17.3
 30
0.0
 70
     8
  0
VERTEX
  5
12E
330
126
100
AcDbEntity
  8
ガラス
  6
Continuous
100
AcDbVertex
100
AcDb2dVertex
 10
16.575
 20
-17.35
 30
0.0
 70
     8
  0
VERTEX
  5
12F
330
126
100
AcDbEntity
  8
ガラス
  6
Continuous
100
AcDbVertex
100
AcDb2dVertex
 10
16.55
 20
-17.4
 30
0.0
 70
     8
  0
VERTEX
  5
130
330
126
100
AcDbEntity
  8
ガラス
  6
Continuous
100
AcDbVertex
100
AcDb2dVertex
 10
16.55
 20
-17.425
 30
0.0
 70
     8
  0
VERTEX
  5
131
330
126
100
AcDbEntity
  8
ガラス
  6
Continuous
100
AcDbVertex
100
AcDb2dVertex
 10
16.55
 20
-17.475
 30
0.0
 70
     8
  0
VERTEX
  5
132
330
126
100
AcDbEntity
  8
ガラス
  6
Continuous
100
AcDbVertex
100
AcDb2dVertex
 10
16.525
 20
-17.525
 30
0.0
 70
     8
  0
VERTEX
  5
133
330
126
100
AcDbEntity
  8
ガラス
  6
Continuous
100
AcDbVertex
100
AcDb2dVertex
 10
16.525
 20
-17.55
 30
0.0
 70
     8
  0
VERTEX
  5
134
330
126
100
AcDbEntity
  8
ガラス
  6
Continuous
100
AcDbVertex
100
AcDb2dVertex
 10
16.5
 20
-17.6
 30
0.0
 70
     8
  0
VERTEX
  5
135
330
126
100
AcDbEntity
  8
ガラス
  6
Continuous
100
AcDbVertex
100
AcDb2dVertex
 10
16.5
 20
-17.65
 30
0.0
 70
     8
  0
VERTEX
  5
136
330
126
100
AcDbEntity
  8
ガラス
  6
Continuous
100
AcDbVertex
100
AcDb2dVertex
 10
16.5
 20
-17.675
 30
0.0
 70
     8
  0
VERTEX
  5
137
330
126
100
AcDbEntity
  8
ガラス
  6
Continuous
100
AcDbVertex
100
AcDb2dVertex
 10
16.475
 20
-17.725
 30
0.0
 70
     8
  0
VERTEX
  5
138
330
126
100
AcDbEntity
  8
ガラス
  6
Continuous
100
AcDbVertex
100
AcDb2dVertex
 10
16.475
 20
-17.775
 30
0.0
 70
     8
  0
VERTEX
  5
139
330
126
100
AcDbEntity
  8
ガラス
  6
Continuous
100
AcDbVertex
100
AcDb2dVertex
 10
16.475
 20
-17.8
 30
0.0
 70
     8
  0
VERTEX
  5
13A
330
126
100
AcDbEntity
  8
ガラス
  6
Continuous
100
AcDbVertex
100
AcDb2dVertex
 10
16.45
 20
-17.85
 30
0.0
 70
     8
  0
VERTEX
  5
13B
330
126
100
AcDbEntity
  8
ガラス
  6
Continuous
100
AcDbVertex
100
AcDb2dVertex
 10
16.45
 20
-17.9
 30
0.0
 70
     8
  0
VERTEX
  5
13C
330
126
100
AcDbEntity
  8
ガラス
  6
Continuous
100
AcDbVertex
100
AcDb2dVertex
 10
16.45
 20
-17.925
 30
0.0
 70
     8
  0
VERTEX
  5
13D
330
126
100
AcDbEntity
  8
ガラス
  6
Continuous
100
AcDbVertex
100
AcDb2dVertex
 10
16.45
 20
-17.975
 30
0.0
 70
     8
  0
VERTEX
  5
13E
330
126
100
AcDbEntity
  8
ガラス
  6
Continuous
100
AcDbVertex
100
AcDb2dVertex
 10
16.45
 20
-18.025
 30
0.0
 70
     8
  0
VERTEX
  5
13F
330
126
100
AcDbEntity
  8
ガラス
  6
Continuous
100
AcDbVertex
100
AcDb2dVertex
 10
16.425
 20
-18.075
 30
0.0
 70
     8
  0
VERTEX
  5
140
330
126
100
AcDbEntity
  8
ガラス
  6
Continuous
100
AcDbVertex
100
AcDb2dVertex
 10
16.425
 20
-18.1
 30
0.0
 70
     8
  0
VERTEX
  5
141
330
126
100
AcDbEntity
  8
ガラス
  6
Continuous
100
AcDbVertex
100
AcDb2dVertex
 10
16.425
 20
-18.15
 30
0.0
 70
     8
  0
VERTEX
  5
142
330
126
100
AcDbEntity
  8
ガラス
  6
Continuous
100
AcDbVertex
100
AcDb2dVertex
 10
16.425
 20
-18.2
 30
0.0
 70
     8
  0
VERTEX
  5
143
330
126
100
AcDbEntity
  8
ガラス
  6
Continuous
100
AcDbVertex
100
AcDb2dVertex
 10
16.425
 20
-18.225
 30
0.0
 70
     8
  0
VERTEX
  5
144
330
126
100
AcDbEntity
  8
ガラス
  6
Continuous
100
AcDbVertex
100
AcDb2dVertex
 10
16.425
 20
-18.275
 30
0.0
 70
     8
  0
VERTEX
  5
145
330
126
100
AcDbEntity
  8
ガラス
  6
Continuous
100
AcDbVertex
100
AcDb2dVertex
 10
16.425
 20
-18.325
 30
0.0
 70
     8
  0
VERTEX
  5
146
330
126
100
AcDbEntity
  8
ガラス
  6
Continuous
100
AcDbVertex
100
AcDb2dVertex
 10
16.425
 20
-18.35
 30
0.0
 70
     8
  0
VERTEX
  5
147
330
126
100
AcDbEntity
  8
ガラス
  6
Continuous
100
AcDbVertex
100
AcDb2dVertex
 10
16.425
 20
-18.4
 30
0.0
 70
     8
  0
VERTEX
  5
148
330
126
100
AcDbEntity
  8
ガラス
  6
Continuous
100
AcDbVertex
100
AcDb2dVertex
 10
16.425
 20
-18.45
 30
0.0
 70
     8
  0
VERTEX
  5
149
330
126
100
AcDbEntity
  8
ガラス
  6
Continuous
100
AcDbVertex
100
AcDb2dVertex
 10
16.425
 20
-18.5
 30
0.0
 70
     8
  0
VERTEX
  5
14A
330
126
100
AcDbEntity
  8
ガラス
  6
Continuous
100
AcDbVertex
100
AcDb2dVertex
 10
16.425
 20
-18.525
 30
0.0
 70
     8
  0
VERTEX
  5
14B
330
126
100
AcDbEntity
  8
ガラス
  6
Continuous
100
AcDbVertex
100
AcDb2dVertex
 10
16.425
 20
-18.575
 30
0.0
 70
     8
  0
VERTEX
  5
14C
330
126
100
AcDbEntity
  8
ガラス
  6
Continuous
100
AcDbVertex
100
AcDb2dVertex
 10
16.425
 20
-18.625
 30
0.0
 70
     8
  0
VERTEX
  5
14D
330
126
100
AcDbEntity
  8
ガラス
  6
Continuous
100
AcDbVertex
100
AcDb2dVertex
 10
16.425
 20
-18.675
 30
0.0
 70
     8
  0
VERTEX
  5
14E
330
126
100
AcDbEntity
  8
ガラス
  6
Continuous
100
AcDbVertex
100
AcDb2dVertex
 10
16.425
 20
-18.7
 30
0.0
 70
     8
  0
VERTEX
  5
14F
330
126
100
AcDbEntity
  8
ガラス
  6
Continuous
100
AcDbVertex
100
AcDb2dVertex
 10
16.425
 20
-18.75
 30
0.0
 70
     8
  0
SEQEND
  5
150
330
126
100
AcDbEntity
  8
0
  0
ARC
  5
151
330
FA
100
AcDbEntity
  8
ガラス
  6
Continuous
100
AcDbCircle
 10
15.759675
 20
-18.737611
 30
0.0
 40
0.668594
100
AcDbArc
 50
180.0
 51
0.0
  0
ENDBLK
  5
152
330
FA
100
AcDbEntity
  8
0
100
AcDbBlockEnd
  0
BLOCK
  5
153
330
154
100
AcDbEntity
  8
0
100
AcDbBlockBegin
  2
*U7
 70
     1
 71
     0
 10
0.0
 20
0.0
 30
0.0
  3
*U7
  1

  0
POLYLINE
  5
155
330
154
100
AcDbEntity
  8
ガラス
  6
Continuous
100
AcDb2dPolyline
 66
     1
 10
0.0
 20
0.0
 30
0.0
 70
     4
  0
VERTEX
  5
156
330
155
100
AcDbEntity
  8
ガラス
  6
Continuous
100
AcDbVertex
100
AcDb2dVertex
 10
8.1
 20
-26.2
 30
0.0
 70
     8
  0
VERTEX
  5
157
330
155
100
AcDbEntity
  8
ガラス
  6
Continuous
100
AcDbVertex
100
AcDb2dVertex
 10
8.175000000000001
 20
-26.175
 30
0.0
 70
     8
  0
VERTEX
  5
158
330
155
100
AcDbEntity
  8
ガラス
  6
Continuous
100
AcDbVertex
100
AcDb2dVertex
 10
8.25
 20
-26.175
 30
0.0
 70
     8
  0
VERTEX
  5
159
330
155
100
AcDbEntity
  8
ガラス
  6
Continuous
100
AcDbVertex
100
AcDb2dVertex
 10
8.300000000000001
 20
-26.175
 30
0.0
 70
     8
  0
VERTEX
  5
15A
330
155
100
AcDbEntity
  8
ガラス
  6
Continuous
100
AcDbVertex
100
AcDb2dVertex
 10
8.375
 20
-26.175
 30
0.0
 70
     8
  0
VERTEX
  5
15B
330
155
100
AcDbEntity
  8
ガラス
  6
Continuous
100
AcDbVertex
100
AcDb2dVertex
 10
8.425000000000001
 20
-26.15
 30
0.0
 70
     8
  0
VERTEX
  5
15C
330
155
100
AcDbEntity
  8
ガラス
  6
Continuous
100
AcDbVertex
100
AcDb2dVertex
 10
8.5
 20
-26.15
 30
0.0
 70
     8
  0
VERTEX
  5
15D
330
155
100
AcDbEntity
  8
ガラス
  6
Continuous
100
AcDbVertex
100
AcDb2dVertex
 10
8.574999999999999
 20
-26.15
 30
0.0
 70
     8
  0
VERTEX
  5
15E
330
155
100
AcDbEntity
  8
ガラス
  6
Continuous
100
AcDbVertex
100
AcDb2dVertex
 10
8.625
 20
-26.15
 30
0.0
 70
     8
  0
VERTEX
  5
15F
330
155
100
AcDbEntity
  8
ガラス
  6
Continuous
100
AcDbVertex
100
AcDb2dVertex
 10
8.699999999999999
 20
-26.15
 30
0.0
 70
     8
  0
VERTEX
  5
160
330
155
100
AcDbEntity
  8
ガラス
  6
Continuous
100
AcDbVertex
100
AcDb2dVertex
 10
8.75
 20
-26.15
 30
0.0
 70
     8
  0
VERTEX
  5
161
330
155
100
AcDbEntity
  8
ガラス
  6
Continuous
100
AcDbVertex
100
AcDb2dVertex
 10
8.824999999999999
 20
-26.15
 30
0.0
 70
     8
  0
VERTEX
  5
162
330
155
100
AcDbEntity
  8
ガラス
  6
Continuous
100
AcDbVertex
100
AcDb2dVertex
 10
8.875
 20
-26.15
 30
0.0
 70
     8
  0
VERTEX
  5
163
330
155
100
AcDbEntity
  8
ガラス
  6
Continuous
100
AcDbVertex
100
AcDb2dVertex
 10
8.949999999999999
 20
-26.15
 30
0.0
 70
     8
  0
VERTEX
  5
164
330
155
100
AcDbEntity
  8
ガラス
  6
Continuous
100
AcDbVertex
100
AcDb2dVertex
 10
9.0
 20
-26.175
 30
0.0
 70
     8
  0
VERTEX
  5
165
330
155
100
AcDbEntity
  8
ガラス
  6
Continuous
100
AcDbVertex
100
AcDb2dVertex
 10
9.050000000000001
 20
-26.175
 30
0.0
 70
     8
  0
VERTEX
  5
166
330
155
100
AcDbEntity
  8
ガラス
  6
Continuous
100
AcDbVertex
100
AcDb2dVertex
 10
9.125
 20
-26.175
 30
0.0
 70
     8
  0
VERTEX
  5
167
330
155
100
AcDbEntity
  8
ガラス
  6
Continuous
100
AcDbVertex
100
AcDb2dVertex
 10
9.175000000000001
 20
-26.2
 30
0.0
 70
     8
  0
VERTEX
  5
168
330
155
100
AcDbEntity
  8
ガラス
  6
Continuous
100
AcDbVertex
100
AcDb2dVertex
 10
9.225
 20
-26.2
 30
0.0
 70
     8
  0
VERTEX
  5
169
330
155
100
AcDbEntity
  8
ガラス
  6
Continuous
100
AcDbVertex
100
AcDb2dVertex
 10
9.275
 20
-26.225
 30
0.0
 70
     8
  0
VERTEX
  5
16A
330
155
100
AcDbEntity
  8
ガラス
  6
Continuous
100
AcDbVertex
100
AcDb2dVertex
 10
9.35
 20
-26.25
 30
0.0
 70
     8
  0
VERTEX
  5
16B
330
155
100
AcDbEntity
  8
ガラス
  6
Continuous
100
AcDbVertex
100
AcDb2dVertex
 10
9.4
 20
-26.275
 30
0.0
 70
     8
  0
VERTEX
  5
16C
330
155
100
AcDbEntity
  8
ガラス
  6
Continuous
100
AcDbVertex
100
AcDb2dVertex
 10
9.449999999999999
 20
-26.3
 30
0.0
 70
     8
  0
VERTEX
  5
16D
330
155
100
AcDbEntity
  8
ガラス
  6
Continuous
100
AcDbVertex
100
AcDb2dVertex
 10
9.5
 20
-26.325
 30
0.0
 70
     8
  0
VERTEX
  5
16E
330
155
100
AcDbEntity
  8
ガラス
  6
Continuous
100
AcDbVertex
100
AcDb2dVertex
 10
9.550000000000001
 20
-26.35
 30
0.0
 70
     8
  0
VERTEX
  5
16F
330
155
100
AcDbEntity
  8
ガラス
  6
Continuous
100
AcDbVertex
100
AcDb2dVertex
 10
9.6
 20
-26.375
 30
0.0
 70
     8
  0
VERTEX
  5
170
330
155
100
AcDbEntity
  8
ガラス
  6
Continuous
100
AcDbVertex
100
AcDb2dVertex
 10
9.65
 20
-26.425
 30
0.0
 70
     8
  0
VERTEX
  5
171
330
155
100
AcDbEntity
  8
ガラス
  6
Continuous
100
AcDbVertex
100
AcDb2dVertex
 10
9.699999999999999
 20
-26.45
 30
0.0
 70
     8
  0
VERTEX
  5
172
330
155
100
AcDbEntity
  8
ガラス
  6
Continuous
100
AcDbVertex
100
AcDb2dVertex
 10
9.75
 20
-26.5
 30
0.0
 70
     8
  0
VERTEX
  5
173
330
155
100
AcDbEntity
  8
ガラス
  6
Continuous
100
AcDbVertex
100
AcDb2dVertex
 10
9.775
 20
-26.525
 30
0.0
 70
     8
  0
VERTEX
  5
174
330
155
100
AcDbEntity
  8
ガラス
  6
Continuous
100
AcDbVertex
100
AcDb2dVertex
 10
9.824999999999999
 20
-26.575
 30
0.0
 70
     8
  0
VERTEX
  5
175
330
155
100
AcDbEntity
  8
ガラス
  6
Continuous
100
AcDbVertex
100
AcDb2dVertex
 10
9.875
 20
-26.625
 30
0.0
 70
     8
  0
VERTEX
  5
176
330
155
100
AcDbEntity
  8
ガラス
  6
Continuous
100
AcDbVertex
100
AcDb2dVertex
 10
9.925000000000001
 20
-26.65
 30
0.0
 70
     8
  0
VERTEX
  5
177
330
155
100
AcDbEntity
  8
ガラス
  6
Continuous
100
AcDbVertex
100
AcDb2dVertex
 10
9.949999999999999
 20
-26.7
 30
0.0
 70
     8
  0
VERTEX
  5
178
330
155
100
AcDbEntity
  8
ガラス
  6
Continuous
100
AcDbVertex
100
AcDb2dVertex
 10
10.0
 20
-26.75
 30
0.0
 70
     8
  0
VERTEX
  5
179
330
155
100
AcDbEntity
  8
ガラス
  6
Continuous
100
AcDbVertex
100
AcDb2dVertex
 10
10.05
 20
-26.8
 30
0.0
 70
     8
  0
VERTEX
  5
17A
330
155
100
AcDbEntity
  8
ガラス
  6
Continuous
100
AcDbVertex
100
AcDb2dVertex
 10
10.1
 20
-26.85
 30
0.0
 70
     8
  0
VERTEX
  5
17B
330
155
100
AcDbEntity
  8
ガラス
  6
Continuous
100
AcDbVertex
100
AcDb2dVertex
 10
10.125
 20
-26.9
 30
0.0
 70
     8
  0
VERTEX
  5
17C
330
155
100
AcDbEntity
  8
ガラス
  6
Continuous
100
AcDbVertex
100
AcDb2dVertex
 10
10.175
 20
-26.95
 30
0.0
 70
     8
  0
VERTEX
  5
17D
330
155
100
AcDbEntity
  8
ガラス
  6
Continuous
100
AcDbVertex
100
AcDb2dVertex
 10
10.225
 20
-27.0
 30
0.0
 70
     8
  0
VERTEX
  5
17E
330
155
100
AcDbEntity
  8
ガラス
  6
Continuous
100
AcDbVertex
100
AcDb2dVertex
 10
10.25
 20
-27.05
 30
0.0
 70
     8
  0
SEQEND
  5
17F
330
155
100
AcDbEntity
  8
0
  0
POLYLINE
  5
180
330
154
100
AcDbEntity
  8
ガラス
  6
Continuous
100
AcDb2dPolyline
 66
     1
 10
0.0
 20
0.0
 30
0.0
 70
     4
  0
VERTEX
  5
181
330
180
100
AcDbEntity
  8
ガラス
  6
Continuous
100
AcDbVertex
100
AcDb2dVertex
 10
10.25
 20
-27.05
 30
0.0
 70
     8
  0
VERTEX
  5
182
330
180
100
AcDbEntity
  8
ガラス
  6
Continuous
100
AcDbVertex
100
AcDb2dVertex
 10
10.225
 20
-27.05
 30
0.0
 70
     8
  0
VERTEX
  5
183
330
180
100
AcDbEntity
  8
ガラス
  6
Continuous
100
AcDbVertex
100
AcDb2dVertex
 10
10.175
 20
-27.05
 30
0.0
 70
     8
  0
VERTEX
  5
184
330
180
100
AcDbEntity
  8
ガラス
  6
Continuous
100
AcDbVertex
100
AcDb2dVertex
 10
10.125
 20
-27.05
 30
0.0
 70
     8
  0
VERTEX
  5
185
330
180
100
AcDbEntity
  8
ガラス
  6
Continuous
100
AcDbVertex
100
AcDb2dVertex
 10
10.075
 20
-27.075
 30
0.0
 70
     8
  0
VERTEX
  5
186
330
180
100
AcDbEntity
  8
ガラス
  6
Continuous
100
AcDbVertex
100
AcDb2dVertex
 10
10.05
 20
-27.075
 30
0.0
 70
     8
  0
VERTEX
  5
187
330
180
100
AcDbEntity
  8
ガラス
  6
Continuous
100
AcDbVertex
100
AcDb2dVertex
 10
10.0
 20
-27.075
 30
0.0
 70
     8
  0
VERTEX
  5
188
330
180
100
AcDbEntity
  8
ガラス
  6
Continuous
100
AcDbVertex
100
AcDb2dVertex
 10
9.949999999999999
 20
-27.075
 30
0.0
 70
     8
  0
VERTEX
  5
189
330
180
100
AcDbEntity
  8
ガラス
  6
Continuous
100
AcDbVertex
100
AcDb2dVertex
 10
9.925000000000001
 20
-27.075
 30
0.0
 70
     8
  0
VERTEX
  5
18A
330
180
100
AcDbEntity
  8
ガラス
  6
Continuous
100
AcDbVertex
100
AcDb2dVertex
 10
9.875
 20
-27.075
 30
0.0
 70
     8
  0
VERTEX
  5
18B
330
180
100
AcDbEntity
  8
ガラス
  6
Continuous
100
AcDbVertex
100
AcDb2dVertex
 10
9.824999999999999
 20
-27.1
 30
0.0
 70
     8
  0
VERTEX
  5
18C
330
180
100
AcDbEntity
  8
ガラス
  6
Continuous
100
AcDbVertex
100
AcDb2dVertex
 10
9.775
 20
-27.1
 30
0.0
 70
     8
  0
VERTEX
  5
18D
330
180
100
AcDbEntity
  8
ガラス
  6
Continuous
100
AcDbVertex
100
AcDb2dVertex
 10
9.75
 20
-27.1
 30
0.0
 70
     8
  0
VERTEX
  5
18E
330
180
100
AcDbEntity
  8
ガラス
  6
Continuous
100
AcDbVertex
100
AcDb2dVertex
 10
9.699999999999999
 20
-27.1
 30
0.0
 70
     8
  0
VERTEX
  5
18F
330
180
100
AcDbEntity
  8
ガラス
  6
Continuous
100
AcDbVertex
100
AcDb2dVertex
 10
9.65
 20
-27.125
 30
0.0
 70
     8
  0
VERTEX
  5
190
330
180
100
AcDbEntity
  8
ガラス
  6
Continuous
100
AcDbVertex
100
AcDb2dVertex
 10
9.625
 20
-27.125
 30
0.0
 70
     8
  0
VERTEX
  5
191
330
180
100
AcDbEntity
  8
ガラス
  6
Continuous
100
AcDbVertex
100
AcDb2dVertex
 10
9.574999999999999
 20
-27.125
 30
0.0
 70
     8
  0
VERTEX
  5
192
330
180
100
AcDbEntity
  8
ガラス
  6
Continuous
100
AcDbVertex
100
AcDb2dVertex
 10
9.525
 20
-27.125
 30
0.0
 70
     8
  0
VERTEX
  5
193
330
180
100
AcDbEntity
  8
ガラス
  6
Continuous
100
AcDbVertex
100
AcDb2dVertex
 10
9.5
 20
-27.15
 30
0.0
 70
     8
  0
VERTEX
  5
194
330
180
100
AcDbEntity
  8
ガラス
  6
Continuous
100
AcDbVertex
100
AcDb2dVertex
 10
9.449999999999999
 20
-27.15
 30
0.0
 70
     8
  0
VERTEX
  5
195
330
180
100
AcDbEntity
  8
ガラス
  6
Continuous
100
AcDbVertex
100
AcDb2dVertex
 10
9.4
 20
-27.15
 30
0.0
 70
     8
  0
VERTEX
  5
196
330
180
100
AcDbEntity
  8
ガラス
  6
Continuous
100
AcDbVertex
100
AcDb2dVertex
 10
9.375
 20
-27.175
 30
0.0
 70
     8
  0
VERTEX
  5
197
330
180
100
AcDbEntity
  8
ガラス
  6
Continuous
100
AcDbVertex
100
AcDb2dVertex
 10
9.324999999999999
 20
-27.175
 30
0.0
 70
     8
  0
VERTEX
  5
198
330
180
100
AcDbEntity
  8
ガラス
  6
Continuous
100
AcDbVertex
100
AcDb2dVertex
 10
9.275
 20
-27.2
 30
0.0
 70
     8
  0
VERTEX
  5
199
330
180
100
AcDbEntity
  8
ガラス
  6
Continuous
100
AcDbVertex
100
AcDb2dVertex
 10
9.25
 20
-27.2
 30
0.0
 70
     8
  0
VERTEX
  5
19A
330
180
100
AcDbEntity
  8
ガラス
  6
Continuous
100
AcDbVertex
100
AcDb2dVertex
 10
9.199999999999999
 20
-27.225
 30
0.0
 70
     8
  0
VERTEX
  5
19B
330
180
100
AcDbEntity
  8
ガラス
  6
Continuous
100
AcDbVertex
100
AcDb2dVertex
 10
9.15
 20
-27.225
 30
0.0
 70
     8
  0
VERTEX
  5
19C
330
180
100
AcDbEntity
  8
ガラス
  6
Continuous
100
AcDbVertex
100
AcDb2dVertex
 10
9.125
 20
-27.25
 30
0.0
 70
     8
  0
VERTEX
  5
19D
330
180
100
AcDbEntity
  8
ガラス
  6
Continuous
100
AcDbVertex
100
AcDb2dVertex
 10
9.074999999999999
 20
-27.25
 30
0.0
 70
     8
  0
VERTEX
  5
19E
330
180
100
AcDbEntity
  8
ガラス
  6
Continuous
100
AcDbVertex
100
AcDb2dVertex
 10
9.025
 20
-27.275
 30
0.0
 70
     8
  0
VERTEX
  5
19F
330
180
100
AcDbEntity
  8
ガラス
  6
Continuous
100
AcDbVertex
100
AcDb2dVertex
 10
9.0
 20
-27.275
 30
0.0
 70
     8
  0
VERTEX
  5
1A0
330
180
100
AcDbEntity
  8
ガラス
  6
Continuous
100
AcDbVertex
100
AcDb2dVertex
 10
8.949999999999999
 20
-27.3
 30
0.0
 70
     8
  0
VERTEX
  5
1A1
330
180
100
AcDbEntity
  8
ガラス
  6
Continuous
100
AcDbVertex
100
AcDb2dVertex
 10
8.925000000000001
 20
-27.3
 30
0.0
 70
     8
  0
VERTEX
  5
1A2
330
180
100
AcDbEntity
  8
ガラス
  6
Continuous
100
AcDbVertex
100
AcDb2dVertex
 10
8.875
 20
-27.325
 30
0.0
 70
     8
  0
VERTEX
  5
1A3
330
180
100
AcDbEntity
  8
ガラス
  6
Continuous
100
AcDbVertex
100
AcDb2dVertex
 10
8.824999999999999
 20
-27.35
 30
0.0
 70
     8
  0
VERTEX
  5
1A4
330
180
100
AcDbEntity
  8
ガラス
  6
Continuous
100
AcDbVertex
100
AcDb2dVertex
 10
8.800000000000001
 20
-27.35
 30
0.0
 70
     8
  0
VERTEX
  5
1A5
330
180
100
AcDbEntity
  8
ガラス
  6
Continuous
100
AcDbVertex
100
AcDb2dVertex
 10
8.75
 20
-27.375
 30
0.0
 70
     8
  0
VERTEX
  5
1A6
330
180
100
AcDbEntity
  8
ガラス
  6
Continuous
100
AcDbVertex
100
AcDb2dVertex
 10
8.725
 20
-27.4
 30
0.0
 70
     8
  0
VERTEX
  5
1A7
330
180
100
AcDbEntity
  8
ガラス
  6
Continuous
100
AcDbVertex
100
AcDb2dVertex
 10
8.675000000000001
 20
-27.4
 30
0.0
 70
     8
  0
VERTEX
  5
1A8
330
180
100
AcDbEntity
  8
ガラス
  6
Continuous
100
AcDbVertex
100
AcDb2dVertex
 10
8.625
 20
-27.425
 30
0.0
 70
     8
  0
VERTEX
  5
1A9
330
180
100
AcDbEntity
  8
ガラス
  6
Continuous
100
AcDbVertex
100
AcDb2dVertex
 10
8.6
 20
-27.425
 30
0.0
 70
     8
  0
SEQEND
  5
1AA
330
180
100
AcDbEntity
  8
0
  0
ARC
  5
1AB
330
154
100
AcDbEntity
  8
ガラス
  6
Continuous
100
AcDbCircle
 10
8.36487
 20
-26.79991
 30
0.0
 40
0.668594
100
AcDbArc
 50
111.203091
 51
291.203091
  0
ENDBLK
  5
1AC
330
154
100
AcDbEntity
  8
0
100
AcDbBlockEnd
  0
BLOCK
  5
1AD
330
1AE
100
AcDbEntity
  8
0
100
AcDbBlockBegin
  2
*U8
 70
     1
 71
     0
 10
0.0
 20
0.0
 30
0.0
  3
*U8
  1

  0
POLYLINE
  5
1AF
330
1AE
100
AcDbEntity
  8
ガラス
  6
Continuous
100
AcDb2dPolyline
 66
     1
 10
0.0
 20
0.0
 30
0.0
 70
     4
  0
VERTEX
  5
1B0
330
1AF
100
AcDbEntity
  8
ガラス
  6
Continuous
100
AcDbVertex
100
AcDb2dVertex
 10
-6.125
 20
-26.2
 30
0.0
 70
     8
  0
VERTEX
  5
1B1
330
1AF
100
AcDbEntity
  8
ガラス
  6
Continuous
100
AcDbVertex
100
AcDb2dVertex
 10
-6.05
 20
-26.175
 30
0.0
 70
     8
  0
VERTEX
  5
1B2
330
1AF
100
AcDbEntity
  8
ガラス
  6
Continuous
100
AcDbVertex
100
AcDb2dVertex
 10
-6.0
 20
-26.175
 30
0.0
 70
     8
  0
VERTEX
  5
1B3
330
1AF
100
AcDbEntity
  8
ガラス
  6
Continuous
100
AcDbVertex
100
AcDb2dVertex
 10
-5.925
 20
-26.175
 30
0.0
 70
     8
  0
VERTEX
  5
1B4
330
1AF
100
AcDbEntity
  8
ガラス
  6
Continuous
100
AcDbVertex
100
AcDb2dVertex
 10
-5.85
 20
-26.175
 30
0.0
 70
     8
  0
VERTEX
  5
1B5
330
1AF
100
AcDbEntity
  8
ガラス
  6
Continuous
100
AcDbVertex
100
AcDb2dVertex
 10
-5.8
 20
-26.15
 30
0.0
 70
     8
  0
VERTEX
  5
1B6
330
1AF
100
AcDbEntity
  8
ガラス
  6
Continuous
100
AcDbVertex
100
AcDb2dVertex
 10
-5.725
 20
-26.15
 30
0.0
 70
     8
  0
VERTEX
  5
1B7
330
1AF
100
AcDbEntity
  8
ガラス
  6
Continuous
100
AcDbVertex
100
AcDb2dVertex
 10
-5.675
 20
-26.15
 30
0.0
 70
     8
  0
VERTEX
  5
1B8
330
1AF
100
AcDbEntity
  8
ガラス
  6
Continuous
100
AcDbVertex
100
AcDb2dVertex
 10
-5.6
 20
-26.15
 30
0.0
 70
     8
  0
VERTEX
  5
1B9
330
1AF
100
AcDbEntity
  8
ガラス
  6
Continuous
100
AcDbVertex
100
AcDb2dVertex
 10
-5.55
 20
-26.15
 30
0.0
 70
     8
  0
VERTEX
  5
1BA
330
1AF
100
AcDbEntity
  8
ガラス
  6
Continuous
100
AcDbVertex
100
AcDb2dVertex
 10
-5.475
 20
-26.15
 30
0.0
 70
     8
  0
VERTEX
  5
1BB
330
1AF
100
AcDbEntity
  8
ガラス
  6
Continuous
100
AcDbVertex
100
AcDb2dVertex
 10
-5.425
 20
-26.15
 30
0.0
 70
     8
  0
VERTEX
  5
1BC
330
1AF
100
AcDbEntity
  8
ガラス
  6
Continuous
100
AcDbVertex
100
AcDb2dVertex
 10
-5.35
 20
-26.15
 30
0.0
 70
     8
  0
VERTEX
  5
1BD
330
1AF
100
AcDbEntity
  8
ガラス
  6
Continuous
100
AcDbVertex
100
AcDb2dVertex
 10
-5.3
 20
-26.15
 30
0.0
 70
     8
  0
VERTEX
  5
1BE
330
1AF
100
AcDbEntity
  8
ガラス
  6
Continuous
100
AcDbVertex
100
AcDb2dVertex
 10
-5.225
 20
-26.175
 30
0.0
 70
     8
  0
VERTEX
  5
1BF
330
1AF
100
AcDbEntity
  8
ガラス
  6
Continuous
100
AcDbVertex
100
AcDb2dVertex
 10
-5.175
 20
-26.175
 30
0.0
 70
     8
  0
VERTEX
  5
1C0
330
1AF
100
AcDbEntity
  8
ガラス
  6
Continuous
100
AcDbVertex
100
AcDb2dVertex
 10
-5.125
 20
-26.175
 30
0.0
 70
     8
  0
VERTEX
  5
1C1
330
1AF
100
AcDbEntity
  8
ガラス
  6
Continuous
100
AcDbVertex
100
AcDb2dVertex
 10
-5.05
 20
-26.2
 30
0.0
 70
     8
  0
VERTEX
  5
1C2
330
1AF
100
AcDbEntity
  8
ガラス
  6
Continuous
100
AcDbVertex
100
AcDb2dVertex
 10
-5.0
 20
-26.2
 30
0.0
 70
     8
  0
VERTEX
  5
1C3
330
1AF
100
AcDbEntity
  8
ガラス
  6
Continuous
100
AcDbVertex
100
AcDb2dVertex
 10
-4.95
 20
-26.225
 30
0.0
 70
     8
  0
VERTEX
  5
1C4
330
1AF
100
AcDbEntity
  8
ガラス
  6
Continuous
100
AcDbVertex
100
AcDb2dVertex
 10
-4.9
 20
-26.25
 30
0.0
 70
     8
  0
VERTEX
  5
1C5
330
1AF
100
AcDbEntity
  8
ガラス
  6
Continuous
100
AcDbVertex
100
AcDb2dVertex
 10
-4.85
 20
-26.275
 30
0.0
 70
     8
  0
VERTEX
  5
1C6
330
1AF
100
AcDbEntity
  8
ガラス
  6
Continuous
100
AcDbVertex
100
AcDb2dVertex
 10
-4.775
 20
-26.3
 30
0.0
 70
     8
  0
VERTEX
  5
1C7
330
1AF
100
AcDbEntity
  8
ガラス
  6
Continuous
100
AcDbVertex
100
AcDb2dVertex
 10
-4.725
 20
-26.325
 30
0.0
 70
     8
  0
VERTEX
  5
1C8
330
1AF
100
AcDbEntity
  8
ガラス
  6
Continuous
100
AcDbVertex
100
AcDb2dVertex
 10
-4.675
 20
-26.35
 30
0.0
 70
     8
  0
VERTEX
  5
1C9
330
1AF
100
AcDbEntity
  8
ガラス
  6
Continuous
100
AcDbVertex
100
AcDb2dVertex
 10
-4.625
 20
-26.375
 30
0.0
 70
     8
  0
VERTEX
  5
1CA
330
1AF
100
AcDbEntity
  8
ガラス
  6
Continuous
100
AcDbVertex
100
AcDb2dVertex
 10
-4.6
 20
-26.425
 30
0.0
 70
     8
  0
VERTEX
  5
1CB
330
1AF
100
AcDbEntity
  8
ガラス
  6
Continuous
100
AcDbVertex
100
AcDb2dVertex
 10
-4.55
 20
-26.45
 30
0.0
 70
     8
  0
VERTEX
  5
1CC
330
1AF
100
AcDbEntity
  8
ガラス
  6
Continuous
100
AcDbVertex
100
AcDb2dVertex
 10
-4.5
 20
-26.5
 30
0.0
 70
     8
  0
VERTEX
  5
1CD
330
1AF
100
AcDbEntity
  8
ガラス
  6
Continuous
100
AcDbVertex
100
AcDb2dVertex
 10
-4.45
 20
-26.525
 30
0.0
 70
     8
  0
VERTEX
  5
1CE
330
1AF
100
AcDbEntity
  8
ガラス
  6
Continuous
100
AcDbVertex
100
AcDb2dVertex
 10
-4.4
 20
-26.575
 30
0.0
 70
     8
  0
VERTEX
  5
1CF
330
1AF
100
AcDbEntity
  8
ガラス
  6
Continuous
100
AcDbVertex
100
AcDb2dVertex
 10
-4.35
 20
-26.625
 30
0.0
 70
     8
  0
VERTEX
  5
1D0
330
1AF
100
AcDbEntity
  8
ガラス
  6
Continuous
100
AcDbVertex
100
AcDb2dVertex
 10
-4.325
 20
-26.65
 30
0.0
 70
     8
  0
VERTEX
  5
1D1
330
1AF
100
AcDbEntity
  8
ガラス
  6
Continuous
100
AcDbVertex
100
AcDb2dVertex
 10
-4.275
 20
-26.7
 30
0.0
 70
     8
  0
VERTEX
  5
1D2
330
1AF
100
AcDbEntity
  8
ガラス
  6
Continuous
100
AcDbVertex
100
AcDb2dVertex
 10
-4.225
 20
-26.75
 30
0.0
 70
     8
  0
VERTEX
  5
1D3
330
1AF
100
AcDbEntity
  8
ガラス
  6
Continuous
100
AcDbVertex
100
AcDb2dVertex
 10
-4.175
 20
-26.8
 30
0.0
 70
     8
  0
VERTEX
  5
1D4
330
1AF
100
AcDbEntity
  8
ガラス
  6
Continuous
100
AcDbVertex
100
AcDb2dVertex
 10
-4.15
 20
-26.85
 30
0.0
 70
     8
  0
VERTEX
  5
1D5
330
1AF
100
AcDbEntity
  8
ガラス
  6
Continuous
100
AcDbVertex
100
AcDb2dVertex
 10
-4.1
 20
-26.9
 30
0.0
 70
     8
  0
VERTEX
  5
1D6
330
1AF
100
AcDbEntity
  8
ガラス
  6
Continuous
100
AcDbVertex
100
AcDb2dVertex
 10
-4.05
 20
-26.95
 30
0.0
 70
     8
  0
VERTEX
  5
1D7
330
1AF
100
AcDbEntity
  8
ガラス
  6
Continuous
100
AcDbVertex
100
AcDb2dVertex
 10
-4.025
 20
-27.0
 30
0.0
 70
     8
  0
VERTEX
  5
1D8
330
1AF
100
AcDbEntity
  8
ガラス
  6
Continuous
100
AcDbVertex
100
AcDb2dVertex
 10
-3.975
 20
-27.05
 30
0.0
 70
     8
  0
SEQEND
  5
1D9
330
1AF
100
AcDbEntity
  8
0
  0
POLYLINE
  5
1DA
330
1AE
100
AcDbEntity
  8
ガラス
  6
Continuous
100
AcDb2dPolyline
 66
     1
 10
0.0
 20
0.0
 30
0.0
 70
     4
  0
VERTEX
  5
1DB
330
1DA
100
AcDbEntity
  8
ガラス
  6
Continuous
100
AcDbVertex
100
AcDb2dVertex
 10
-3.975
 20
-27.05
 30
0.0
 70
     8
  0
VERTEX
  5
1DC
330
1DA
100
AcDbEntity
  8
ガラス
  6
Continuous
100
AcDbVertex
100
AcDb2dVertex
 10
-4.025
 20
-27.05
 30
0.0
 70
     8
  0
VERTEX
  5
1DD
330
1DA
100
AcDbEntity
  8
ガラス
  6
Continuous
100
AcDbVertex
100
AcDb2dVertex
 10
-4.05
 20
-27.05
 30
0.0
 70
     8
  0
VERTEX
  5
1DE
330
1DA
100
AcDbEntity
  8
ガラス
  6
Continuous
100
AcDbVertex
100
AcDb2dVertex
 10
-4.1
 20
-27.05
 30
0.0
 70
     8
  0
VERTEX
  5
1DF
330
1DA
100
AcDbEntity
  8
ガラス
  6
Continuous
100
AcDbVertex
100
AcDb2dVertex
 10
-4.15
 20
-27.075
 30
0.0
 70
     8
  0
VERTEX
  5
1E0
330
1DA
100
AcDbEntity
  8
ガラス
  6
Continuous
100
AcDbVertex
100
AcDb2dVertex
 10
-4.2
 20
-27.075
 30
0.0
 70
     8
  0
VERTEX
  5
1E1
330
1DA
100
AcDbEntity
  8
ガラス
  6
Continuous
100
AcDbVertex
100
AcDb2dVertex
 10
-4.225
 20
-27.075
 30
0.0
 70
     8
  0
VERTEX
  5
1E2
330
1DA
100
AcDbEntity
  8
ガラス
  6
Continuous
100
AcDbVertex
100
AcDb2dVertex
 10
-4.275
 20
-27.075
 30
0.0
 70
     8
  0
VERTEX
  5
1E3
330
1DA
100
AcDbEntity
  8
ガラス
  6
Continuous
100
AcDbVertex
100
AcDb2dVertex
 10
-4.325
 20
-27.075
 30
0.0
 70
     8
  0
VERTEX
  5
1E4
330
1DA
100
AcDbEntity
  8
ガラス
  6
Continuous
100
AcDbVertex
100
AcDb2dVertex
 10
-4.35
 20
-27.075
 30
0.0
 70
     8
  0
VERTEX
  5
1E5
330
1DA
100
AcDbEntity
  8
ガラス
  6
Continuous
100
AcDbVertex
100
AcDb2dVertex
 10
-4.4
 20
-27.1
 30
0.0
 70
     8
  0
VERTEX
  5
1E6
330
1DA
100
AcDbEntity
  8
ガラス
  6
Continuous
100
AcDbVertex
100
AcDb2dVertex
 10
-4.45
 20
-27.1
 30
0.0
 70
     8
  0
VERTEX
  5
1E7
330
1DA
100
AcDbEntity
  8
ガラス
  6
Continuous
100
AcDbVertex
100
AcDb2dVertex
 10
-4.5
 20
-27.1
 30
0.0
 70
     8
  0
VERTEX
  5
1E8
330
1DA
100
AcDbEntity
  8
ガラス
  6
Continuous
100
AcDbVertex
100
AcDb2dVertex
 10
-4.525
 20
-27.1
 30
0.0
 70
     8
  0
VERTEX
  5
1E9
330
1DA
100
AcDbEntity
  8
ガラス
  6
Continuous
100
AcDbVertex
100
AcDb2dVertex
 10
-4.575
 20
-27.125
 30
0.0
 70
     8
  0
VERTEX
  5
1EA
330
1DA
100
AcDbEntity
  8
ガラス
  6
Continuous
100
AcDbVertex
100
AcDb2dVertex
 10
-4.625
 20
-27.125
 30
0.0
 70
     8
  0
VERTEX
  5
1EB
330
1DA
100
AcDbEntity
  8
ガラス
  6
Continuous
100
AcDbVertex
100
AcDb2dVertex
 10
-4.65
 20
-27.125
 30
0.0
 70
     8
  0
VERTEX
  5
1EC
330
1DA
100
AcDbEntity
  8
ガラス
  6
Continuous
100
AcDbVertex
100
AcDb2dVertex
 10
-4.7
 20
-27.125
 30
0.0
 70
     8
  0
VERTEX
  5
1ED
330
1DA
100
AcDbEntity
  8
ガラス
  6
Continuous
100
AcDbVertex
100
AcDb2dVertex
 10
-4.75
 20
-27.15
 30
0.0
 70
     8
  0
VERTEX
  5
1EE
330
1DA
100
AcDbEntity
  8
ガラス
  6
Continuous
100
AcDbVertex
100
AcDb2dVertex
 10
-4.775
 20
-27.15
 30
0.0
 70
     8
  0
VERTEX
  5
1EF
330
1DA
100
AcDbEntity
  8
ガラス
  6
Continuous
100
AcDbVertex
100
AcDb2dVertex
 10
-4.825
 20
-27.15
 30
0.0
 70
     8
  0
VERTEX
  5
1F0
330
1DA
100
AcDbEntity
  8
ガラス
  6
Continuous
100
AcDbVertex
100
AcDb2dVertex
 10
-4.875
 20
-27.175
 30
0.0
 70
     8
  0
VERTEX
  5
1F1
330
1DA
100
AcDbEntity
  8
ガラス
  6
Continuous
100
AcDbVertex
100
AcDb2dVertex
 10
-4.9
 20
-27.175
 30
0.0
 70
     8
  0
VERTEX
  5
1F2
330
1DA
100
AcDbEntity
  8
ガラス
  6
Continuous
100
AcDbVertex
100
AcDb2dVertex
 10
-4.95
 20
-27.2
 30
0.0
 70
     8
  0
VERTEX
  5
1F3
330
1DA
100
AcDbEntity
  8
ガラス
  6
Continuous
100
AcDbVertex
100
AcDb2dVertex
 10
-5.0
 20
-27.2
 30
0.0
 70
     8
  0
VERTEX
  5
1F4
330
1DA
100
AcDbEntity
  8
ガラス
  6
Continuous
100
AcDbVertex
100
AcDb2dVertex
 10
-5.025
 20
-27.225
 30
0.0
 70
     8
  0
VERTEX
  5
1F5
330
1DA
100
AcDbEntity
  8
ガラス
  6
Continuous
100
AcDbVertex
100
AcDb2dVertex
 10
-5.075
 20
-27.225
 30
0.0
 70
     8
  0
VERTEX
  5
1F6
330
1DA
100
AcDbEntity
  8
ガラス
  6
Continuous
100
AcDbVertex
100
AcDb2dVertex
 10
-5.125
 20
-27.25
 30
0.0
 70
     8
  0
VERTEX
  5
1F7
330
1DA
100
AcDbEntity
  8
ガラス
  6
Continuous
100
AcDbVertex
100
AcDb2dVertex
 10
-5.15
 20
-27.25
 30
0.0
 70
     8
  0
VERTEX
  5
1F8
330
1DA
100
AcDbEntity
  8
ガラス
  6
Continuous
100
AcDbVertex
100
AcDb2dVertex
 10
-5.2
 20
-27.275
 30
0.0
 70
     8
  0
VERTEX
  5
1F9
330
1DA
100
AcDbEntity
  8
ガラス
  6
Continuous
100
AcDbVertex
100
AcDb2dVertex
 10
-5.225
 20
-27.275
 30
0.0
 70
     8
  0
VERTEX
  5
1FA
330
1DA
100
AcDbEntity
  8
ガラス
  6
Continuous
100
AcDbVertex
100
AcDb2dVertex
 10
-5.275
 20
-27.3
 30
0.0
 70
     8
  0
VERTEX
  5
1FB
330
1DA
100
AcDbEntity
  8
ガラス
  6
Continuous
100
AcDbVertex
100
AcDb2dVertex
 10
-5.325
 20
-27.3
 30
0.0
 70
     8
  0
VERTEX
  5
1FC
330
1DA
100
AcDbEntity
  8
ガラス
  6
Continuous
100
AcDbVertex
100
AcDb2dVertex
 10
-5.35
 20
-27.325
 30
0.0
 70
     8
  0
VERTEX
  5
1FD
330
1DA
100
AcDbEntity
  8
ガラス
  6
Continuous
100
AcDbVertex
100
AcDb2dVertex
 10
-5.4
 20
-27.35
 30
0.0
 70
     8
  0
VERTEX
  5
1FE
330
1DA
100
AcDbEntity
  8
ガラス
  6
Continuous
100
AcDbVertex
100
AcDb2dVertex
 10
-5.425
 20
-27.35
 30
0.0
 70
     8
  0
VERTEX
  5
1FF
330
1DA
100
AcDbEntity
  8
ガラス
  6
Continuous
100
AcDbVertex
100
AcDb2dVertex
 10
-5.475
 20
-27.375
 30
0.0
 70
     8
  0
VERTEX
  5
200
330
1DA
100
AcDbEntity
  8
ガラス
  6
Continuous
100
AcDbVertex
100
AcDb2dVertex
 10
-5.525
 20
-27.4
 30
0.0
 70
     8
  0
VERTEX
  5
201
330
1DA
100
AcDbEntity
  8
ガラス
  6
Continuous
100
AcDbVertex
100
AcDb2dVertex
 10
-5.55
 20
-27.4
 30
0.0
 70
     8
  0
VERTEX
  5
202
330
1DA
100
AcDbEntity
  8
ガラス
  6
Continuous
100
AcDbVertex
100
AcDb2dVertex
 10
-5.6
 20
-27.425
 30
0.0
 70
     8
  0
VERTEX
  5
203
330
1DA
100
AcDbEntity
  8
ガラス
  6
Continuous
100
AcDbVertex
100
AcDb2dVertex
 10
-5.65
 20
-27.425
 30
0.0
 70
     8
  0
SEQEND
  5
204
330
1DA
100
AcDbEntity
  8
0
  0
ARC
  5
205
330
1AE
100
AcDbEntity
  8
ガラス
  6
Continuous
100
AcDbCircle
 10
-5.867208
 20
-26.79991
 30
0.0
 40
0.668594
100
AcDbArc
 50
111.203091
 51
291.203091
  0
ENDBLK
  5
206
330
1AE
100
AcDbEntity
  8
0
100
AcDbBlockEnd
  0
BLOCK
  5
207
330
208
100
AcDbEntity
  8
0
100
AcDbBlockBegin
  2
*U9
 70
     1
 71
     0
 10
0.0
 20
0.0
 30
0.0
  3
*U9
  1

  0
POLYLINE
  5
209
330
208
100
AcDbEntity
  8
ガラス
  6
Continuous
100
AcDb2dPolyline
 66
     1
 10
0.0
 20
0.0
 30
0.0
 70
     4
  0
VERTEX
  5
20A
330
209
100
AcDbEntity
  8
ガラス
  6
Continuous
100
AcDbVertex
100
AcDb2dVertex
 10
-18.95
 20
-26.2
 30
0.0
 70
     8
  0
VERTEX
  5
20B
330
209
100
AcDbEntity
  8
ガラス
  6
Continuous
100
AcDbVertex
100
AcDb2dVertex
 10
-18.875
 20
-26.175
 30
0.0
 70
     8
  0
VERTEX
  5
20C
330
209
100
AcDbEntity
  8
ガラス
  6
Continuous
100
AcDbVertex
100
AcDb2dVertex
 10
-18.8
 20
-26.175
 30
0.0
 70
     8
  0
VERTEX
  5
20D
330
209
100
AcDbEntity
  8
ガラス
  6
Continuous
100
AcDbVertex
100
AcDb2dVertex
 10
-18.75
 20
-26.175
 30
0.0
 70
     8
  0
VERTEX
  5
20E
330
209
100
AcDbEntity
  8
ガラス
  6
Continuous
100
AcDbVertex
100
AcDb2dVertex
 10
-18.675
 20
-26.175
 30
0.0
 70
     8
  0
VERTEX
  5
20F
330
209
100
AcDbEntity
  8
ガラス
  6
Continuous
100
AcDbVertex
100
AcDb2dVertex
 10
-18.625
 20
-26.15
 30
0.0
 70
     8
  0
VERTEX
  5
210
330
209
100
AcDbEntity
  8
ガラス
  6
Continuous
100
AcDbVertex
100
AcDb2dVertex
 10
-18.55
 20
-26.15
 30
0.0
 70
     8
  0
VERTEX
  5
211
330
209
100
AcDbEntity
  8
ガラス
  6
Continuous
100
AcDbVertex
100
AcDb2dVertex
 10
-18.475
 20
-26.15
 30
0.0
 70
     8
  0
VERTEX
  5
212
330
209
100
AcDbEntity
  8
ガラス
  6
Continuous
100
AcDbVertex
100
AcDb2dVertex
 10
-18.425
 20
-26.15
 30
0.0
 70
     8
  0
VERTEX
  5
213
330
209
100
AcDbEntity
  8
ガラス
  6
Continuous
100
AcDbVertex
100
AcDb2dVertex
 10
-18.35
 20
-26.15
 30
0.0
 70
     8
  0
VERTEX
  5
214
330
209
100
AcDbEntity
  8
ガラス
  6
Continuous
100
AcDbVertex
100
AcDb2dVertex
 10
-18.3
 20
-26.15
 30
0.0
 70
     8
  0
VERTEX
  5
215
330
209
100
AcDbEntity
  8
ガラス
  6
Continuous
100
AcDbVertex
100
AcDb2dVertex
 10
-18.225
 20
-26.15
 30
0.0
 70
     8
  0
VERTEX
  5
216
330
209
100
AcDbEntity
  8
ガラス
  6
Continuous
100
AcDbVertex
100
AcDb2dVertex
 10
-18.175
 20
-26.15
 30
0.0
 70
     8
  0
VERTEX
  5
217
330
209
100
AcDbEntity
  8
ガラス
  6
Continuous
100
AcDbVertex
100
AcDb2dVertex
 10
-18.125
 20
-26.15
 30
0.0
 70
     8
  0
VERTEX
  5
218
330
209
100
AcDbEntity
  8
ガラス
  6
Continuous
100
AcDbVertex
100
AcDb2dVertex
 10
-18.05
 20
-26.175
 30
0.0
 70
     8
  0
VERTEX
  5
219
330
209
100
AcDbEntity
  8
ガラス
  6
Continuous
100
AcDbVertex
100
AcDb2dVertex
 10
-18.0
 20
-26.175
 30
0.0
 70
     8
  0
VERTEX
  5
21A
330
209
100
AcDbEntity
  8
ガラス
  6
Continuous
100
AcDbVertex
100
AcDb2dVertex
 10
-17.925
 20
-26.175
 30
0.0
 70
     8
  0
VERTEX
  5
21B
330
209
100
AcDbEntity
  8
ガラス
  6
Continuous
100
AcDbVertex
100
AcDb2dVertex
 10
-17.875
 20
-26.2
 30
0.0
 70
     8
  0
VERTEX
  5
21C
330
209
100
AcDbEntity
  8
ガラス
  6
Continuous
100
AcDbVertex
100
AcDb2dVertex
 10
-17.825
 20
-26.2
 30
0.0
 70
     8
  0
VERTEX
  5
21D
330
209
100
AcDbEntity
  8
ガラス
  6
Continuous
100
AcDbVertex
100
AcDb2dVertex
 10
-17.775
 20
-26.225
 30
0.0
 70
     8
  0
VERTEX
  5
21E
330
209
100
AcDbEntity
  8
ガラス
  6
Continuous
100
AcDbVertex
100
AcDb2dVertex
 10
-17.7
 20
-26.25
 30
0.0
 70
     8
  0
VERTEX
  5
21F
330
209
100
AcDbEntity
  8
ガラス
  6
Continuous
100
AcDbVertex
100
AcDb2dVertex
 10
-17.65
 20
-26.275
 30
0.0
 70
     8
  0
VERTEX
  5
220
330
209
100
AcDbEntity
  8
ガラス
  6
Continuous
100
AcDbVertex
100
AcDb2dVertex
 10
-17.6
 20
-26.3
 30
0.0
 70
     8
  0
VERTEX
  5
221
330
209
100
AcDbEntity
  8
ガラス
  6
Continuous
100
AcDbVertex
100
AcDb2dVertex
 10
-17.55
 20
-26.325
 30
0.0
 70
     8
  0
VERTEX
  5
222
330
209
100
AcDbEntity
  8
ガラス
  6
Continuous
100
AcDbVertex
100
AcDb2dVertex
 10
-17.5
 20
-26.35
 30
0.0
 70
     8
  0
VERTEX
  5
223
330
209
100
AcDbEntity
  8
ガラス
  6
Continuous
100
AcDbVertex
100
AcDb2dVertex
 10
-17.45
 20
-26.375
 30
0.0
 70
     8
  0
VERTEX
  5
224
330
209
100
AcDbEntity
  8
ガラス
  6
Continuous
100
AcDbVertex
100
AcDb2dVertex
 10
-17.4
 20
-26.425
 30
0.0
 70
     8
  0
VERTEX
  5
225
330
209
100
AcDbEntity
  8
ガラス
  6
Continuous
100
AcDbVertex
100
AcDb2dVertex
 10
-17.35
 20
-26.45
 30
0.0
 70
     8
  0
VERTEX
  5
226
330
209
100
AcDbEntity
  8
ガラス
  6
Continuous
100
AcDbVertex
100
AcDb2dVertex
 10
-17.3
 20
-26.5
 30
0.0
 70
     8
  0
VERTEX
  5
227
330
209
100
AcDbEntity
  8
ガラス
  6
Continuous
100
AcDbVertex
100
AcDb2dVertex
 10
-17.275
 20
-26.525
 30
0.0
 70
     8
  0
VERTEX
  5
228
330
209
100
AcDbEntity
  8
ガラス
  6
Continuous
100
AcDbVertex
100
AcDb2dVertex
 10
-17.225
 20
-26.575
 30
0.0
 70
     8
  0
VERTEX
  5
229
330
209
100
AcDbEntity
  8
ガラス
  6
Continuous
100
AcDbVertex
100
AcDb2dVertex
 10
-17.175
 20
-26.625
 30
0.0
 70
     8
  0
VERTEX
  5
22A
330
209
100
AcDbEntity
  8
ガラス
  6
Continuous
100
AcDbVertex
100
AcDb2dVertex
 10
-17.125
 20
-26.65
 30
0.0
 70
     8
  0
VERTEX
  5
22B
330
209
100
AcDbEntity
  8
ガラス
  6
Continuous
100
AcDbVertex
100
AcDb2dVertex
 10
-17.1
 20
-26.7
 30
0.0
 70
     8
  0
VERTEX
  5
22C
330
209
100
AcDbEntity
  8
ガラス
  6
Continuous
100
AcDbVertex
100
AcDb2dVertex
 10
-17.05
 20
-26.75
 30
0.0
 70
     8
  0
VERTEX
  5
22D
330
209
100
AcDbEntity
  8
ガラス
  6
Continuous
100
AcDbVertex
100
AcDb2dVertex
 10
-17.0
 20
-26.8
 30
0.0
 70
     8
  0
VERTEX
  5
22E
330
209
100
AcDbEntity
  8
ガラス
  6
Continuous
100
AcDbVertex
100
AcDb2dVertex
 10
-16.95
 20
-26.85
 30
0.0
 70
     8
  0
VERTEX
  5
22F
330
209
100
AcDbEntity
  8
ガラス
  6
Continuous
100
AcDbVertex
100
AcDb2dVertex
 10
-16.925
 20
-26.9
 30
0.0
 70
     8
  0
VERTEX
  5
230
330
209
100
AcDbEntity
  8
ガラス
  6
Continuous
100
AcDbVertex
100
AcDb2dVertex
 10
-16.875
 20
-26.95
 30
0.0
 70
     8
  0
VERTEX
  5
231
330
209
100
AcDbEntity
  8
ガラス
  6
Continuous
100
AcDbVertex
100
AcDb2dVertex
 10
-16.825
 20
-27.0
 30
0.0
 70
     8
  0
VERTEX
  5
232
330
209
100
AcDbEntity
  8
ガラス
  6
Continuous
100
AcDbVertex
100
AcDb2dVertex
 10
-16.8
 20
-27.05
 30
0.0
 70
     8
  0
SEQEND
  5
233
330
209
100
AcDbEntity
  8
0
  0
POLYLINE
  5
234
330
208
100
AcDbEntity
  8
ガラス
  6
Continuous
100
AcDb2dPolyline
 66
     1
 10
0.0
 20
0.0
 30
0.0
 70
     4
  0
VERTEX
  5
235
330
234
100
AcDbEntity
  8
ガラス
  6
Continuous
100
AcDbVertex
100
AcDb2dVertex
 10
-16.8
 20
-27.05
 30
0.0
 70
     8
  0
VERTEX
  5
236
330
234
100
AcDbEntity
  8
ガラス
  6
Continuous
100
AcDbVertex
100
AcDb2dVertex
 10
-16.825
 20
-27.05
 30
0.0
 70
     8
  0
VERTEX
  5
237
330
234
100
AcDbEntity
  8
ガラス
  6
Continuous
100
AcDbVertex
100
AcDb2dVertex
 10
-16.875
 20
-27.05
 30
0.0
 70
     8
  0
VERTEX
  5
238
330
234
100
AcDbEntity
  8
ガラス
  6
Continuous
100
AcDbVertex
100
AcDb2dVertex
 10
-16.925
 20
-27.05
 30
0.0
 70
     8
  0
VERTEX
  5
239
330
234
100
AcDbEntity
  8
ガラス
  6
Continuous
100
AcDbVertex
100
AcDb2dVertex
 10
-16.975
 20
-27.075
 30
0.0
 70
     8
  0
VERTEX
  5
23A
330
234
100
AcDbEntity
  8
ガラス
  6
Continuous
100
AcDbVertex
100
AcDb2dVertex
 10
-17.0
 20
-27.075
 30
0.0
 70
     8
  0
VERTEX
  5
23B
330
234
100
AcDbEntity
  8
ガラス
  6
Continuous
100
AcDbVertex
100
AcDb2dVertex
 10
-17.05
 20
-27.075
 30
0.0
 70
     8
  0
VERTEX
  5
23C
330
234
100
AcDbEntity
  8
ガラス
  6
Continuous
100
AcDbVertex
100
AcDb2dVertex
 10
-17.1
 20
-27.075
 30
0.0
 70
     8
  0
VERTEX
  5
23D
330
234
100
AcDbEntity
  8
ガラス
  6
Continuous
100
AcDbVertex
100
AcDb2dVertex
 10
-17.125
 20
-27.075
 30
0.0
 70
     8
  0
VERTEX
  5
23E
330
234
100
AcDbEntity
  8
ガラス
  6
Continuous
100
AcDbVertex
100
AcDb2dVertex
 10
-17.175
 20
-27.075
 30
0.0
 70
     8
  0
VERTEX
  5
23F
330
234
100
AcDbEntity
  8
ガラス
  6
Continuous
100
AcDbVertex
100
AcDb2dVertex
 10
-17.225
 20
-27.1
 30
0.0
 70
     8
  0
VERTEX
  5
240
330
234
100
AcDbEntity
  8
ガラス
  6
Continuous
100
AcDbVertex
100
AcDb2dVertex
 10
-17.275
 20
-27.1
 30
0.0
 70
     8
  0
VERTEX
  5
241
330
234
100
AcDbEntity
  8
ガラス
  6
Continuous
100
AcDbVertex
100
AcDb2dVertex
 10
-17.3
 20
-27.1
 30
0.0
 70
     8
  0
VERTEX
  5
242
330
234
100
AcDbEntity
  8
ガラス
  6
Continuous
100
AcDbVertex
100
AcDb2dVertex
 10
-17.35
 20
-27.1
 30
0.0
 70
     8
  0
VERTEX
  5
243
330
234
100
AcDbEntity
  8
ガラス
  6
Continuous
100
AcDbVertex
100
AcDb2dVertex
 10
-17.4
 20
-27.125
 30
0.0
 70
     8
  0
VERTEX
  5
244
330
234
100
AcDbEntity
  8
ガラス
  6
Continuous
100
AcDbVertex
100
AcDb2dVertex
 10
-17.425
 20
-27.125
 30
0.0
 70
     8
  0
VERTEX
  5
245
330
234
100
AcDbEntity
  8
ガラス
  6
Continuous
100
AcDbVertex
100
AcDb2dVertex
 10
-17.475
 20
-27.125
 30
0.0
 70
     8
  0
VERTEX
  5
246
330
234
100
AcDbEntity
  8
ガラス
  6
Continuous
100
AcDbVertex
100
AcDb2dVertex
 10
-17.525
 20
-27.125
 30
0.0
 70
     8
  0
VERTEX
  5
247
330
234
100
AcDbEntity
  8
ガラス
  6
Continuous
100
AcDbVertex
100
AcDb2dVertex
 10
-17.55
 20
-27.15
 30
0.0
 70
     8
  0
VERTEX
  5
248
330
234
100
AcDbEntity
  8
ガラス
  6
Continuous
100
AcDbVertex
100
AcDb2dVertex
 10
-17.6
 20
-27.15
 30
0.0
 70
     8
  0
VERTEX
  5
249
330
234
100
AcDbEntity
  8
ガラス
  6
Continuous
100
AcDbVertex
100
AcDb2dVertex
 10
-17.65
 20
-27.15
 30
0.0
 70
     8
  0
VERTEX
  5
24A
330
234
100
AcDbEntity
  8
ガラス
  6
Continuous
100
AcDbVertex
100
AcDb2dVertex
 10
-17.675
 20
-27.175
 30
0.0
 70
     8
  0
VERTEX
  5
24B
330
234
100
AcDbEntity
  8
ガラス
  6
Continuous
100
AcDbVertex
100
AcDb2dVertex
 10
-17.725
 20
-27.175
 30
0.0
 70
     8
  0
VERTEX
  5
24C
330
234
100
AcDbEntity
  8
ガラス
  6
Continuous
100
AcDbVertex
100
AcDb2dVertex
 10
-17.775
 20
-27.2
 30
0.0
 70
     8
  0
VERTEX
  5
24D
330
234
100
AcDbEntity
  8
ガラス
  6
Continuous
100
AcDbVertex
100
AcDb2dVertex
 10
-17.8
 20
-27.2
 30
0.0
 70
     8
  0
VERTEX
  5
24E
330
234
100
AcDbEntity
  8
ガラス
  6
Continuous
100
AcDbVertex
100
AcDb2dVertex
 10
-17.85
 20
-27.225
 30
0.0
 70
     8
  0
VERTEX
  5
24F
330
234
100
AcDbEntity
  8
ガラス
  6
Continuous
100
AcDbVertex
100
AcDb2dVertex
 10
-17.9
 20
-27.225
 30
0.0
 70
     8
  0
VERTEX
  5
250
330
234
100
AcDbEntity
  8
ガラス
  6
Continuous
100
AcDbVertex
100
AcDb2dVertex
 10
-17.925
 20
-27.25
 30
0.0
 70
     8
  0
VERTEX
  5
251
330
234
100
AcDbEntity
  8
ガラス
  6
Continuous
100
AcDbVertex
100
AcDb2dVertex
 10
-17.975
 20
-27.25
 30
0.0
 70
     8
  0
VERTEX
  5
252
330
234
100
AcDbEntity
  8
ガラス
  6
Continuous
100
AcDbVertex
100
AcDb2dVertex
 10
-18.025
 20
-27.275
 30
0.0
 70
     8
  0
VERTEX
  5
253
330
234
100
AcDbEntity
  8
ガラス
  6
Continuous
100
AcDbVertex
100
AcDb2dVertex
 10
-18.05
 20
-27.275
 30
0.0
 70
     8
  0
VERTEX
  5
254
330
234
100
AcDbEntity
  8
ガラス
  6
Continuous
100
AcDbVertex
100
AcDb2dVertex
 10
-18.1
 20
-27.3
 30
0.0
 70
     8
  0
VERTEX
  5
255
330
234
100
AcDbEntity
  8
ガラス
  6
Continuous
100
AcDbVertex
100
AcDb2dVertex
 10
-18.125
 20
-27.3
 30
0.0
 70
     8
  0
VERTEX
  5
256
330
234
100
AcDbEntity
  8
ガラス
  6
Continuous
100
AcDbVertex
100
AcDb2dVertex
 10
-18.175
 20
-27.325
 30
0.0
 70
     8
  0
VERTEX
  5
257
330
234
100
AcDbEntity
  8
ガラス
  6
Continuous
100
AcDbVertex
100
AcDb2dVertex
 10
-18.225
 20
-27.35
 30
0.0
 70
     8
  0
VERTEX
  5
258
330
234
100
AcDbEntity
  8
ガラス
  6
Continuous
100
AcDbVertex
100
AcDb2dVertex
 10
-18.25
 20
-27.35
 30
0.0
 70
     8
  0
VERTEX
  5
259
330
234
100
AcDbEntity
  8
ガラス
  6
Continuous
100
AcDbVertex
100
AcDb2dVertex
 10
-18.3
 20
-27.375
 30
0.0
 70
     8
  0
VERTEX
  5
25A
330
234
100
AcDbEntity
  8
ガラス
  6
Continuous
100
AcDbVertex
100
AcDb2dVertex
 10
-18.325
 20
-27.4
 30
0.0
 70
     8
  0
VERTEX
  5
25B
330
234
100
AcDbEntity
  8
ガラス
  6
Continuous
100
AcDbVertex
100
AcDb2dVertex
 10
-18.375
 20
-27.4
 30
0.0
 70
     8
  0
VERTEX
  5
25C
330
234
100
AcDbEntity
  8
ガラス
  6
Continuous
100
AcDbVertex
100
AcDb2dVertex
 10
-18.425
 20
-27.425
 30
0.0
 70
     8
  0
VERTEX
  5
25D
330
234
100
AcDbEntity
  8
ガラス
  6
Continuous
100
AcDbVertex
100
AcDb2dVertex
 10
-18.45
 20
-27.425
 30
0.0
 70
     8
  0
SEQEND
  5
25E
330
234
100
AcDbEntity
  8
0
  0
ARC
  5
25F
330
208
100
AcDbEntity
  8
ガラス
  6
Continuous
100
AcDbCircle
 10
-18.685264
 20
-26.79991
 30
0.0
 40
0.668594
100
AcDbArc
 50
111.203091
 51
291.203091
  0
ENDBLK
  5
260
330
208
100
AcDbEntity
  8
0
100
AcDbBlockEnd
  0
BLOCK
  5
261
330
262
100
AcDbEntity
  8
0
100
AcDbBlockBegin
  2
*U10
 70
     1
 71
     0
 10
0.0
 20
0.0
 30
0.0
  3
*U10
  1

  0
POLYLINE
  5
263
330
262
100
AcDbEntity
  8
ガラス
  6
Continuous
100
AcDb2dPolyline
 66
     1
 10
0.0
 20
0.0
 30
0.0
 70
     4
  0
VERTEX
  5
264
330
263
100
AcDbEntity
  8
ガラス
  6
Continuous
100
AcDbVertex
100
AcDb2dVertex
 10
-34.475
 20
-26.2
 30
0.0
 70
     8
  0
VERTEX
  5
265
330
263
100
AcDbEntity
  8
ガラス
  6
Continuous
100
AcDbVertex
100
AcDb2dVertex
 10
-34.4
 20
-26.175
 30
0.0
 70
     8
  0
VERTEX
  5
266
330
263
100
AcDbEntity
  8
ガラス
  6
Continuous
100
AcDbVertex
100
AcDb2dVertex
 10
-34.325
 20
-26.175
 30
0.0
 70
     8
  0
VERTEX
  5
267
330
263
100
AcDbEntity
  8
ガラス
  6
Continuous
100
AcDbVertex
100
AcDb2dVertex
 10
-34.275
 20
-26.175
 30
0.0
 70
     8
  0
VERTEX
  5
268
330
263
100
AcDbEntity
  8
ガラス
  6
Continuous
100
AcDbVertex
100
AcDb2dVertex
 10
-34.2
 20
-26.175
 30
0.0
 70
     8
  0
VERTEX
  5
269
330
263
100
AcDbEntity
  8
ガラス
  6
Continuous
100
AcDbVertex
100
AcDb2dVertex
 10
-34.15
 20
-26.15
 30
0.0
 70
     8
  0
VERTEX
  5
26A
330
263
100
AcDbEntity
  8
ガラス
  6
Continuous
100
AcDbVertex
100
AcDb2dVertex
 10
-34.075
 20
-26.15
 30
0.0
 70
     8
  0
VERTEX
  5
26B
330
263
100
AcDbEntity
  8
ガラス
  6
Continuous
100
AcDbVertex
100
AcDb2dVertex
 10
-34.025
 20
-26.15
 30
0.0
 70
     8
  0
VERTEX
  5
26C
330
263
100
AcDbEntity
  8
ガラス
  6
Continuous
100
AcDbVertex
100
AcDb2dVertex
 10
-33.95
 20
-26.15
 30
0.0
 70
     8
  0
VERTEX
  5
26D
330
263
100
AcDbEntity
  8
ガラス
  6
Continuous
100
AcDbVertex
100
AcDb2dVertex
 10
-33.875
 20
-26.15
 30
0.0
 70
     8
  0
VERTEX
  5
26E
330
263
100
AcDbEntity
  8
ガラス
  6
Continuous
100
AcDbVertex
100
AcDb2dVertex
 10
-33.825
 20
-26.15
 30
0.0
 70
     8
  0
VERTEX
  5
26F
330
263
100
AcDbEntity
  8
ガラス
  6
Continuous
100
AcDbVertex
100
AcDb2dVertex
 10
-33.775
 20
-26.15
 30
0.0
 70
     8
  0
VERTEX
  5
270
330
263
100
AcDbEntity
  8
ガラス
  6
Continuous
100
AcDbVertex
100
AcDb2dVertex
 10
-33.7
 20
-26.15
 30
0.0
 70
     8
  0
VERTEX
  5
271
330
263
100
AcDbEntity
  8
ガラス
  6
Continuous
100
AcDbVertex
100
AcDb2dVertex
 10
-33.65
 20
-26.15
 30
0.0
 70
     8
  0
VERTEX
  5
272
330
263
100
AcDbEntity
  8
ガラス
  6
Continuous
100
AcDbVertex
100
AcDb2dVertex
 10
-33.575
 20
-26.175
 30
0.0
 70
     8
  0
VERTEX
  5
273
330
263
100
AcDbEntity
  8
ガラス
  6
Continuous
100
AcDbVertex
100
AcDb2dVertex
 10
-33.525
 20
-26.175
 30
0.0
 70
     8
  0
VERTEX
  5
274
330
263
100
AcDbEntity
  8
ガラス
  6
Continuous
100
AcDbVertex
100
AcDb2dVertex
 10
-33.45
 20
-26.175
 30
0.0
 70
     8
  0
VERTEX
  5
275
330
263
100
AcDbEntity
  8
ガラス
  6
Continuous
100
AcDbVertex
100
AcDb2dVertex
 10
-33.4
 20
-26.2
 30
0.0
 70
     8
  0
VERTEX
  5
276
330
263
100
AcDbEntity
  8
ガラス
  6
Continuous
100
AcDbVertex
100
AcDb2dVertex
 10
-33.35
 20
-26.2
 30
0.0
 70
     8
  0
VERTEX
  5
277
330
263
100
AcDbEntity
  8
ガラス
  6
Continuous
100
AcDbVertex
100
AcDb2dVertex
 10
-33.3
 20
-26.225
 30
0.0
 70
     8
  0
VERTEX
  5
278
330
263
100
AcDbEntity
  8
ガラス
  6
Continuous
100
AcDbVertex
100
AcDb2dVertex
 10
-33.25
 20
-26.25
 30
0.0
 70
     8
  0
VERTEX
  5
279
330
263
100
AcDbEntity
  8
ガラス
  6
Continuous
100
AcDbVertex
100
AcDb2dVertex
 10
-33.175
 20
-26.275
 30
0.0
 70
     8
  0
VERTEX
  5
27A
330
263
100
AcDbEntity
  8
ガラス
  6
Continuous
100
AcDbVertex
100
AcDb2dVertex
 10
-33.125
 20
-26.3
 30
0.0
 70
     8
  0
VERTEX
  5
27B
330
263
100
AcDbEntity
  8
ガラス
  6
Continuous
100
AcDbVertex
100
AcDb2dVertex
 10
-33.075
 20
-26.325
 30
0.0
 70
     8
  0
VERTEX
  5
27C
330
263
100
AcDbEntity
  8
ガラス
  6
Continuous
100
AcDbVertex
100
AcDb2dVertex
 10
-33.025
 20
-26.35
 30
0.0
 70
     8
  0
VERTEX
  5
27D
330
263
100
AcDbEntity
  8
ガラス
  6
Continuous
100
AcDbVertex
100
AcDb2dVertex
 10
-32.975
 20
-26.375
 30
0.0
 70
     8
  0
VERTEX
  5
27E
330
263
100
AcDbEntity
  8
ガラス
  6
Continuous
100
AcDbVertex
100
AcDb2dVertex
 10
-32.925
 20
-26.425
 30
0.0
 70
     8
  0
VERTEX
  5
27F
330
263
100
AcDbEntity
  8
ガラス
  6
Continuous
100
AcDbVertex
100
AcDb2dVertex
 10
-32.875
 20
-26.45
 30
0.0
 70
     8
  0
VERTEX
  5
280
330
263
100
AcDbEntity
  8
ガラス
  6
Continuous
100
AcDbVertex
100
AcDb2dVertex
 10
-32.85
 20
-26.5
 30
0.0
 70
     8
  0
VERTEX
  5
281
330
263
100
AcDbEntity
  8
ガラス
  6
Continuous
100
AcDbVertex
100
AcDb2dVertex
 10
-32.8
 20
-26.525
 30
0.0
 70
     8
  0
VERTEX
  5
282
330
263
100
AcDbEntity
  8
ガラス
  6
Continuous
100
AcDbVertex
100
AcDb2dVertex
 10
-32.75
 20
-26.575
 30
0.0
 70
     8
  0
VERTEX
  5
283
330
263
100
AcDbEntity
  8
ガラス
  6
Continuous
100
AcDbVertex
100
AcDb2dVertex
 10
-32.7
 20
-26.625
 30
0.0
 70
     8
  0
VERTEX
  5
284
330
263
100
AcDbEntity
  8
ガラス
  6
Continuous
100
AcDbVertex
100
AcDb2dVertex
 10
-32.65
 20
-26.65
 30
0.0
 70
     8
  0
VERTEX
  5
285
330
263
100
AcDbEntity
  8
ガラス
  6
Continuous
100
AcDbVertex
100
AcDb2dVertex
 10
-32.625
 20
-26.7
 30
0.0
 70
     8
  0
VERTEX
  5
286
330
263
100
AcDbEntity
  8
ガラス
  6
Continuous
100
AcDbVertex
100
AcDb2dVertex
 10
-32.575
 20
-26.75
 30
0.0
 70
     8
  0
VERTEX
  5
287
330
263
100
AcDbEntity
  8
ガラス
  6
Continuous
100
AcDbVertex
100
AcDb2dVertex
 10
-32.525
 20
-26.8
 30
0.0
 70
     8
  0
VERTEX
  5
288
330
263
100
AcDbEntity
  8
ガラス
  6
Continuous
100
AcDbVertex
100
AcDb2dVertex
 10
-32.5
 20
-26.85
 30
0.0
 70
     8
  0
VERTEX
  5
289
330
263
100
AcDbEntity
  8
ガラス
  6
Continuous
100
AcDbVertex
100
AcDb2dVertex
 10
-32.45
 20
-26.9
 30
0.0
 70
     8
  0
VERTEX
  5
28A
330
263
100
AcDbEntity
  8
ガラス
  6
Continuous
100
AcDbVertex
100
AcDb2dVertex
 10
-32.4
 20
-26.95
 30
0.0
 70
     8
  0
VERTEX
  5
28B
330
263
100
AcDbEntity
  8
ガラス
  6
Continuous
100
AcDbVertex
100
AcDb2dVertex
 10
-32.35
 20
-27.0
 30
0.0
 70
     8
  0
VERTEX
  5
28C
330
263
100
AcDbEntity
  8
ガラス
  6
Continuous
100
AcDbVertex
100
AcDb2dVertex
 10
-32.325
 20
-27.05
 30
0.0
 70
     8
  0
SEQEND
  5
28D
330
263
100
AcDbEntity
  8
0
  0
POLYLINE
  5
28E
330
262
100
AcDbEntity
  8
ガラス
  6
Continuous
100
AcDb2dPolyline
 66
     1
 10
0.0
 20
0.0
 30
0.0
 70
     4
  0
VERTEX
  5
28F
330
28E
100
AcDbEntity
  8
ガラス
  6
Continuous
100
AcDbVertex
100
AcDb2dVertex
 10
-32.325
 20
-27.05
 30
0.0
 70
     8
  0
VERTEX
  5
290
330
28E
100
AcDbEntity
  8
ガラス
  6
Continuous
100
AcDbVertex
100
AcDb2dVertex
 10
-32.375
 20
-27.05
 30
0.0
 70
     8
  0
VERTEX
  5
291
330
28E
100
AcDbEntity
  8
ガラス
  6
Continuous
100
AcDbVertex
100
AcDb2dVertex
 10
-32.4
 20
-27.05
 30
0.0
 70
     8
  0
VERTEX
  5
292
330
28E
100
AcDbEntity
  8
ガラス
  6
Continuous
100
AcDbVertex
100
AcDb2dVertex
 10
-32.45
 20
-27.05
 30
0.0
 70
     8
  0
VERTEX
  5
293
330
28E
100
AcDbEntity
  8
ガラス
  6
Continuous
100
AcDbVertex
100
AcDb2dVertex
 10
-32.5
 20
-27.075
 30
0.0
 70
     8
  0
VERTEX
  5
294
330
28E
100
AcDbEntity
  8
ガラス
  6
Continuous
100
AcDbVertex
100
AcDb2dVertex
 10
-32.525
 20
-27.075
 30
0.0
 70
     8
  0
VERTEX
  5
295
330
28E
100
AcDbEntity
  8
ガラス
  6
Continuous
100
AcDbVertex
100
AcDb2dVertex
 10
-32.575
 20
-27.075
 30
0.0
 70
     8
  0
VERTEX
  5
296
330
28E
100
AcDbEntity
  8
ガラス
  6
Continuous
100
AcDbVertex
100
AcDb2dVertex
 10
-32.625
 20
-27.075
 30
0.0
 70
     8
  0
VERTEX
  5
297
330
28E
100
AcDbEntity
  8
ガラス
  6
Continuous
100
AcDbVertex
100
AcDb2dVertex
 10
-32.675
 20
-27.075
 30
0.0
 70
     8
  0
VERTEX
  5
298
330
28E
100
AcDbEntity
  8
ガラス
  6
Continuous
100
AcDbVertex
100
AcDb2dVertex
 10
-32.7
 20
-27.075
 30
0.0
 70
     8
  0
VERTEX
  5
299
330
28E
100
AcDbEntity
  8
ガラス
  6
Continuous
100
AcDbVertex
100
AcDb2dVertex
 10
-32.75
 20
-27.1
 30
0.0
 70
     8
  0
VERTEX
  5
29A
330
28E
100
AcDbEntity
  8
ガラス
  6
Continuous
100
AcDbVertex
100
AcDb2dVertex
 10
-32.8
 20
-27.1
 30
0.0
 70
     8
  0
VERTEX
  5
29B
330
28E
100
AcDbEntity
  8
ガラス
  6
Continuous
100
AcDbVertex
100
AcDb2dVertex
 10
-32.825
 20
-27.1
 30
0.0
 70
     8
  0
VERTEX
  5
29C
330
28E
100
AcDbEntity
  8
ガラス
  6
Continuous
100
AcDbVertex
100
AcDb2dVertex
 10
-32.875
 20
-27.1
 30
0.0
 70
     8
  0
VERTEX
  5
29D
330
28E
100
AcDbEntity
  8
ガラス
  6
Continuous
100
AcDbVertex
100
AcDb2dVertex
 10
-32.925
 20
-27.125
 30
0.0
 70
     8
  0
VERTEX
  5
29E
330
28E
100
AcDbEntity
  8
ガラス
  6
Continuous
100
AcDbVertex
100
AcDb2dVertex
 10
-32.95
 20
-27.125
 30
0.0
 70
     8
  0
VERTEX
  5
29F
330
28E
100
AcDbEntity
  8
ガラス
  6
Continuous
100
AcDbVertex
100
AcDb2dVertex
 10
-33.0
 20
-27.125
 30
0.0
 70
     8
  0
VERTEX
  5
2A0
330
28E
100
AcDbEntity
  8
ガラス
  6
Continuous
100
AcDbVertex
100
AcDb2dVertex
 10
-33.05
 20
-27.125
 30
0.0
 70
     8
  0
VERTEX
  5
2A1
330
28E
100
AcDbEntity
  8
ガラス
  6
Continuous
100
AcDbVertex
100
AcDb2dVertex
 10
-33.1
 20
-27.15
 30
0.0
 70
     8
  0
VERTEX
  5
2A2
330
28E
100
AcDbEntity
  8
ガラス
  6
Continuous
100
AcDbVertex
100
AcDb2dVertex
 10
-33.125
 20
-27.15
 30
0.0
 70
     8
  0
VERTEX
  5
2A3
330
28E
100
AcDbEntity
  8
ガラス
  6
Continuous
100
AcDbVertex
100
AcDb2dVertex
 10
-33.175
 20
-27.15
 30
0.0
 70
     8
  0
VERTEX
  5
2A4
330
28E
100
AcDbEntity
  8
ガラス
  6
Continuous
100
AcDbVertex
100
AcDb2dVertex
 10
-33.225
 20
-27.175
 30
0.0
 70
     8
  0
VERTEX
  5
2A5
330
28E
100
AcDbEntity
  8
ガラス
  6
Continuous
100
AcDbVertex
100
AcDb2dVertex
 10
-33.25
 20
-27.175
 30
0.0
 70
     8
  0
VERTEX
  5
2A6
330
28E
100
AcDbEntity
  8
ガラス
  6
Continuous
100
AcDbVertex
100
AcDb2dVertex
 10
-33.3
 20
-27.2
 30
0.0
 70
     8
  0
VERTEX
  5
2A7
330
28E
100
AcDbEntity
  8
ガラス
  6
Continuous
100
AcDbVertex
100
AcDb2dVertex
 10
-33.325
 20
-27.2
 30
0.0
 70
     8
  0
VERTEX
  5
2A8
330
28E
100
AcDbEntity
  8
ガラス
  6
Continuous
100
AcDbVertex
100
AcDb2dVertex
 10
-33.375
 20
-27.225
 30
0.0
 70
     8
  0
VERTEX
  5
2A9
330
28E
100
AcDbEntity
  8
ガラス
  6
Continuous
100
AcDbVertex
100
AcDb2dVertex
 10
-33.425
 20
-27.225
 30
0.0
 70
     8
  0
VERTEX
  5
2AA
330
28E
100
AcDbEntity
  8
ガラス
  6
Continuous
100
AcDbVertex
100
AcDb2dVertex
 10
-33.45
 20
-27.25
 30
0.0
 70
     8
  0
VERTEX
  5
2AB
330
28E
100
AcDbEntity
  8
ガラス
  6
Continuous
100
AcDbVertex
100
AcDb2dVertex
 10
-33.5
 20
-27.25
 30
0.0
 70
     8
  0
VERTEX
  5
2AC
330
28E
100
AcDbEntity
  8
ガラス
  6
Continuous
100
AcDbVertex
100
AcDb2dVertex
 10
-33.55
 20
-27.275
 30
0.0
 70
     8
  0
VERTEX
  5
2AD
330
28E
100
AcDbEntity
  8
ガラス
  6
Continuous
100
AcDbVertex
100
AcDb2dVertex
 10
-33.575
 20
-27.275
 30
0.0
 70
     8
  0
VERTEX
  5
2AE
330
28E
100
AcDbEntity
  8
ガラス
  6
Continuous
100
AcDbVertex
100
AcDb2dVertex
 10
-33.625
 20
-27.3
 30
0.0
 70
     8
  0
VERTEX
  5
2AF
330
28E
100
AcDbEntity
  8
ガラス
  6
Continuous
100
AcDbVertex
100
AcDb2dVertex
 10
-33.65
 20
-27.3
 30
0.0
 70
     8
  0
VERTEX
  5
2B0
330
28E
100
AcDbEntity
  8
ガラス
  6
Continuous
100
AcDbVertex
100
AcDb2dVertex
 10
-33.7
 20
-27.325
 30
0.0
 70
     8
  0
VERTEX
  5
2B1
330
28E
100
AcDbEntity
  8
ガラス
  6
Continuous
100
AcDbVertex
100
AcDb2dVertex
 10
-33.75
 20
-27.35
 30
0.0
 70
     8
  0
VERTEX
  5
2B2
330
28E
100
AcDbEntity
  8
ガラス
  6
Continuous
100
AcDbVertex
100
AcDb2dVertex
 10
-33.775
 20
-27.35
 30
0.0
 70
     8
  0
VERTEX
  5
2B3
330
28E
100
AcDbEntity
  8
ガラス
  6
Continuous
100
AcDbVertex
100
AcDb2dVertex
 10
-33.825
 20
-27.375
 30
0.0
 70
     8
  0
VERTEX
  5
2B4
330
28E
100
AcDbEntity
  8
ガラス
  6
Continuous
100
AcDbVertex
100
AcDb2dVertex
 10
-33.875
 20
-27.4
 30
0.0
 70
     8
  0
VERTEX
  5
2B5
330
28E
100
AcDbEntity
  8
ガラス
  6
Continuous
100
AcDbVertex
100
AcDb2dVertex
 10
-33.9
 20
-27.4
 30
0.0
 70
     8
  0
VERTEX
  5
2B6
330
28E
100
AcDbEntity
  8
ガラス
  6
Continuous
100
AcDbVertex
100
AcDb2dVertex
 10
-33.95
 20
-27.425
 30
0.0
 70
     8
  0
VERTEX
  5
2B7
330
28E
100
AcDbEntity
  8
ガラス
  6
Continuous
100
AcDbVertex
100
AcDb2dVertex
 10
-33.975
 20
-27.425
 30
0.0
 70
     8
  0
SEQEND
  5
2B8
330
28E
100
AcDbEntity
  8
0
  0
ARC
  5
2B9
330
262
100
AcDbEntity
  8
ガラス
  6
Continuous
100
AcDbCircle
 10
-34.213067
 20
-26.79991
 30
0.0
 40
0.668594
100
AcDbArc
 50
111.203091
 51
291.203091
  0
ENDBLK
  5
2BA
330
262
100
AcDbEntity
  8
0
100
AcDbBlockEnd
  0
BLOCK
  5
2BB
330
2BC
100
AcDbEntity
  8
0
100
AcDbBlockBegin
  2
*U11
 70
     1
 71
     0
 10
0.0
 20
0.0
 30
0.0
  3
*U11
  1

  0
POLYLINE
  5
2BD
330
2BC
100
AcDbEntity
  8
ガラス
  6
Continuous
100
AcDb2dPolyline
 66
     1
 10
0.0
 20
0.0
 30
0.0
 70
     4
  0
VERTEX
  5
2BE
330
2BD
100
AcDbEntity
  8
ガラス
  6
Continuous
100
AcDbVertex
100
AcDb2dVertex
 10
-39.425
 20
-34.3
 30
0.0
 70
     8
  0
VERTEX
  5
2BF
330
2BD
100
AcDbEntity
  8
ガラス
  6
Continuous
100
AcDbVertex
100
AcDb2dVertex
 10
-39.4
 20
-34.225
 30
0.0
 70
     8
  0
VERTEX
  5
2C0
330
2BD
100
AcDbEntity
  8
ガラス
  6
Continuous
100
AcDbVertex
100
AcDb2dVertex
 10
-39.375
 20
-34.175
 30
0.0
 70
     8
  0
VERTEX
  5
2C1
330
2BD
100
AcDbEntity
  8
ガラス
  6
Continuous
100
AcDbVertex
100
AcDb2dVertex
 10
-39.35
 20
-34.1
 30
0.0
 70
     8
  0
VERTEX
  5
2C2
330
2BD
100
AcDbEntity
  8
ガラス
  6
Continuous
100
AcDbVertex
100
AcDb2dVertex
 10
-39.35
 20
-34.05
 30
0.0
 70
     8
  0
VERTEX
  5
2C3
330
2BD
100
AcDbEntity
  8
ガラス
  6
Continuous
100
AcDbVertex
100
AcDb2dVertex
 10
-39.325
 20
-33.975
 30
0.0
 70
     8
  0
VERTEX
  5
2C4
330
2BD
100
AcDbEntity
  8
ガラス
  6
Continuous
100
AcDbVertex
100
AcDb2dVertex
 10
-39.3
 20
-33.925
 30
0.0
 70
     8
  0
VERTEX
  5
2C5
330
2BD
100
AcDbEntity
  8
ガラス
  6
Continuous
100
AcDbVertex
100
AcDb2dVertex
 10
-39.275
 20
-33.85
 30
0.0
 70
     8
  0
VERTEX
  5
2C6
330
2BD
100
AcDbEntity
  8
ガラス
  6
Continuous
100
AcDbVertex
100
AcDb2dVertex
 10
-39.275
 20
-33.8
 30
0.0
 70
     8
  0
VERTEX
  5
2C7
330
2BD
100
AcDbEntity
  8
ガラス
  6
Continuous
100
AcDbVertex
100
AcDb2dVertex
 10
-39.25
 20
-33.75
 30
0.0
 70
     8
  0
VERTEX
  5
2C8
330
2BD
100
AcDbEntity
  8
ガラス
  6
Continuous
100
AcDbVertex
100
AcDb2dVertex
 10
-39.225
 20
-33.675
 30
0.0
 70
     8
  0
VERTEX
  5
2C9
330
2BD
100
AcDbEntity
  8
ガラス
  6
Continuous
100
AcDbVertex
100
AcDb2dVertex
 10
-39.2
 20
-33.625
 30
0.0
 70
     8
  0
VERTEX
  5
2CA
330
2BD
100
AcDbEntity
  8
ガラス
  6
Continuous
100
AcDbVertex
100
AcDb2dVertex
 10
-39.175
 20
-33.575
 30
0.0
 70
     8
  0
VERTEX
  5
2CB
330
2BD
100
AcDbEntity
  8
ガラス
  6
Continuous
100
AcDbVertex
100
AcDb2dVertex
 10
-39.15
 20
-33.525
 30
0.0
 70
     8
  0
VERTEX
  5
2CC
330
2BD
100
AcDbEntity
  8
ガラス
  6
Continuous
100
AcDbVertex
100
AcDb2dVertex
 10
-39.125
 20
-33.45
 30
0.0
 70
     8
  0
VERTEX
  5
2CD
330
2BD
100
AcDbEntity
  8
ガラス
  6
Continuous
100
AcDbVertex
100
AcDb2dVertex
 10
-39.1
 20
-33.4
 30
0.0
 70
     8
  0
VERTEX
  5
2CE
330
2BD
100
AcDbEntity
  8
ガラス
  6
Continuous
100
AcDbVertex
100
AcDb2dVertex
 10
-39.05
 20
-33.35
 30
0.0
 70
     8
  0
VERTEX
  5
2CF
330
2BD
100
AcDbEntity
  8
ガラス
  6
Continuous
100
AcDbVertex
100
AcDb2dVertex
 10
-39.025
 20
-33.3
 30
0.0
 70
     8
  0
VERTEX
  5
2D0
330
2BD
100
AcDbEntity
  8
ガラス
  6
Continuous
100
AcDbVertex
100
AcDb2dVertex
 10
-39.0
 20
-33.25
 30
0.0
 70
     8
  0
VERTEX
  5
2D1
330
2BD
100
AcDbEntity
  8
ガラス
  6
Continuous
100
AcDbVertex
100
AcDb2dVertex
 10
-38.95
 20
-33.225
 30
0.0
 70
     8
  0
VERTEX
  5
2D2
330
2BD
100
AcDbEntity
  8
ガラス
  6
Continuous
100
AcDbVertex
100
AcDb2dVertex
 10
-38.925
 20
-33.175
 30
0.0
 70
     8
  0
VERTEX
  5
2D3
330
2BD
100
AcDbEntity
  8
ガラス
  6
Continuous
100
AcDbVertex
100
AcDb2dVertex
 10
-38.875
 20
-33.125
 30
0.0
 70
     8
  0
VERTEX
  5
2D4
330
2BD
100
AcDbEntity
  8
ガラス
  6
Continuous
100
AcDbVertex
100
AcDb2dVertex
 10
-38.85
 20
-33.1
 30
0.0
 70
     8
  0
VERTEX
  5
2D5
330
2BD
100
AcDbEntity
  8
ガラス
  6
Continuous
100
AcDbVertex
100
AcDb2dVertex
 10
-38.8
 20
-33.05
 30
0.0
 70
     8
  0
VERTEX
  5
2D6
330
2BD
100
AcDbEntity
  8
ガラス
  6
Continuous
100
AcDbVertex
100
AcDb2dVertex
 10
-38.75
 20
-33.025
 30
0.0
 70
     8
  0
VERTEX
  5
2D7
330
2BD
100
AcDbEntity
  8
ガラス
  6
Continuous
100
AcDbVertex
100
AcDb2dVertex
 10
-38.7
 20
-32.975
 30
0.0
 70
     8
  0
VERTEX
  5
2D8
330
2BD
100
AcDbEntity
  8
ガラス
  6
Continuous
100
AcDbVertex
100
AcDb2dVertex
 10
-38.65
 20
-32.95
 30
0.0
 70
     8
  0
VERTEX
  5
2D9
330
2BD
100
AcDbEntity
  8
ガラス
  6
Continuous
100
AcDbVertex
100
AcDb2dVertex
 10
-38.6
 20
-32.925
 30
0.0
 70
     8
  0
VERTEX
  5
2DA
330
2BD
100
AcDbEntity
  8
ガラス
  6
Continuous
100
AcDbVertex
100
AcDb2dVertex
 10
-38.55
 20
-32.9
 30
0.0
 70
     8
  0
VERTEX
  5
2DB
330
2BD
100
AcDbEntity
  8
ガラス
  6
Continuous
100
AcDbVertex
100
AcDb2dVertex
 10
-38.5
 20
-32.85
 30
0.0
 70
     8
  0
VERTEX
  5
2DC
330
2BD
100
AcDbEntity
  8
ガラス
  6
Continuous
100
AcDbVertex
100
AcDb2dVertex
 10
-38.425
 20
-32.825
 30
0.0
 70
     8
  0
VERTEX
  5
2DD
330
2BD
100
AcDbEntity
  8
ガラス
  6
Continuous
100
AcDbVertex
100
AcDb2dVertex
 10
-38.375
 20
-32.8
 30
0.0
 70
     8
  0
VERTEX
  5
2DE
330
2BD
100
AcDbEntity
  8
ガラス
  6
Continuous
100
AcDbVertex
100
AcDb2dVertex
 10
-38.325
 20
-32.775
 30
0.0
 70
     8
  0
VERTEX
  5
2DF
330
2BD
100
AcDbEntity
  8
ガラス
  6
Continuous
100
AcDbVertex
100
AcDb2dVertex
 10
-38.275
 20
-32.75
 30
0.0
 70
     8
  0
VERTEX
  5
2E0
330
2BD
100
AcDbEntity
  8
ガラス
  6
Continuous
100
AcDbVertex
100
AcDb2dVertex
 10
-38.2
 20
-32.725
 30
0.0
 70
     8
  0
VERTEX
  5
2E1
330
2BD
100
AcDbEntity
  8
ガラス
  6
Continuous
100
AcDbVertex
100
AcDb2dVertex
 10
-38.15
 20
-32.725
 30
0.0
 70
     8
  0
VERTEX
  5
2E2
330
2BD
100
AcDbEntity
  8
ガラス
  6
Continuous
100
AcDbVertex
100
AcDb2dVertex
 10
-38.075
 20
-32.7
 30
0.0
 70
     8
  0
VERTEX
  5
2E3
330
2BD
100
AcDbEntity
  8
ガラス
  6
Continuous
100
AcDbVertex
100
AcDb2dVertex
 10
-38.025
 20
-32.675
 30
0.0
 70
     8
  0
VERTEX
  5
2E4
330
2BD
100
AcDbEntity
  8
ガラス
  6
Continuous
100
AcDbVertex
100
AcDb2dVertex
 10
-37.975
 20
-32.65
 30
0.0
 70
     8
  0
VERTEX
  5
2E5
330
2BD
100
AcDbEntity
  8
ガラス
  6
Continuous
100
AcDbVertex
100
AcDb2dVertex
 10
-37.9
 20
-32.625
 30
0.0
 70
     8
  0
VERTEX
  5
2E6
330
2BD
100
AcDbEntity
  8
ガラス
  6
Continuous
100
AcDbVertex
100
AcDb2dVertex
 10
-37.85
 20
-32.6
 30
0.0
 70
     8
  0
SEQEND
  5
2E7
330
2BD
100
AcDbEntity
  8
0
  0
POLYLINE
  5
2E8
330
2BC
100
AcDbEntity
  8
ガラス
  6
Continuous
100
AcDb2dPolyline
 66
     1
 10
0.0
 20
0.0
 30
0.0
 70
     4
  0
VERTEX
  5
2E9
330
2E8
100
AcDbEntity
  8
ガラス
  6
Continuous
100
AcDbVertex
100
AcDb2dVertex
 10
-37.85
 20
-32.6
 30
0.0
 70
     8
  0
VERTEX
  5
2EA
330
2E8
100
AcDbEntity
  8
ガラス
  6
Continuous
100
AcDbVertex
100
AcDb2dVertex
 10
-37.85
 20
-32.65
 30
0.0
 70
     8
  0
VERTEX
  5
2EB
330
2E8
100
AcDbEntity
  8
ガラス
  6
Continuous
100
AcDbVertex
100
AcDb2dVertex
 10
-37.875
 20
-32.7
 30
0.0
 70
     8
  0
VERTEX
  5
2EC
330
2E8
100
AcDbEntity
  8
ガラス
  6
Continuous
100
AcDbVertex
100
AcDb2dVertex
 10
-37.875
 20
-32.725
 30
0.0
 70
     8
  0
VERTEX
  5
2ED
330
2E8
100
AcDbEntity
  8
ガラス
  6
Continuous
100
AcDbVertex
100
AcDb2dVertex
 10
-37.875
 20
-32.775
 30
0.0
 70
     8
  0
VERTEX
  5
2EE
330
2E8
100
AcDbEntity
  8
ガラス
  6
Continuous
100
AcDbVertex
100
AcDb2dVertex
 10
-37.9
 20
-32.825
 30
0.0
 70
     8
  0
VERTEX
  5
2EF
330
2E8
100
AcDbEntity
  8
ガラス
  6
Continuous
100
AcDbVertex
100
AcDb2dVertex
 10
-37.9
 20
-32.85
 30
0.0
 70
     8
  0
VERTEX
  5
2F0
330
2E8
100
AcDbEntity
  8
ガラス
  6
Continuous
100
AcDbVertex
100
AcDb2dVertex
 10
-37.925
 20
-32.9
 30
0.0
 70
     8
  0
VERTEX
  5
2F1
330
2E8
100
AcDbEntity
  8
ガラス
  6
Continuous
100
AcDbVertex
100
AcDb2dVertex
 10
-37.925
 20
-32.95
 30
0.0
 70
     8
  0
VERTEX
  5
2F2
330
2E8
100
AcDbEntity
  8
ガラス
  6
Continuous
100
AcDbVertex
100
AcDb2dVertex
 10
-37.95
 20
-32.975
 30
0.0
 70
     8
  0
VERTEX
  5
2F3
330
2E8
100
AcDbEntity
  8
ガラス
  6
Continuous
100
AcDbVertex
100
AcDb2dVertex
 10
-37.95
 20
-33.025
 30
0.0
 70
     8
  0
VERTEX
  5
2F4
330
2E8
100
AcDbEntity
  8
ガラス
  6
Continuous
100
AcDbVertex
100
AcDb2dVertex
 10
-37.975
 20
-33.075
 30
0.0
 70
     8
  0
VERTEX
  5
2F5
330
2E8
100
AcDbEntity
  8
ガラス
  6
Continuous
100
AcDbVertex
100
AcDb2dVertex
 10
-37.975
 20
-33.1
 30
0.0
 70
     8
  0
VERTEX
  5
2F6
330
2E8
100
AcDbEntity
  8
ガラス
  6
Continuous
100
AcDbVertex
100
AcDb2dVertex
 10
-37.975
 20
-33.15
 30
0.0
 70
     8
  0
VERTEX
  5
2F7
330
2E8
100
AcDbEntity
  8
ガラス
  6
Continuous
100
AcDbVertex
100
AcDb2dVertex
 10
-38.0
 20
-33.2
 30
0.0
 70
     8
  0
VERTEX
  5
2F8
330
2E8
100
AcDbEntity
  8
ガラス
  6
Continuous
100
AcDbVertex
100
AcDb2dVertex
 10
-38.0
 20
-33.225
 30
0.0
 70
     8
  0
VERTEX
  5
2F9
330
2E8
100
AcDbEntity
  8
ガラス
  6
Continuous
100
AcDbVertex
100
AcDb2dVertex
 10
-38.0
 20
-33.275
 30
0.0
 70
     8
  0
VERTEX
  5
2FA
330
2E8
100
AcDbEntity
  8
ガラス
  6
Continuous
100
AcDbVertex
100
AcDb2dVertex
 10
-38.025
 20
-33.325
 30
0.0
 70
     8
  0
VERTEX
  5
2FB
330
2E8
100
AcDbEntity
  8
ガラス
  6
Continuous
100
AcDbVertex
100
AcDb2dVertex
 10
-38.025
 20
-33.35
 30
0.0
 70
     8
  0
VERTEX
  5
2FC
330
2E8
100
AcDbEntity
  8
ガラス
  6
Continuous
100
AcDbVertex
100
AcDb2dVertex
 10
-38.025
 20
-33.4
 30
0.0
 70
     8
  0
VERTEX
  5
2FD
330
2E8
100
AcDbEntity
  8
ガラス
  6
Continuous
100
AcDbVertex
100
AcDb2dVertex
 10
-38.05
 20
-33.45
 30
0.0
 70
     8
  0
VERTEX
  5
2FE
330
2E8
100
AcDbEntity
  8
ガラス
  6
Continuous
100
AcDbVertex
100
AcDb2dVertex
 10
-38.05
 20
-33.475
 30
0.0
 70
     8
  0
VERTEX
  5
2FF
330
2E8
100
AcDbEntity
  8
ガラス
  6
Continuous
100
AcDbVertex
100
AcDb2dVertex
 10
-38.05
 20
-33.525
 30
0.0
 70
     8
  0
VERTEX
  5
300
330
2E8
100
AcDbEntity
  8
ガラス
  6
Continuous
100
AcDbVertex
100
AcDb2dVertex
 10
-38.05
 20
-33.575
 30
0.0
 70
     8
  0
VERTEX
  5
301
330
2E8
100
AcDbEntity
  8
ガラス
  6
Continuous
100
AcDbVertex
100
AcDb2dVertex
 10
-38.05
 20
-33.6
 30
0.0
 70
     8
  0
VERTEX
  5
302
330
2E8
100
AcDbEntity
  8
ガラス
  6
Continuous
100
AcDbVertex
100
AcDb2dVertex
 10
-38.075
 20
-33.65
 30
0.0
 70
     8
  0
VERTEX
  5
303
330
2E8
100
AcDbEntity
  8
ガラス
  6
Continuous
100
AcDbVertex
100
AcDb2dVertex
 10
-38.075
 20
-33.7
 30
0.0
 70
     8
  0
VERTEX
  5
304
330
2E8
100
AcDbEntity
  8
ガラス
  6
Continuous
100
AcDbVertex
100
AcDb2dVertex
 10
-38.075
 20
-33.75
 30
0.0
 70
     8
  0
VERTEX
  5
305
330
2E8
100
AcDbEntity
  8
ガラス
  6
Continuous
100
AcDbVertex
100
AcDb2dVertex
 10
-38.075
 20
-33.775
 30
0.0
 70
     8
  0
VERTEX
  5
306
330
2E8
100
AcDbEntity
  8
ガラス
  6
Continuous
100
AcDbVertex
100
AcDb2dVertex
 10
-38.075
 20
-33.825
 30
0.0
 70
     8
  0
VERTEX
  5
307
330
2E8
100
AcDbEntity
  8
ガラス
  6
Continuous
100
AcDbVertex
100
AcDb2dVertex
 10
-38.075
 20
-33.875
 30
0.0
 70
     8
  0
VERTEX
  5
308
330
2E8
100
AcDbEntity
  8
ガラス
  6
Continuous
100
AcDbVertex
100
AcDb2dVertex
 10
-38.075
 20
-33.9
 30
0.0
 70
     8
  0
VERTEX
  5
309
330
2E8
100
AcDbEntity
  8
ガラス
  6
Continuous
100
AcDbVertex
100
AcDb2dVertex
 10
-38.075
 20
-33.95
 30
0.0
 70
     8
  0
VERTEX
  5
30A
330
2E8
100
AcDbEntity
  8
ガラス
  6
Continuous
100
AcDbVertex
100
AcDb2dVertex
 10
-38.075
 20
-34.0
 30
0.0
 70
     8
  0
VERTEX
  5
30B
330
2E8
100
AcDbEntity
  8
ガラス
  6
Continuous
100
AcDbVertex
100
AcDb2dVertex
 10
-38.075
 20
-34.05
 30
0.0
 70
     8
  0
VERTEX
  5
30C
330
2E8
100
AcDbEntity
  8
ガラス
  6
Continuous
100
AcDbVertex
100
AcDb2dVertex
 10
-38.075
 20
-34.075
 30
0.0
 70
     8
  0
VERTEX
  5
30D
330
2E8
100
AcDbEntity
  8
ガラス
  6
Continuous
100
AcDbVertex
100
AcDb2dVertex
 10
-38.075
 20
-34.125
 30
0.0
 70
     8
  0
VERTEX
  5
30E
330
2E8
100
AcDbEntity
  8
ガラス
  6
Continuous
100
AcDbVertex
100
AcDb2dVertex
 10
-38.075
 20
-34.175
 30
0.0
 70
     8
  0
VERTEX
  5
30F
330
2E8
100
AcDbEntity
  8
ガラス
  6
Continuous
100
AcDbVertex
100
AcDb2dVertex
 10
-38.075
 20
-34.2
 30
0.0
 70
     8
  0
VERTEX
  5
310
330
2E8
100
AcDbEntity
  8
ガラス
  6
Continuous
100
AcDbVertex
100
AcDb2dVertex
 10
-38.075
 20
-34.25
 30
0.0
 70
     8
  0
VERTEX
  5
311
330
2E8
100
AcDbEntity
  8
ガラス
  6
Continuous
100
AcDbVertex
100
AcDb2dVertex
 10
-38.075
 20
-34.3
 30
0.0
 70
     8
  0
SEQEND
  5
312
330
2E8
100
AcDbEntity
  8
0
  0
ARC
  5
313
330
2BC
100
AcDbEntity
  8
ガラス
  6
Continuous
100
AcDbCircle
 10
-38.735147
 20
-34.285272
 30
0.0
 40
0.668594
100
AcDbArc
 50
180.0
 51
0.0
  0
ENDBLK
  5
314
330
2BC
100
AcDbEntity
  8
0
100
AcDbBlockEnd
  0
BLOCK
  5
315
330
316
100
AcDbEntity
  8
0
100
AcDbBlockBegin
  2
*U12
 70
     1
 71
     0
 10
0.0
 20
0.0
 30
0.0
  3
*U12
  1

  0
POLYLINE
  5
317
330
316
100
AcDbEntity
  8
ガラス
  6
Continuous
100
AcDb2dPolyline
 66
     1
 10
0.0
 20
0.0
 30
0.0
 70
     4
  0
VERTEX
  5
318
330
317
100
AcDbEntity
  8
ガラス
  6
Continuous
100
AcDbVertex
100
AcDb2dVertex
 10
-39.425
 20
-48.525
 30
0.0
 70
     8
  0
VERTEX
  5
319
330
317
100
AcDbEntity
  8
ガラス
  6
Continuous
100
AcDbVertex
100
AcDb2dVertex
 10
-39.4
 20
-48.45
 30
0.0
 70
     8
  0
VERTEX
  5
31A
330
317
100
AcDbEntity
  8
ガラス
  6
Continuous
100
AcDbVertex
100
AcDb2dVertex
 10
-39.375
 20
-48.375
 30
0.0
 70
     8
  0
VERTEX
  5
31B
330
317
100
AcDbEntity
  8
ガラス
  6
Continuous
100
AcDbVertex
100
AcDb2dVertex
 10
-39.35
 20
-48.325
 30
0.0
 70
     8
  0
VERTEX
  5
31C
330
317
100
AcDbEntity
  8
ガラス
  6
Continuous
100
AcDbVertex
100
AcDb2dVertex
 10
-39.35
 20
-48.25
 30
0.0
 70
     8
  0
VERTEX
  5
31D
330
317
100
AcDbEntity
  8
ガラス
  6
Continuous
100
AcDbVertex
100
AcDb2dVertex
 10
-39.325
 20
-48.2
 30
0.0
 70
     8
  0
VERTEX
  5
31E
330
317
100
AcDbEntity
  8
ガラス
  6
Continuous
100
AcDbVertex
100
AcDb2dVertex
 10
-39.3
 20
-48.15
 30
0.0
 70
     8
  0
VERTEX
  5
31F
330
317
100
AcDbEntity
  8
ガラス
  6
Continuous
100
AcDbVertex
100
AcDb2dVertex
 10
-39.275
 20
-48.075
 30
0.0
 70
     8
  0
VERTEX
  5
320
330
317
100
AcDbEntity
  8
ガラス
  6
Continuous
100
AcDbVertex
100
AcDb2dVertex
 10
-39.275
 20
-48.025
 30
0.0
 70
     8
  0
VERTEX
  5
321
330
317
100
AcDbEntity
  8
ガラス
  6
Continuous
100
AcDbVertex
100
AcDb2dVertex
 10
-39.25
 20
-47.95
 30
0.0
 70
     8
  0
VERTEX
  5
322
330
317
100
AcDbEntity
  8
ガラス
  6
Continuous
100
AcDbVertex
100
AcDb2dVertex
 10
-39.225
 20
-47.9
 30
0.0
 70
     8
  0
VERTEX
  5
323
330
317
100
AcDbEntity
  8
ガラス
  6
Continuous
100
AcDbVertex
100
AcDb2dVertex
 10
-39.2
 20
-47.85
 30
0.0
 70
     8
  0
VERTEX
  5
324
330
317
100
AcDbEntity
  8
ガラス
  6
Continuous
100
AcDbVertex
100
AcDb2dVertex
 10
-39.175
 20
-47.775
 30
0.0
 70
     8
  0
VERTEX
  5
325
330
317
100
AcDbEntity
  8
ガラス
  6
Continuous
100
AcDbVertex
100
AcDb2dVertex
 10
-39.15
 20
-47.725
 30
0.0
 70
     8
  0
VERTEX
  5
326
330
317
100
AcDbEntity
  8
ガラス
  6
Continuous
100
AcDbVertex
100
AcDb2dVertex
 10
-39.125
 20
-47.675
 30
0.0
 70
     8
  0
VERTEX
  5
327
330
317
100
AcDbEntity
  8
ガラス
  6
Continuous
100
AcDbVertex
100
AcDb2dVertex
 10
-39.1
 20
-47.625
 30
0.0
 70
     8
  0
VERTEX
  5
328
330
317
100
AcDbEntity
  8
ガラス
  6
Continuous
100
AcDbVertex
100
AcDb2dVertex
 10
-39.05
 20
-47.575
 30
0.0
 70
     8
  0
VERTEX
  5
329
330
317
100
AcDbEntity
  8
ガラス
  6
Continuous
100
AcDbVertex
100
AcDb2dVertex
 10
-39.025
 20
-47.525
 30
0.0
 70
     8
  0
VERTEX
  5
32A
330
317
100
AcDbEntity
  8
ガラス
  6
Continuous
100
AcDbVertex
100
AcDb2dVertex
 10
-39.0
 20
-47.475
 30
0.0
 70
     8
  0
VERTEX
  5
32B
330
317
100
AcDbEntity
  8
ガラス
  6
Continuous
100
AcDbVertex
100
AcDb2dVertex
 10
-38.95
 20
-47.425
 30
0.0
 70
     8
  0
VERTEX
  5
32C
330
317
100
AcDbEntity
  8
ガラス
  6
Continuous
100
AcDbVertex
100
AcDb2dVertex
 10
-38.925
 20
-47.375
 30
0.0
 70
     8
  0
VERTEX
  5
32D
330
317
100
AcDbEntity
  8
ガラス
  6
Continuous
100
AcDbVertex
100
AcDb2dVertex
 10
-38.875
 20
-47.35
 30
0.0
 70
     8
  0
VERTEX
  5
32E
330
317
100
AcDbEntity
  8
ガラス
  6
Continuous
100
AcDbVertex
100
AcDb2dVertex
 10
-38.85
 20
-47.3
 30
0.0
 70
     8
  0
VERTEX
  5
32F
330
317
100
AcDbEntity
  8
ガラス
  6
Continuous
100
AcDbVertex
100
AcDb2dVertex
 10
-38.8
 20
-47.275
 30
0.0
 70
     8
  0
VERTEX
  5
330
330
317
100
AcDbEntity
  8
ガラス
  6
Continuous
100
AcDbVertex
100
AcDb2dVertex
 10
-38.75
 20
-47.225
 30
0.0
 70
     8
  0
VERTEX
  5
331
330
317
100
AcDbEntity
  8
ガラス
  6
Continuous
100
AcDbVertex
100
AcDb2dVertex
 10
-38.7
 20
-47.2
 30
0.0
 70
     8
  0
VERTEX
  5
332
330
317
100
AcDbEntity
  8
ガラス
  6
Continuous
100
AcDbVertex
100
AcDb2dVertex
 10
-38.65
 20
-47.175
 30
0.0
 70
     8
  0
VERTEX
  5
333
330
317
100
AcDbEntity
  8
ガラス
  6
Continuous
100
AcDbVertex
100
AcDb2dVertex
 10
-38.6
 20
-47.125
 30
0.0
 70
     8
  0
VERTEX
  5
334
330
317
100
AcDbEntity
  8
ガラス
  6
Continuous
100
AcDbVertex
100
AcDb2dVertex
 10
-38.55
 20
-47.1
 30
0.0
 70
     8
  0
VERTEX
  5
335
330
317
100
AcDbEntity
  8
ガラス
  6
Continuous
100
AcDbVertex
100
AcDb2dVertex
 10
-38.5
 20
-47.075
 30
0.0
 70
     8
  0
VERTEX
  5
336
330
317
100
AcDbEntity
  8
ガラス
  6
Continuous
100
AcDbVertex
100
AcDb2dVertex
 10
-38.425
 20
-47.05
 30
0.0
 70
     8
  0
VERTEX
  5
337
330
317
100
AcDbEntity
  8
ガラス
  6
Continuous
100
AcDbVertex
100
AcDb2dVertex
 10
-38.375
 20
-47.025
 30
0.0
 70
     8
  0
VERTEX
  5
338
330
317
100
AcDbEntity
  8
ガラス
  6
Continuous
100
AcDbVertex
100
AcDb2dVertex
 10
-38.325
 20
-47.0
 30
0.0
 70
     8
  0
VERTEX
  5
339
330
317
100
AcDbEntity
  8
ガラス
  6
Continuous
100
AcDbVertex
100
AcDb2dVertex
 10
-38.275
 20
-46.975
 30
0.0
 70
     8
  0
VERTEX
  5
33A
330
317
100
AcDbEntity
  8
ガラス
  6
Continuous
100
AcDbVertex
100
AcDb2dVertex
 10
-38.2
 20
-46.95
 30
0.0
 70
     8
  0
VERTEX
  5
33B
330
317
100
AcDbEntity
  8
ガラス
  6
Continuous
100
AcDbVertex
100
AcDb2dVertex
 10
-38.15
 20
-46.925
 30
0.0
 70
     8
  0
VERTEX
  5
33C
330
317
100
AcDbEntity
  8
ガラス
  6
Continuous
100
AcDbVertex
100
AcDb2dVertex
 10
-38.075
 20
-46.9
 30
0.0
 70
     8
  0
VERTEX
  5
33D
330
317
100
AcDbEntity
  8
ガラス
  6
Continuous
100
AcDbVertex
100
AcDb2dVertex
 10
-38.025
 20
-46.875
 30
0.0
 70
     8
  0
VERTEX
  5
33E
330
317
100
AcDbEntity
  8
ガラス
  6
Continuous
100
AcDbVertex
100
AcDb2dVertex
 10
-37.975
 20
-46.875
 30
0.0
 70
     8
  0
VERTEX
  5
33F
330
317
100
AcDbEntity
  8
ガラス
  6
Continuous
100
AcDbVertex
100
AcDb2dVertex
 10
-37.9
 20
-46.85
 30
0.0
 70
     8
  0
VERTEX
  5
340
330
317
100
AcDbEntity
  8
ガラス
  6
Continuous
100
AcDbVertex
100
AcDb2dVertex
 10
-37.85
 20
-46.825
 30
0.0
 70
     8
  0
SEQEND
  5
341
330
317
100
AcDbEntity
  8
0
  0
POLYLINE
  5
342
330
316
100
AcDbEntity
  8
ガラス
  6
Continuous
100
AcDb2dPolyline
 66
     1
 10
0.0
 20
0.0
 30
0.0
 70
     4
  0
VERTEX
  5
343
330
342
100
AcDbEntity
  8
ガラス
  6
Continuous
100
AcDbVertex
100
AcDb2dVertex
 10
-37.85
 20
-46.825
 30
0.0
 70
     8
  0
VERTEX
  5
344
330
342
100
AcDbEntity
  8
ガラス
  6
Continuous
100
AcDbVertex
100
AcDb2dVertex
 10
-37.85
 20
-46.85
 30
0.0
 70
     8
  0
VERTEX
  5
345
330
342
100
AcDbEntity
  8
ガラス
  6
Continuous
100
AcDbVertex
100
AcDb2dVertex
 10
-37.875
 20
-46.9
 30
0.0
 70
     8
  0
VERTEX
  5
346
330
342
100
AcDbEntity
  8
ガラス
  6
Continuous
100
AcDbVertex
100
AcDb2dVertex
 10
-37.875
 20
-46.95
 30
0.0
 70
     8
  0
VERTEX
  5
347
330
342
100
AcDbEntity
  8
ガラス
  6
Continuous
100
AcDbVertex
100
AcDb2dVertex
 10
-37.875
 20
-46.975
 30
0.0
 70
     8
  0
VERTEX
  5
348
330
342
100
AcDbEntity
  8
ガラス
  6
Continuous
100
AcDbVertex
100
AcDb2dVertex
 10
-37.9
 20
-47.025
 30
0.0
 70
     8
  0
VERTEX
  5
349
330
342
100
AcDbEntity
  8
ガラス
  6
Continuous
100
AcDbVertex
100
AcDb2dVertex
 10
-37.9
 20
-47.075
 30
0.0
 70
     8
  0
VERTEX
  5
34A
330
342
100
AcDbEntity
  8
ガラス
  6
Continuous
100
AcDbVertex
100
AcDb2dVertex
 10
-37.925
 20
-47.1
 30
0.0
 70
     8
  0
VERTEX
  5
34B
330
342
100
AcDbEntity
  8
ガラス
  6
Continuous
100
AcDbVertex
100
AcDb2dVertex
 10
-37.925
 20
-47.15
 30
0.0
 70
     8
  0
VERTEX
  5
34C
330
342
100
AcDbEntity
  8
ガラス
  6
Continuous
100
AcDbVertex
100
AcDb2dVertex
 10
-37.95
 20
-47.2
 30
0.0
 70
     8
  0
VERTEX
  5
34D
330
342
100
AcDbEntity
  8
ガラス
  6
Continuous
100
AcDbVertex
100
AcDb2dVertex
 10
-37.95
 20
-47.225
 30
0.0
 70
     8
  0
VERTEX
  5
34E
330
342
100
AcDbEntity
  8
ガラス
  6
Continuous
100
AcDbVertex
100
AcDb2dVertex
 10
-37.975
 20
-47.275
 30
0.0
 70
     8
  0
VERTEX
  5
34F
330
342
100
AcDbEntity
  8
ガラス
  6
Continuous
100
AcDbVertex
100
AcDb2dVertex
 10
-37.975
 20
-47.325
 30
0.0
 70
     8
  0
VERTEX
  5
350
330
342
100
AcDbEntity
  8
ガラス
  6
Continuous
100
AcDbVertex
100
AcDb2dVertex
 10
-37.975
 20
-47.35
 30
0.0
 70
     8
  0
VERTEX
  5
351
330
342
100
AcDbEntity
  8
ガラス
  6
Continuous
100
AcDbVertex
100
AcDb2dVertex
 10
-38.0
 20
-47.4
 30
0.0
 70
     8
  0
VERTEX
  5
352
330
342
100
AcDbEntity
  8
ガラス
  6
Continuous
100
AcDbVertex
100
AcDb2dVertex
 10
-38.0
 20
-47.45
 30
0.0
 70
     8
  0
VERTEX
  5
353
330
342
100
AcDbEntity
  8
ガラス
  6
Continuous
100
AcDbVertex
100
AcDb2dVertex
 10
-38.0
 20
-47.475
 30
0.0
 70
     8
  0
VERTEX
  5
354
330
342
100
AcDbEntity
  8
ガラス
  6
Continuous
100
AcDbVertex
100
AcDb2dVertex
 10
-38.025
 20
-47.525
 30
0.0
 70
     8
  0
VERTEX
  5
355
330
342
100
AcDbEntity
  8
ガラス
  6
Continuous
100
AcDbVertex
100
AcDb2dVertex
 10
-38.025
 20
-47.575
 30
0.0
 70
     8
  0
VERTEX
  5
356
330
342
100
AcDbEntity
  8
ガラス
  6
Continuous
100
AcDbVertex
100
AcDb2dVertex
 10
-38.025
 20
-47.625
 30
0.0
 70
     8
  0
VERTEX
  5
357
330
342
100
AcDbEntity
  8
ガラス
  6
Continuous
100
AcDbVertex
100
AcDb2dVertex
 10
-38.05
 20
-47.65
 30
0.0
 70
     8
  0
VERTEX
  5
358
330
342
100
AcDbEntity
  8
ガラス
  6
Continuous
100
AcDbVertex
100
AcDb2dVertex
 10
-38.05
 20
-47.7
 30
0.0
 70
     8
  0
VERTEX
  5
359
330
342
100
AcDbEntity
  8
ガラス
  6
Continuous
100
AcDbVertex
100
AcDb2dVertex
 10
-38.05
 20
-47.75
 30
0.0
 70
     8
  0
VERTEX
  5
35A
330
342
100
AcDbEntity
  8
ガラス
  6
Continuous
100
AcDbVertex
100
AcDb2dVertex
 10
-38.05
 20
-47.775
 30
0.0
 70
     8
  0
VERTEX
  5
35B
330
342
100
AcDbEntity
  8
ガラス
  6
Continuous
100
AcDbVertex
100
AcDb2dVertex
 10
-38.05
 20
-47.825
 30
0.0
 70
     8
  0
VERTEX
  5
35C
330
342
100
AcDbEntity
  8
ガラス
  6
Continuous
100
AcDbVertex
100
AcDb2dVertex
 10
-38.075
 20
-47.875
 30
0.0
 70
     8
  0
VERTEX
  5
35D
330
342
100
AcDbEntity
  8
ガラス
  6
Continuous
100
AcDbVertex
100
AcDb2dVertex
 10
-38.075
 20
-47.9
 30
0.0
 70
     8
  0
VERTEX
  5
35E
330
342
100
AcDbEntity
  8
ガラス
  6
Continuous
100
AcDbVertex
100
AcDb2dVertex
 10
-38.075
 20
-47.95
 30
0.0
 70
     8
  0
VERTEX
  5
35F
330
342
100
AcDbEntity
  8
ガラス
  6
Continuous
100
AcDbVertex
100
AcDb2dVertex
 10
-38.075
 20
-48.0
 30
0.0
 70
     8
  0
VERTEX
  5
360
330
342
100
AcDbEntity
  8
ガラス
  6
Continuous
100
AcDbVertex
100
AcDb2dVertex
 10
-38.075
 20
-48.05
 30
0.0
 70
     8
  0
VERTEX
  5
361
330
342
100
AcDbEntity
  8
ガラス
  6
Continuous
100
AcDbVertex
100
AcDb2dVertex
 10
-38.075
 20
-48.075
 30
0.0
 70
     8
  0
VERTEX
  5
362
330
342
100
AcDbEntity
  8
ガラス
  6
Continuous
100
AcDbVertex
100
AcDb2dVertex
 10
-38.075
 20
-48.125
 30
0.0
 70
     8
  0
VERTEX
  5
363
330
342
100
AcDbEntity
  8
ガラス
  6
Continuous
100
AcDbVertex
100
AcDb2dVertex
 10
-38.075
 20
-48.175
 30
0.0
 70
     8
  0
VERTEX
  5
364
330
342
100
AcDbEntity
  8
ガラス
  6
Continuous
100
AcDbVertex
100
AcDb2dVertex
 10
-38.075
 20
-48.2
 30
0.0
 70
     8
  0
VERTEX
  5
365
330
342
100
AcDbEntity
  8
ガラス
  6
Continuous
100
AcDbVertex
100
AcDb2dVertex
 10
-38.075
 20
-48.25
 30
0.0
 70
     8
  0
VERTEX
  5
366
330
342
100
AcDbEntity
  8
ガラス
  6
Continuous
100
AcDbVertex
100
AcDb2dVertex
 10
-38.075
 20
-48.3
 30
0.0
 70
     8
  0
VERTEX
  5
367
330
342
100
AcDbEntity
  8
ガラス
  6
Continuous
100
AcDbVertex
100
AcDb2dVertex
 10
-38.075
 20
-48.35
 30
0.0
 70
     8
  0
VERTEX
  5
368
330
342
100
AcDbEntity
  8
ガラス
  6
Continuous
100
AcDbVertex
100
AcDb2dVertex
 10
-38.075
 20
-48.375
 30
0.0
 70
     8
  0
VERTEX
  5
369
330
342
100
AcDbEntity
  8
ガラス
  6
Continuous
100
AcDbVertex
100
AcDb2dVertex
 10
-38.075
 20
-48.425
 30
0.0
 70
     8
  0
VERTEX
  5
36A
330
342
100
AcDbEntity
  8
ガラス
  6
Continuous
100
AcDbVertex
100
AcDb2dVertex
 10
-38.075
 20
-48.475
 30
0.0
 70
     8
  0
VERTEX
  5
36B
330
342
100
AcDbEntity
  8
ガラス
  6
Continuous
100
AcDbVertex
100
AcDb2dVertex
 10
-38.075
 20
-48.525
 30
0.0
 70
     8
  0
SEQEND
  5
36C
330
342
100
AcDbEntity
  8
0
  0
ARC
  5
36D
330
316
100
AcDbEntity
  8
ガラス
  6
Continuous
100
AcDbCircle
 10
-38.735147
 20
-48.500037
 30
0.0
 40
0.668594
100
AcDbArc
 50
180.0
 51
0.0
  0
ENDBLK
  5
36E
330
316
100
AcDbEntity
  8
0
100
AcDbBlockEnd
  0
BLOCK
  5
36F
330
370
100
AcDbEntity
  8
0
100
AcDbBlockBegin
  2
*U13
 70
     1
 71
     0
 10
0.0
 20
0.0
 30
0.0
  3
*U13
  1

  0
POLYLINE
  5
371
330
370
100
AcDbEntity
  8
ガラス
  6
Continuous
100
AcDb2dPolyline
 66
     1
 10
0.0
 20
0.0
 30
0.0
 70
     4
  0
VERTEX
  5
372
330
371
100
AcDbEntity
  8
ガラス
  6
Continuous
100
AcDbVertex
100
AcDb2dVertex
 10
-57.45
 20
-52.025
 30
0.0
 70
     8
  0
VERTEX
  5
373
330
371
100
AcDbEntity
  8
ガラス
  6
Continuous
100
AcDbVertex
100
AcDb2dVertex
 10
-57.375
 20
-52.025
 30
0.0
 70
     8
  0
VERTEX
  5
374
330
371
100
AcDbEntity
  8
ガラス
  6
Continuous
100
AcDbVertex
100
AcDb2dVertex
 10
-57.325
 20
-52.0
 30
0.0
 70
     8
  0
VERTEX
  5
375
330
371
100
AcDbEntity
  8
ガラス
  6
Continuous
100
AcDbVertex
100
AcDb2dVertex
 10
-57.25
 20
-52.0
 30
0.0
 70
     8
  0
VERTEX
  5
376
330
371
100
AcDbEntity
  8
ガラス
  6
Continuous
100
AcDbVertex
100
AcDb2dVertex
 10
-57.2
 20
-52.0
 30
0.0
 70
     8
  0
VERTEX
  5
377
330
371
100
AcDbEntity
  8
ガラス
  6
Continuous
100
AcDbVertex
100
AcDb2dVertex
 10
-57.125
 20
-52.0
 30
0.0
 70
     8
  0
VERTEX
  5
378
330
371
100
AcDbEntity
  8
ガラス
  6
Continuous
100
AcDbVertex
100
AcDb2dVertex
 10
-57.05
 20
-52.0
 30
0.0
 70
     8
  0
VERTEX
  5
379
330
371
100
AcDbEntity
  8
ガラス
  6
Continuous
100
AcDbVertex
100
AcDb2dVertex
 10
-57.0
 20
-52.0
 30
0.0
 70
     8
  0
VERTEX
  5
37A
330
371
100
AcDbEntity
  8
ガラス
  6
Continuous
100
AcDbVertex
100
AcDb2dVertex
 10
-56.925
 20
-51.975
 30
0.0
 70
     8
  0
VERTEX
  5
37B
330
371
100
AcDbEntity
  8
ガラス
  6
Continuous
100
AcDbVertex
100
AcDb2dVertex
 10
-56.875
 20
-51.975
 30
0.0
 70
     8
  0
VERTEX
  5
37C
330
371
100
AcDbEntity
  8
ガラス
  6
Continuous
100
AcDbVertex
100
AcDb2dVertex
 10
-56.8
 20
-51.975
 30
0.0
 70
     8
  0
VERTEX
  5
37D
330
371
100
AcDbEntity
  8
ガラス
  6
Continuous
100
AcDbVertex
100
AcDb2dVertex
 10
-56.75
 20
-51.975
 30
0.0
 70
     8
  0
VERTEX
  5
37E
330
371
100
AcDbEntity
  8
ガラス
  6
Continuous
100
AcDbVertex
100
AcDb2dVertex
 10
-56.675
 20
-52.0
 30
0.0
 70
     8
  0
VERTEX
  5
37F
330
371
100
AcDbEntity
  8
ガラス
  6
Continuous
100
AcDbVertex
100
AcDb2dVertex
 10
-56.625
 20
-52.0
 30
0.0
 70
     8
  0
VERTEX
  5
380
330
371
100
AcDbEntity
  8
ガラス
  6
Continuous
100
AcDbVertex
100
AcDb2dVertex
 10
-56.575
 20
-52.0
 30
0.0
 70
     8
  0
VERTEX
  5
381
330
371
100
AcDbEntity
  8
ガラス
  6
Continuous
100
AcDbVertex
100
AcDb2dVertex
 10
-56.5
 20
-52.0
 30
0.0
 70
     8
  0
VERTEX
  5
382
330
371
100
AcDbEntity
  8
ガラス
  6
Continuous
100
AcDbVertex
100
AcDb2dVertex
 10
-56.45
 20
-52.025
 30
0.0
 70
     8
  0
VERTEX
  5
383
330
371
100
AcDbEntity
  8
ガラス
  6
Continuous
100
AcDbVertex
100
AcDb2dVertex
 10
-56.375
 20
-52.025
 30
0.0
 70
     8
  0
VERTEX
  5
384
330
371
100
AcDbEntity
  8
ガラス
  6
Continuous
100
AcDbVertex
100
AcDb2dVertex
 10
-56.325
 20
-52.05
 30
0.0
 70
     8
  0
VERTEX
  5
385
330
371
100
AcDbEntity
  8
ガラス
  6
Continuous
100
AcDbVertex
100
AcDb2dVertex
 10
-56.275
 20
-52.05
 30
0.0
 70
     8
  0
VERTEX
  5
386
330
371
100
AcDbEntity
  8
ガラス
  6
Continuous
100
AcDbVertex
100
AcDb2dVertex
 10
-56.225
 20
-52.075
 30
0.0
 70
     8
  0
VERTEX
  5
387
330
371
100
AcDbEntity
  8
ガラス
  6
Continuous
100
AcDbVertex
100
AcDb2dVertex
 10
-56.175
 20
-52.1
 30
0.0
 70
     8
  0
VERTEX
  5
388
330
371
100
AcDbEntity
  8
ガラス
  6
Continuous
100
AcDbVertex
100
AcDb2dVertex
 10
-56.125
 20
-52.125
 30
0.0
 70
     8
  0
VERTEX
  5
389
330
371
100
AcDbEntity
  8
ガラス
  6
Continuous
100
AcDbVertex
100
AcDb2dVertex
 10
-56.075
 20
-52.15
 30
0.0
 70
     8
  0
VERTEX
  5
38A
330
371
100
AcDbEntity
  8
ガラス
  6
Continuous
100
AcDbVertex
100
AcDb2dVertex
 10
-56.025
 20
-52.175
 30
0.0
 70
     8
  0
VERTEX
  5
38B
330
371
100
AcDbEntity
  8
ガラス
  6
Continuous
100
AcDbVertex
100
AcDb2dVertex
 10
-55.975
 20
-52.225
 30
0.0
 70
     8
  0
VERTEX
  5
38C
330
371
100
AcDbEntity
  8
ガラス
  6
Continuous
100
AcDbVertex
100
AcDb2dVertex
 10
-55.925
 20
-52.25
 30
0.0
 70
     8
  0
VERTEX
  5
38D
330
371
100
AcDbEntity
  8
ガラス
  6
Continuous
100
AcDbVertex
100
AcDb2dVertex
 10
-55.875
 20
-52.275
 30
0.0
 70
     8
  0
VERTEX
  5
38E
330
371
100
AcDbEntity
  8
ガラス
  6
Continuous
100
AcDbVertex
100
AcDb2dVertex
 10
-55.825
 20
-52.325
 30
0.0
 70
     8
  0
VERTEX
  5
38F
330
371
100
AcDbEntity
  8
ガラス
  6
Continuous
100
AcDbVertex
100
AcDb2dVertex
 10
-55.775
 20
-52.375
 30
0.0
 70
     8
  0
VERTEX
  5
390
330
371
100
AcDbEntity
  8
ガラス
  6
Continuous
100
AcDbVertex
100
AcDb2dVertex
 10
-55.725
 20
-52.4
 30
0.0
 70
     8
  0
VERTEX
  5
391
330
371
100
AcDbEntity
  8
ガラス
  6
Continuous
100
AcDbVertex
100
AcDb2dVertex
 10
-55.675
 20
-52.45
 30
0.0
 70
     8
  0
VERTEX
  5
392
330
371
100
AcDbEntity
  8
ガラス
  6
Continuous
100
AcDbVertex
100
AcDb2dVertex
 10
-55.65
 20
-52.5
 30
0.0
 70
     8
  0
VERTEX
  5
393
330
371
100
AcDbEntity
  8
ガラス
  6
Continuous
100
AcDbVertex
100
AcDb2dVertex
 10
-55.6
 20
-52.55
 30
0.0
 70
     8
  0
VERTEX
  5
394
330
371
100
AcDbEntity
  8
ガラス
  6
Continuous
100
AcDbVertex
100
AcDb2dVertex
 10
-55.55
 20
-52.6
 30
0.0
 70
     8
  0
VERTEX
  5
395
330
371
100
AcDbEntity
  8
ガラス
  6
Continuous
100
AcDbVertex
100
AcDb2dVertex
 10
-55.525
 20
-52.625
 30
0.0
 70
     8
  0
VERTEX
  5
396
330
371
100
AcDbEntity
  8
ガラス
  6
Continuous
100
AcDbVertex
100
AcDb2dVertex
 10
-55.475
 20
-52.675
 30
0.0
 70
     8
  0
VERTEX
  5
397
330
371
100
AcDbEntity
  8
ガラス
  6
Continuous
100
AcDbVertex
100
AcDb2dVertex
 10
-55.425
 20
-52.725
 30
0.0
 70
     8
  0
VERTEX
  5
398
330
371
100
AcDbEntity
  8
ガラス
  6
Continuous
100
AcDbVertex
100
AcDb2dVertex
 10
-55.375
 20
-52.775
 30
0.0
 70
     8
  0
VERTEX
  5
399
330
371
100
AcDbEntity
  8
ガラス
  6
Continuous
100
AcDbVertex
100
AcDb2dVertex
 10
-55.35
 20
-52.825
 30
0.0
 70
     8
  0
VERTEX
  5
39A
330
371
100
AcDbEntity
  8
ガラス
  6
Continuous
100
AcDbVertex
100
AcDb2dVertex
 10
-55.3
 20
-52.875
 30
0.0
 70
     8
  0
SEQEND
  5
39B
330
371
100
AcDbEntity
  8
0
  0
POLYLINE
  5
39C
330
370
100
AcDbEntity
  8
ガラス
  6
Continuous
100
AcDb2dPolyline
 66
     1
 10
0.0
 20
0.0
 30
0.0
 70
     4
  0
VERTEX
  5
39D
330
39C
100
AcDbEntity
  8
ガラス
  6
Continuous
100
AcDbVertex
100
AcDb2dVertex
 10
-55.3
 20
-52.875
 30
0.0
 70
     8
  0
VERTEX
  5
39E
330
39C
100
AcDbEntity
  8
ガラス
  6
Continuous
100
AcDbVertex
100
AcDb2dVertex
 10
-55.35
 20
-52.875
 30
0.0
 70
     8
  0
VERTEX
  5
39F
330
39C
100
AcDbEntity
  8
ガラス
  6
Continuous
100
AcDbVertex
100
AcDb2dVertex
 10
-55.4
 20
-52.9
 30
0.0
 70
     8
  0
VERTEX
  5
3A0
330
39C
100
AcDbEntity
  8
ガラス
  6
Continuous
100
AcDbVertex
100
AcDb2dVertex
 10
-55.425
 20
-52.9
 30
0.0
 70
     8
  0
VERTEX
  5
3A1
330
39C
100
AcDbEntity
  8
ガラス
  6
Continuous
100
AcDbVertex
100
AcDb2dVertex
 10
-55.475
 20
-52.9
 30
0.0
 70
     8
  0
VERTEX
  5
3A2
330
39C
100
AcDbEntity
  8
ガラス
  6
Continuous
100
AcDbVertex
100
AcDb2dVertex
 10
-55.525
 20
-52.9
 30
0.0
 70
     8
  0
VERTEX
  5
3A3
330
39C
100
AcDbEntity
  8
ガラス
  6
Continuous
100
AcDbVertex
100
AcDb2dVertex
 10
-55.55
 20
-52.9
 30
0.0
 70
     8
  0
VERTEX
  5
3A4
330
39C
100
AcDbEntity
  8
ガラス
  6
Continuous
100
AcDbVertex
100
AcDb2dVertex
 10
-55.6
 20
-52.9
 30
0.0
 70
     8
  0
VERTEX
  5
3A5
330
39C
100
AcDbEntity
  8
ガラス
  6
Continuous
100
AcDbVertex
100
AcDb2dVertex
 10
-55.65
 20
-52.925
 30
0.0
 70
     8
  0
VERTEX
  5
3A6
330
39C
100
AcDbEntity
  8
ガラス
  6
Continuous
100
AcDbVertex
100
AcDb2dVertex
 10
-55.7
 20
-52.925
 30
0.0
 70
     8
  0
VERTEX
  5
3A7
330
39C
100
AcDbEntity
  8
ガラス
  6
Continuous
100
AcDbVertex
100
AcDb2dVertex
 10
-55.725
 20
-52.925
 30
0.0
 70
     8
  0
VERTEX
  5
3A8
330
39C
100
AcDbEntity
  8
ガラス
  6
Continuous
100
AcDbVertex
100
AcDb2dVertex
 10
-55.775
 20
-52.925
 30
0.0
 70
     8
  0
VERTEX
  5
3A9
330
39C
100
AcDbEntity
  8
ガラス
  6
Continuous
100
AcDbVertex
100
AcDb2dVertex
 10
-55.825
 20
-52.925
 30
0.0
 70
     8
  0
VERTEX
  5
3AA
330
39C
100
AcDbEntity
  8
ガラス
  6
Continuous
100
AcDbVertex
100
AcDb2dVertex
 10
-55.85
 20
-52.95
 30
0.0
 70
     8
  0
VERTEX
  5
3AB
330
39C
100
AcDbEntity
  8
ガラス
  6
Continuous
100
AcDbVertex
100
AcDb2dVertex
 10
-55.9
 20
-52.95
 30
0.0
 70
     8
  0
VERTEX
  5
3AC
330
39C
100
AcDbEntity
  8
ガラス
  6
Continuous
100
AcDbVertex
100
AcDb2dVertex
 10
-55.95
 20
-52.95
 30
0.0
 70
     8
  0
VERTEX
  5
3AD
330
39C
100
AcDbEntity
  8
ガラス
  6
Continuous
100
AcDbVertex
100
AcDb2dVertex
 10
-55.975
 20
-52.975
 30
0.0
 70
     8
  0
VERTEX
  5
3AE
330
39C
100
AcDbEntity
  8
ガラス
  6
Continuous
100
AcDbVertex
100
AcDb2dVertex
 10
-56.025
 20
-52.975
 30
0.0
 70
     8
  0
VERTEX
  5
3AF
330
39C
100
AcDbEntity
  8
ガラス
  6
Continuous
100
AcDbVertex
100
AcDb2dVertex
 10
-56.075
 20
-52.975
 30
0.0
 70
     8
  0
VERTEX
  5
3B0
330
39C
100
AcDbEntity
  8
ガラス
  6
Continuous
100
AcDbVertex
100
AcDb2dVertex
 10
-56.1
 20
-53.0
 30
0.0
 70
     8
  0
VERTEX
  5
3B1
330
39C
100
AcDbEntity
  8
ガラス
  6
Continuous
100
AcDbVertex
100
AcDb2dVertex
 10
-56.15
 20
-53.0
 30
0.0
 70
     8
  0
VERTEX
  5
3B2
330
39C
100
AcDbEntity
  8
ガラス
  6
Continuous
100
AcDbVertex
100
AcDb2dVertex
 10
-56.2
 20
-53.0
 30
0.0
 70
     8
  0
VERTEX
  5
3B3
330
39C
100
AcDbEntity
  8
ガラス
  6
Continuous
100
AcDbVertex
100
AcDb2dVertex
 10
-56.225
 20
-53.025
 30
0.0
 70
     8
  0
VERTEX
  5
3B4
330
39C
100
AcDbEntity
  8
ガラス
  6
Continuous
100
AcDbVertex
100
AcDb2dVertex
 10
-56.275
 20
-53.025
 30
0.0
 70
     8
  0
VERTEX
  5
3B5
330
39C
100
AcDbEntity
  8
ガラス
  6
Continuous
100
AcDbVertex
100
AcDb2dVertex
 10
-56.325
 20
-53.05
 30
0.0
 70
     8
  0
VERTEX
  5
3B6
330
39C
100
AcDbEntity
  8
ガラス
  6
Continuous
100
AcDbVertex
100
AcDb2dVertex
 10
-56.35
 20
-53.05
 30
0.0
 70
     8
  0
VERTEX
  5
3B7
330
39C
100
AcDbEntity
  8
ガラス
  6
Continuous
100
AcDbVertex
100
AcDb2dVertex
 10
-56.4
 20
-53.075
 30
0.0
 70
     8
  0
VERTEX
  5
3B8
330
39C
100
AcDbEntity
  8
ガラス
  6
Continuous
100
AcDbVertex
100
AcDb2dVertex
 10
-56.45
 20
-53.075
 30
0.0
 70
     8
  0
VERTEX
  5
3B9
330
39C
100
AcDbEntity
  8
ガラス
  6
Continuous
100
AcDbVertex
100
AcDb2dVertex
 10
-56.475
 20
-53.1
 30
0.0
 70
     8
  0
VERTEX
  5
3BA
330
39C
100
AcDbEntity
  8
ガラス
  6
Continuous
100
AcDbVertex
100
AcDb2dVertex
 10
-56.525
 20
-53.1
 30
0.0
 70
     8
  0
VERTEX
  5
3BB
330
39C
100
AcDbEntity
  8
ガラス
  6
Continuous
100
AcDbVertex
100
AcDb2dVertex
 10
-56.575
 20
-53.125
 30
0.0
 70
     8
  0
VERTEX
  5
3BC
330
39C
100
AcDbEntity
  8
ガラス
  6
Continuous
100
AcDbVertex
100
AcDb2dVertex
 10
-56.6
 20
-53.125
 30
0.0
 70
     8
  0
VERTEX
  5
3BD
330
39C
100
AcDbEntity
  8
ガラス
  6
Continuous
100
AcDbVertex
100
AcDb2dVertex
 10
-56.65
 20
-53.15
 30
0.0
 70
     8
  0
VERTEX
  5
3BE
330
39C
100
AcDbEntity
  8
ガラス
  6
Continuous
100
AcDbVertex
100
AcDb2dVertex
 10
-56.675
 20
-53.15
 30
0.0
 70
     8
  0
VERTEX
  5
3BF
330
39C
100
AcDbEntity
  8
ガラス
  6
Continuous
100
AcDbVertex
100
AcDb2dVertex
 10
-56.725
 20
-53.175
 30
0.0
 70
     8
  0
VERTEX
  5
3C0
330
39C
100
AcDbEntity
  8
ガラス
  6
Continuous
100
AcDbVertex
100
AcDb2dVertex
 10
-56.775
 20
-53.2
 30
0.0
 70
     8
  0
VERTEX
  5
3C1
330
39C
100
AcDbEntity
  8
ガラス
  6
Continuous
100
AcDbVertex
100
AcDb2dVertex
 10
-56.8
 20
-53.2
 30
0.0
 70
     8
  0
VERTEX
  5
3C2
330
39C
100
AcDbEntity
  8
ガラス
  6
Continuous
100
AcDbVertex
100
AcDb2dVertex
 10
-56.85
 20
-53.225
 30
0.0
 70
     8
  0
VERTEX
  5
3C3
330
39C
100
AcDbEntity
  8
ガラス
  6
Continuous
100
AcDbVertex
100
AcDb2dVertex
 10
-56.875
 20
-53.25
 30
0.0
 70
     8
  0
VERTEX
  5
3C4
330
39C
100
AcDbEntity
  8
ガラス
  6
Continuous
100
AcDbVertex
100
AcDb2dVertex
 10
-56.925
 20
-53.25
 30
0.0
 70
     8
  0
VERTEX
  5
3C5
330
39C
100
AcDbEntity
  8
ガラス
  6
Continuous
100
AcDbVertex
100
AcDb2dVertex
 10
-56.975
 20
-53.275
 30
0.0
 70
     8
  0
SEQEND
  5
3C6
330
39C
100
AcDbEntity
  8
0
  0
ARC
  5
3C7
330
370
100
AcDbEntity
  8
ガラス
  6
Continuous
100
AcDbCircle
 10
-57.195361
 20
-52.634963
 30
0.0
 40
0.668594
100
AcDbArc
 50
111.203091
 51
291.203091
  0
ENDBLK
  5
3C8
330
370
100
AcDbEntity
  8
0
100
AcDbBlockEnd
  0
BLOCK
  5
3C9
330
3CA
100
AcDbEntity
  8
0
100
AcDbBlockBegin
  2
*U14
 70
     1
 71
     0
 10
0.0
 20
0.0
 30
0.0
  3
*U14
  1

  0
POLYLINE
  5
3CB
330
3CA
100
AcDbEntity
  8
ガラス
  6
Continuous
100
AcDb2dPolyline
 66
     1
 10
0.0
 20
0.0
 30
0.0
 70
     4
  0
VERTEX
  5
3CC
330
3CB
100
AcDbEntity
  8
ガラス
  6
Continuous
100
AcDbVertex
100
AcDb2dVertex
 10
-50.225
 20
-51.025
 30
0.0
 70
     8
  0
VERTEX
  5
3CD
330
3CB
100
AcDbEntity
  8
ガラス
  6
Continuous
100
AcDbVertex
100
AcDb2dVertex
 10
-50.15
 20
-51.0
 30
0.0
 70
     8
  0
VERTEX
  5
3CE
330
3CB
100
AcDbEntity
  8
ガラス
  6
Continuous
100
AcDbVertex
100
AcDb2dVertex
 10
-50.1
 20
-51.0
 30
0.0
 70
     8
  0
VERTEX
  5
3CF
330
3CB
100
AcDbEntity
  8
ガラス
  6
Continuous
100
AcDbVertex
100
AcDb2dVertex
 10
-50.025
 20
-51.0
 30
0.0
 70
     8
  0
VERTEX
  5
3D0
330
3CB
100
AcDbEntity
  8
ガラス
  6
Continuous
100
AcDbVertex
100
AcDb2dVertex
 10
-49.95
 20
-51.0
 30
0.0
 70
     8
  0
VERTEX
  5
3D1
330
3CB
100
AcDbEntity
  8
ガラス
  6
Continuous
100
AcDbVertex
100
AcDb2dVertex
 10
-49.9
 20
-50.975
 30
0.0
 70
     8
  0
VERTEX
  5
3D2
330
3CB
100
AcDbEntity
  8
ガラス
  6
Continuous
100
AcDbVertex
100
AcDb2dVertex
 10
-49.825
 20
-50.975
 30
0.0
 70
     8
  0
VERTEX
  5
3D3
330
3CB
100
AcDbEntity
  8
ガラス
  6
Continuous
100
AcDbVertex
100
AcDb2dVertex
 10
-49.775
 20
-50.975
 30
0.0
 70
     8
  0
VERTEX
  5
3D4
330
3CB
100
AcDbEntity
  8
ガラス
  6
Continuous
100
AcDbVertex
100
AcDb2dVertex
 10
-49.7
 20
-50.975
 30
0.0
 70
     8
  0
VERTEX
  5
3D5
330
3CB
100
AcDbEntity
  8
ガラス
  6
Continuous
100
AcDbVertex
100
AcDb2dVertex
 10
-49.65
 20
-50.975
 30
0.0
 70
     8
  0
VERTEX
  5
3D6
330
3CB
100
AcDbEntity
  8
ガラス
  6
Continuous
100
AcDbVertex
100
AcDb2dVertex
 10
-49.575
 20
-50.975
 30
0.0
 70
     8
  0
VERTEX
  5
3D7
330
3CB
100
AcDbEntity
  8
ガラス
  6
Continuous
100
AcDbVertex
100
AcDb2dVertex
 10
-49.525
 20
-50.975
 30
0.0
 70
     8
  0
VERTEX
  5
3D8
330
3CB
100
AcDbEntity
  8
ガラス
  6
Continuous
100
AcDbVertex
100
AcDb2dVertex
 10
-49.45
 20
-50.975
 30
0.0
 70
     8
  0
VERTEX
  5
3D9
330
3CB
100
AcDbEntity
  8
ガラス
  6
Continuous
100
AcDbVertex
100
AcDb2dVertex
 10
-49.4
 20
-50.975
 30
0.0
 70
     8
  0
VERTEX
  5
3DA
330
3CB
100
AcDbEntity
  8
ガラス
  6
Continuous
100
AcDbVertex
100
AcDb2dVertex
 10
-49.325
 20
-51.0
 30
0.0
 70
     8
  0
VERTEX
  5
3DB
330
3CB
100
AcDbEntity
  8
ガラス
  6
Continuous
100
AcDbVertex
100
AcDb2dVertex
 10
-49.275
 20
-51.0
 30
0.0
 70
     8
  0
VERTEX
  5
3DC
330
3CB
100
AcDbEntity
  8
ガラス
  6
Continuous
100
AcDbVertex
100
AcDb2dVertex
 10
-49.225
 20
-51.0
 30
0.0
 70
     8
  0
VERTEX
  5
3DD
330
3CB
100
AcDbEntity
  8
ガラス
  6
Continuous
100
AcDbVertex
100
AcDb2dVertex
 10
-49.15
 20
-51.025
 30
0.0
 70
     8
  0
VERTEX
  5
3DE
330
3CB
100
AcDbEntity
  8
ガラス
  6
Continuous
100
AcDbVertex
100
AcDb2dVertex
 10
-49.1
 20
-51.025
 30
0.0
 70
     8
  0
VERTEX
  5
3DF
330
3CB
100
AcDbEntity
  8
ガラス
  6
Continuous
100
AcDbVertex
100
AcDb2dVertex
 10
-49.05
 20
-51.05
 30
0.0
 70
     8
  0
VERTEX
  5
3E0
330
3CB
100
AcDbEntity
  8
ガラス
  6
Continuous
100
AcDbVertex
100
AcDb2dVertex
 10
-49.0
 20
-51.075
 30
0.0
 70
     8
  0
VERTEX
  5
3E1
330
3CB
100
AcDbEntity
  8
ガラス
  6
Continuous
100
AcDbVertex
100
AcDb2dVertex
 10
-48.95
 20
-51.1
 30
0.0
 70
     8
  0
VERTEX
  5
3E2
330
3CB
100
AcDbEntity
  8
ガラス
  6
Continuous
100
AcDbVertex
100
AcDb2dVertex
 10
-48.875
 20
-51.125
 30
0.0
 70
     8
  0
VERTEX
  5
3E3
330
3CB
100
AcDbEntity
  8
ガラス
  6
Continuous
100
AcDbVertex
100
AcDb2dVertex
 10
-48.825
 20
-51.15
 30
0.0
 70
     8
  0
VERTEX
  5
3E4
330
3CB
100
AcDbEntity
  8
ガラス
  6
Continuous
100
AcDbVertex
100
AcDb2dVertex
 10
-48.775
 20
-51.175
 30
0.0
 70
     8
  0
VERTEX
  5
3E5
330
3CB
100
AcDbEntity
  8
ガラス
  6
Continuous
100
AcDbVertex
100
AcDb2dVertex
 10
-48.725
 20
-51.2
 30
0.0
 70
     8
  0
VERTEX
  5
3E6
330
3CB
100
AcDbEntity
  8
ガラス
  6
Continuous
100
AcDbVertex
100
AcDb2dVertex
 10
-48.675
 20
-51.25
 30
0.0
 70
     8
  0
VERTEX
  5
3E7
330
3CB
100
AcDbEntity
  8
ガラス
  6
Continuous
100
AcDbVertex
100
AcDb2dVertex
 10
-48.65
 20
-51.275
 30
0.0
 70
     8
  0
VERTEX
  5
3E8
330
3CB
100
AcDbEntity
  8
ガラス
  6
Continuous
100
AcDbVertex
100
AcDb2dVertex
 10
-48.6
 20
-51.325
 30
0.0
 70
     8
  0
VERTEX
  5
3E9
330
3CB
100
AcDbEntity
  8
ガラス
  6
Continuous
100
AcDbVertex
100
AcDb2dVertex
 10
-48.55
 20
-51.35
 30
0.0
 70
     8
  0
VERTEX
  5
3EA
330
3CB
100
AcDbEntity
  8
ガラス
  6
Continuous
100
AcDbVertex
100
AcDb2dVertex
 10
-48.5
 20
-51.4
 30
0.0
 70
     8
  0
VERTEX
  5
3EB
330
3CB
100
AcDbEntity
  8
ガラス
  6
Continuous
100
AcDbVertex
100
AcDb2dVertex
 10
-48.45
 20
-51.45
 30
0.0
 70
     8
  0
VERTEX
  5
3EC
330
3CB
100
AcDbEntity
  8
ガラス
  6
Continuous
100
AcDbVertex
100
AcDb2dVertex
 10
-48.425
 20
-51.475
 30
0.0
 70
     8
  0
VERTEX
  5
3ED
330
3CB
100
AcDbEntity
  8
ガラス
  6
Continuous
100
AcDbVertex
100
AcDb2dVertex
 10
-48.375
 20
-51.525
 30
0.0
 70
     8
  0
VERTEX
  5
3EE
330
3CB
100
AcDbEntity
  8
ガラス
  6
Continuous
100
AcDbVertex
100
AcDb2dVertex
 10
-48.325
 20
-51.575
 30
0.0
 70
     8
  0
VERTEX
  5
3EF
330
3CB
100
AcDbEntity
  8
ガラス
  6
Continuous
100
AcDbVertex
100
AcDb2dVertex
 10
-48.275
 20
-51.625
 30
0.0
 70
     8
  0
VERTEX
  5
3F0
330
3CB
100
AcDbEntity
  8
ガラス
  6
Continuous
100
AcDbVertex
100
AcDb2dVertex
 10
-48.25
 20
-51.675
 30
0.0
 70
     8
  0
VERTEX
  5
3F1
330
3CB
100
AcDbEntity
  8
ガラス
  6
Continuous
100
AcDbVertex
100
AcDb2dVertex
 10
-48.2
 20
-51.725
 30
0.0
 70
     8
  0
VERTEX
  5
3F2
330
3CB
100
AcDbEntity
  8
ガラス
  6
Continuous
100
AcDbVertex
100
AcDb2dVertex
 10
-48.15
 20
-51.775
 30
0.0
 70
     8
  0
VERTEX
  5
3F3
330
3CB
100
AcDbEntity
  8
ガラス
  6
Continuous
100
AcDbVertex
100
AcDb2dVertex
 10
-48.125
 20
-51.825
 30
0.0
 70
     8
  0
VERTEX
  5
3F4
330
3CB
100
AcDbEntity
  8
ガラス
  6
Continuous
100
AcDbVertex
100
AcDb2dVertex
 10
-48.075
 20
-51.875
 30
0.0
 70
     8
  0
SEQEND
  5
3F5
330
3CB
100
AcDbEntity
  8
0
  0
POLYLINE
  5
3F6
330
3CA
100
AcDbEntity
  8
ガラス
  6
Continuous
100
AcDb2dPolyline
 66
     1
 10
0.0
 20
0.0
 30
0.0
 70
     4
  0
VERTEX
  5
3F7
330
3F6
100
AcDbEntity
  8
ガラス
  6
Continuous
100
AcDbVertex
100
AcDb2dVertex
 10
-48.075
 20
-51.875
 30
0.0
 70
     8
  0
VERTEX
  5
3F8
330
3F6
100
AcDbEntity
  8
ガラス
  6
Continuous
100
AcDbVertex
100
AcDb2dVertex
 10
-48.125
 20
-51.875
 30
0.0
 70
     8
  0
VERTEX
  5
3F9
330
3F6
100
AcDbEntity
  8
ガラス
  6
Continuous
100
AcDbVertex
100
AcDb2dVertex
 10
-48.15
 20
-51.875
 30
0.0
 70
     8
  0
VERTEX
  5
3FA
330
3F6
100
AcDbEntity
  8
ガラス
  6
Continuous
100
AcDbVertex
100
AcDb2dVertex
 10
-48.2
 20
-51.875
 30
0.0
 70
     8
  0
VERTEX
  5
3FB
330
3F6
100
AcDbEntity
  8
ガラス
  6
Continuous
100
AcDbVertex
100
AcDb2dVertex
 10
-48.25
 20
-51.9
 30
0.0
 70
     8
  0
VERTEX
  5
3FC
330
3F6
100
AcDbEntity
  8
ガラス
  6
Continuous
100
AcDbVertex
100
AcDb2dVertex
 10
-48.3
 20
-51.9
 30
0.0
 70
     8
  0
VERTEX
  5
3FD
330
3F6
100
AcDbEntity
  8
ガラス
  6
Continuous
100
AcDbVertex
100
AcDb2dVertex
 10
-48.325
 20
-51.9
 30
0.0
 70
     8
  0
VERTEX
  5
3FE
330
3F6
100
AcDbEntity
  8
ガラス
  6
Continuous
100
AcDbVertex
100
AcDb2dVertex
 10
-48.375
 20
-51.9
 30
0.0
 70
     8
  0
VERTEX
  5
3FF
330
3F6
100
AcDbEntity
  8
ガラス
  6
Continuous
100
AcDbVertex
100
AcDb2dVertex
 10
-48.425
 20
-51.9
 30
0.0
 70
     8
  0
VERTEX
  5
400
330
3F6
100
AcDbEntity
  8
ガラス
  6
Continuous
100
AcDbVertex
100
AcDb2dVertex
 10
-48.45
 20
-51.9
 30
0.0
 70
     8
  0
VERTEX
  5
401
330
3F6
100
AcDbEntity
  8
ガラス
  6
Continuous
100
AcDbVertex
100
AcDb2dVertex
 10
-48.5
 20
-51.925
 30
0.0
 70
     8
  0
VERTEX
  5
402
330
3F6
100
AcDbEntity
  8
ガラス
  6
Continuous
100
AcDbVertex
100
AcDb2dVertex
 10
-48.55
 20
-51.925
 30
0.0
 70
     8
  0
VERTEX
  5
403
330
3F6
100
AcDbEntity
  8
ガラス
  6
Continuous
100
AcDbVertex
100
AcDb2dVertex
 10
-48.575
 20
-51.925
 30
0.0
 70
     8
  0
VERTEX
  5
404
330
3F6
100
AcDbEntity
  8
ガラス
  6
Continuous
100
AcDbVertex
100
AcDb2dVertex
 10
-48.625
 20
-51.925
 30
0.0
 70
     8
  0
VERTEX
  5
405
330
3F6
100
AcDbEntity
  8
ガラス
  6
Continuous
100
AcDbVertex
100
AcDb2dVertex
 10
-48.675
 20
-51.95
 30
0.0
 70
     8
  0
VERTEX
  5
406
330
3F6
100
AcDbEntity
  8
ガラス
  6
Continuous
100
AcDbVertex
100
AcDb2dVertex
 10
-48.725
 20
-51.95
 30
0.0
 70
     8
  0
VERTEX
  5
407
330
3F6
100
AcDbEntity
  8
ガラス
  6
Continuous
100
AcDbVertex
100
AcDb2dVertex
 10
-48.75
 20
-51.95
 30
0.0
 70
     8
  0
VERTEX
  5
408
330
3F6
100
AcDbEntity
  8
ガラス
  6
Continuous
100
AcDbVertex
100
AcDb2dVertex
 10
-48.8
 20
-51.95
 30
0.0
 70
     8
  0
VERTEX
  5
409
330
3F6
100
AcDbEntity
  8
ガラス
  6
Continuous
100
AcDbVertex
100
AcDb2dVertex
 10
-48.85
 20
-51.975
 30
0.0
 70
     8
  0
VERTEX
  5
40A
330
3F6
100
AcDbEntity
  8
ガラス
  6
Continuous
100
AcDbVertex
100
AcDb2dVertex
 10
-48.875
 20
-51.975
 30
0.0
 70
     8
  0
VERTEX
  5
40B
330
3F6
100
AcDbEntity
  8
ガラス
  6
Continuous
100
AcDbVertex
100
AcDb2dVertex
 10
-48.925
 20
-51.975
 30
0.0
 70
     8
  0
VERTEX
  5
40C
330
3F6
100
AcDbEntity
  8
ガラス
  6
Continuous
100
AcDbVertex
100
AcDb2dVertex
 10
-48.975
 20
-52.0
 30
0.0
 70
     8
  0
VERTEX
  5
40D
330
3F6
100
AcDbEntity
  8
ガラス
  6
Continuous
100
AcDbVertex
100
AcDb2dVertex
 10
-49.0
 20
-52.0
 30
0.0
 70
     8
  0
VERTEX
  5
40E
330
3F6
100
AcDbEntity
  8
ガラス
  6
Continuous
100
AcDbVertex
100
AcDb2dVertex
 10
-49.05
 20
-52.025
 30
0.0
 70
     8
  0
VERTEX
  5
40F
330
3F6
100
AcDbEntity
  8
ガラス
  6
Continuous
100
AcDbVertex
100
AcDb2dVertex
 10
-49.1
 20
-52.025
 30
0.0
 70
     8
  0
VERTEX
  5
410
330
3F6
100
AcDbEntity
  8
ガラス
  6
Continuous
100
AcDbVertex
100
AcDb2dVertex
 10
-49.125
 20
-52.05
 30
0.0
 70
     8
  0
VERTEX
  5
411
330
3F6
100
AcDbEntity
  8
ガラス
  6
Continuous
100
AcDbVertex
100
AcDb2dVertex
 10
-49.175
 20
-52.05
 30
0.0
 70
     8
  0
VERTEX
  5
412
330
3F6
100
AcDbEntity
  8
ガラス
  6
Continuous
100
AcDbVertex
100
AcDb2dVertex
 10
-49.225
 20
-52.075
 30
0.0
 70
     8
  0
VERTEX
  5
413
330
3F6
100
AcDbEntity
  8
ガラス
  6
Continuous
100
AcDbVertex
100
AcDb2dVertex
 10
-49.25
 20
-52.075
 30
0.0
 70
     8
  0
VERTEX
  5
414
330
3F6
100
AcDbEntity
  8
ガラス
  6
Continuous
100
AcDbVertex
100
AcDb2dVertex
 10
-49.3
 20
-52.1
 30
0.0
 70
     8
  0
VERTEX
  5
415
330
3F6
100
AcDbEntity
  8
ガラス
  6
Continuous
100
AcDbVertex
100
AcDb2dVertex
 10
-49.325
 20
-52.1
 30
0.0
 70
     8
  0
VERTEX
  5
416
330
3F6
100
AcDbEntity
  8
ガラス
  6
Continuous
100
AcDbVertex
100
AcDb2dVertex
 10
-49.375
 20
-52.125
 30
0.0
 70
     8
  0
VERTEX
  5
417
330
3F6
100
AcDbEntity
  8
ガラス
  6
Continuous
100
AcDbVertex
100
AcDb2dVertex
 10
-49.425
 20
-52.125
 30
0.0
 70
     8
  0
VERTEX
  5
418
330
3F6
100
AcDbEntity
  8
ガラス
  6
Continuous
100
AcDbVertex
100
AcDb2dVertex
 10
-49.45
 20
-52.15
 30
0.0
 70
     8
  0
VERTEX
  5
419
330
3F6
100
AcDbEntity
  8
ガラス
  6
Continuous
100
AcDbVertex
100
AcDb2dVertex
 10
-49.5
 20
-52.175
 30
0.0
 70
     8
  0
VERTEX
  5
41A
330
3F6
100
AcDbEntity
  8
ガラス
  6
Continuous
100
AcDbVertex
100
AcDb2dVertex
 10
-49.525
 20
-52.175
 30
0.0
 70
     8
  0
VERTEX
  5
41B
330
3F6
100
AcDbEntity
  8
ガラス
  6
Continuous
100
AcDbVertex
100
AcDb2dVertex
 10
-49.575
 20
-52.2
 30
0.0
 70
     8
  0
VERTEX
  5
41C
330
3F6
100
AcDbEntity
  8
ガラス
  6
Continuous
100
AcDbVertex
100
AcDb2dVertex
 10
-49.625
 20
-52.225
 30
0.0
 70
     8
  0
VERTEX
  5
41D
330
3F6
100
AcDbEntity
  8
ガラス
  6
Continuous
100
AcDbVertex
100
AcDb2dVertex
 10
-49.65
 20
-52.225
 30
0.0
 70
     8
  0
VERTEX
  5
41E
330
3F6
100
AcDbEntity
  8
ガラス
  6
Continuous
100
AcDbVertex
100
AcDb2dVertex
 10
-49.7
 20
-52.25
 30
0.0
 70
     8
  0
VERTEX
  5
41F
330
3F6
100
AcDbEntity
  8
ガラス
  6
Continuous
100
AcDbVertex
100
AcDb2dVertex
 10
-49.725
 20
-52.25
 30
0.0
 70
     8
  0
SEQEND
  5
420
330
3F6
100
AcDbEntity
  8
0
  0
ARC
  5
421
330
3CA
100
AcDbEntity
  8
ガラス
  6
Continuous
100
AcDbCircle
 10
-49.966143
 20
-51.624671
 30
0.0
 40
0.668594
100
AcDbArc
 50
111.203091
 51
291.203091
  0
ENDBLK
  5
422
330
3CA
100
AcDbEntity
  8
0
100
AcDbBlockEnd
  0
BLOCK
  5
423
330
424
100
AcDbEntity
  8
0
100
AcDbBlockBegin
  2
*U15
 70
     1
 71
     0
 10
0.0
 20
0.0
 30
0.0
  3
*U15
  1

  0
POLYLINE
  5
425
330
424
100
AcDbEntity
  8
ガラス
  6
Continuous
100
AcDb2dPolyline
 66
     1
 10
0.0
 20
0.0
 30
0.0
 70
     4
  0
VERTEX
  5
426
330
425
100
AcDbEntity
  8
ガラス
  6
Continuous
100
AcDbVertex
100
AcDb2dVertex
 10
-39.4
 20
18.7
 30
0.0
 70
     8
  0
VERTEX
  5
427
330
425
100
AcDbEntity
  8
ガラス
  6
Continuous
100
AcDbVertex
100
AcDb2dVertex
 10
-39.4
 20
18.775
 30
0.0
 70
     8
  0
VERTEX
  5
428
330
425
100
AcDbEntity
  8
ガラス
  6
Continuous
100
AcDbVertex
100
AcDb2dVertex
 10
-39.375
 20
18.825
 30
0.0
 70
     8
  0
VERTEX
  5
429
330
425
100
AcDbEntity
  8
ガラス
  6
Continuous
100
AcDbVertex
100
AcDb2dVertex
 10
-39.35
 20
18.9
 30
0.0
 70
     8
  0
VERTEX
  5
42A
330
425
100
AcDbEntity
  8
ガラス
  6
Continuous
100
AcDbVertex
100
AcDb2dVertex
 10
-39.35
 20
18.95
 30
0.0
 70
     8
  0
VERTEX
  5
42B
330
425
100
AcDbEntity
  8
ガラス
  6
Continuous
100
AcDbVertex
100
AcDb2dVertex
 10
-39.325
 20
19.025
 30
0.0
 70
     8
  0
VERTEX
  5
42C
330
425
100
AcDbEntity
  8
ガラス
  6
Continuous
100
AcDbVertex
100
AcDb2dVertex
 10
-39.3
 20
19.075
 30
0.0
 70
     8
  0
VERTEX
  5
42D
330
425
100
AcDbEntity
  8
ガラス
  6
Continuous
100
AcDbVertex
100
AcDb2dVertex
 10
-39.275
 20
19.15
 30
0.0
 70
     8
  0
VERTEX
  5
42E
330
425
100
AcDbEntity
  8
ガラス
  6
Continuous
100
AcDbVertex
100
AcDb2dVertex
 10
-39.25
 20
19.2
 30
0.0
 70
     8
  0
VERTEX
  5
42F
330
425
100
AcDbEntity
  8
ガラス
  6
Continuous
100
AcDbVertex
100
AcDb2dVertex
 10
-39.25
 20
19.275
 30
0.0
 70
     8
  0
VERTEX
  5
430
330
425
100
AcDbEntity
  8
ガラス
  6
Continuous
100
AcDbVertex
100
AcDb2dVertex
 10
-39.225
 20
19.325
 30
0.0
 70
     8
  0
VERTEX
  5
431
330
425
100
AcDbEntity
  8
ガラス
  6
Continuous
100
AcDbVertex
100
AcDb2dVertex
 10
-39.2
 20
19.375
 30
0.0
 70
     8
  0
VERTEX
  5
432
330
425
100
AcDbEntity
  8
ガラス
  6
Continuous
100
AcDbVertex
100
AcDb2dVertex
 10
-39.175
 20
19.45
 30
0.0
 70
     8
  0
VERTEX
  5
433
330
425
100
AcDbEntity
  8
ガラス
  6
Continuous
100
AcDbVertex
100
AcDb2dVertex
 10
-39.15
 20
19.5
 30
0.0
 70
     8
  0
VERTEX
  5
434
330
425
100
AcDbEntity
  8
ガラス
  6
Continuous
100
AcDbVertex
100
AcDb2dVertex
 10
-39.125
 20
19.55
 30
0.0
 70
     8
  0
VERTEX
  5
435
330
425
100
AcDbEntity
  8
ガラス
  6
Continuous
100
AcDbVertex
100
AcDb2dVertex
 10
-39.075
 20
19.6
 30
0.0
 70
     8
  0
VERTEX
  5
436
330
425
100
AcDbEntity
  8
ガラス
  6
Continuous
100
AcDbVertex
100
AcDb2dVertex
 10
-39.05
 20
19.65
 30
0.0
 70
     8
  0
VERTEX
  5
437
330
425
100
AcDbEntity
  8
ガラス
  6
Continuous
100
AcDbVertex
100
AcDb2dVertex
 10
-39.025
 20
19.7
 30
0.0
 70
     8
  0
VERTEX
  5
438
330
425
100
AcDbEntity
  8
ガラス
  6
Continuous
100
AcDbVertex
100
AcDb2dVertex
 10
-39.0
 20
19.75
 30
0.0
 70
     8
  0
VERTEX
  5
439
330
425
100
AcDbEntity
  8
ガラス
  6
Continuous
100
AcDbVertex
100
AcDb2dVertex
 10
-38.95
 20
19.8
 30
0.0
 70
     8
  0
VERTEX
  5
43A
330
425
100
AcDbEntity
  8
ガラス
  6
Continuous
100
AcDbVertex
100
AcDb2dVertex
 10
-38.925
 20
19.825
 30
0.0
 70
     8
  0
VERTEX
  5
43B
330
425
100
AcDbEntity
  8
ガラス
  6
Continuous
100
AcDbVertex
100
AcDb2dVertex
 10
-38.875
 20
19.875
 30
0.0
 70
     8
  0
VERTEX
  5
43C
330
425
100
AcDbEntity
  8
ガラス
  6
Continuous
100
AcDbVertex
100
AcDb2dVertex
 10
-38.825
 20
19.925
 30
0.0
 70
     8
  0
VERTEX
  5
43D
330
425
100
AcDbEntity
  8
ガラス
  6
Continuous
100
AcDbVertex
100
AcDb2dVertex
 10
-38.8
 20
19.95
 30
0.0
 70
     8
  0
VERTEX
  5
43E
330
425
100
AcDbEntity
  8
ガラス
  6
Continuous
100
AcDbVertex
100
AcDb2dVertex
 10
-38.75
 20
20.0
 30
0.0
 70
     8
  0
VERTEX
  5
43F
330
425
100
AcDbEntity
  8
ガラス
  6
Continuous
100
AcDbVertex
100
AcDb2dVertex
 10
-38.7
 20
20.025
 30
0.0
 70
     8
  0
VERTEX
  5
440
330
425
100
AcDbEntity
  8
ガラス
  6
Continuous
100
AcDbVertex
100
AcDb2dVertex
 10
-38.65
 20
20.05
 30
0.0
 70
     8
  0
VERTEX
  5
441
330
425
100
AcDbEntity
  8
ガラス
  6
Continuous
100
AcDbVertex
100
AcDb2dVertex
 10
-38.6
 20
20.1
 30
0.0
 70
     8
  0
VERTEX
  5
442
330
425
100
AcDbEntity
  8
ガラス
  6
Continuous
100
AcDbVertex
100
AcDb2dVertex
 10
-38.55
 20
20.125
 30
0.0
 70
     8
  0
VERTEX
  5
443
330
425
100
AcDbEntity
  8
ガラス
  6
Continuous
100
AcDbVertex
100
AcDb2dVertex
 10
-38.475
 20
20.15
 30
0.0
 70
     8
  0
VERTEX
  5
444
330
425
100
AcDbEntity
  8
ガラス
  6
Continuous
100
AcDbVertex
100
AcDb2dVertex
 10
-38.425
 20
20.175
 30
0.0
 70
     8
  0
VERTEX
  5
445
330
425
100
AcDbEntity
  8
ガラス
  6
Continuous
100
AcDbVertex
100
AcDb2dVertex
 10
-38.375
 20
20.2
 30
0.0
 70
     8
  0
VERTEX
  5
446
330
425
100
AcDbEntity
  8
ガラス
  6
Continuous
100
AcDbVertex
100
AcDb2dVertex
 10
-38.325
 20
20.225
 30
0.0
 70
     8
  0
VERTEX
  5
447
330
425
100
AcDbEntity
  8
ガラス
  6
Continuous
100
AcDbVertex
100
AcDb2dVertex
 10
-38.25
 20
20.25
 30
0.0
 70
     8
  0
VERTEX
  5
448
330
425
100
AcDbEntity
  8
ガラス
  6
Continuous
100
AcDbVertex
100
AcDb2dVertex
 10
-38.2
 20
20.275
 30
0.0
 70
     8
  0
VERTEX
  5
449
330
425
100
AcDbEntity
  8
ガラス
  6
Continuous
100
AcDbVertex
100
AcDb2dVertex
 10
-38.15
 20
20.3
 30
0.0
 70
     8
  0
VERTEX
  5
44A
330
425
100
AcDbEntity
  8
ガラス
  6
Continuous
100
AcDbVertex
100
AcDb2dVertex
 10
-38.075
 20
20.325
 30
0.0
 70
     8
  0
VERTEX
  5
44B
330
425
100
AcDbEntity
  8
ガラス
  6
Continuous
100
AcDbVertex
100
AcDb2dVertex
 10
-38.025
 20
20.35
 30
0.0
 70
     8
  0
VERTEX
  5
44C
330
425
100
AcDbEntity
  8
ガラス
  6
Continuous
100
AcDbVertex
100
AcDb2dVertex
 10
-37.95
 20
20.35
 30
0.0
 70
     8
  0
VERTEX
  5
44D
330
425
100
AcDbEntity
  8
ガラス
  6
Continuous
100
AcDbVertex
100
AcDb2dVertex
 10
-37.9
 20
20.375
 30
0.0
 70
     8
  0
VERTEX
  5
44E
330
425
100
AcDbEntity
  8
ガラス
  6
Continuous
100
AcDbVertex
100
AcDb2dVertex
 10
-37.825
 20
20.4
 30
0.0
 70
     8
  0
SEQEND
  5
44F
330
425
100
AcDbEntity
  8
0
  0
POLYLINE
  5
450
330
424
100
AcDbEntity
  8
ガラス
  6
Continuous
100
AcDb2dPolyline
 66
     1
 10
0.0
 20
0.0
 30
0.0
 70
     4
  0
VERTEX
  5
451
330
450
100
AcDbEntity
  8
ガラス
  6
Continuous
100
AcDbVertex
100
AcDb2dVertex
 10
-37.825
 20
20.4
 30
0.0
 70
     8
  0
VERTEX
  5
452
330
450
100
AcDbEntity
  8
ガラス
  6
Continuous
100
AcDbVertex
100
AcDb2dVertex
 10
-37.85
 20
20.35
 30
0.0
 70
     8
  0
VERTEX
  5
453
330
450
100
AcDbEntity
  8
ガラス
  6
Continuous
100
AcDbVertex
100
AcDb2dVertex
 10
-37.85
 20
20.325
 30
0.0
 70
     8
  0
VERTEX
  5
454
330
450
100
AcDbEntity
  8
ガラス
  6
Continuous
100
AcDbVertex
100
AcDb2dVertex
 10
-37.875
 20
20.275
 30
0.0
 70
     8
  0
VERTEX
  5
455
330
450
100
AcDbEntity
  8
ガラス
  6
Continuous
100
AcDbVertex
100
AcDb2dVertex
 10
-37.875
 20
20.225
 30
0.0
 70
     8
  0
VERTEX
  5
456
330
450
100
AcDbEntity
  8
ガラス
  6
Continuous
100
AcDbVertex
100
AcDb2dVertex
 10
-37.9
 20
20.2
 30
0.0
 70
     8
  0
VERTEX
  5
457
330
450
100
AcDbEntity
  8
ガラス
  6
Continuous
100
AcDbVertex
100
AcDb2dVertex
 10
-37.9
 20
20.15
 30
0.0
 70
     8
  0
VERTEX
  5
458
330
450
100
AcDbEntity
  8
ガラス
  6
Continuous
100
AcDbVertex
100
AcDb2dVertex
 10
-37.925
 20
20.1
 30
0.0
 70
     8
  0
VERTEX
  5
459
330
450
100
AcDbEntity
  8
ガラス
  6
Continuous
100
AcDbVertex
100
AcDb2dVertex
 10
-37.925
 20
20.075
 30
0.0
 70
     8
  0
VERTEX
  5
45A
330
450
100
AcDbEntity
  8
ガラス
  6
Continuous
100
AcDbVertex
100
AcDb2dVertex
 10
-37.95
 20
20.025
 30
0.0
 70
     8
  0
VERTEX
  5
45B
330
450
100
AcDbEntity
  8
ガラス
  6
Continuous
100
AcDbVertex
100
AcDb2dVertex
 10
-37.95
 20
19.975
 30
0.0
 70
     8
  0
VERTEX
  5
45C
330
450
100
AcDbEntity
  8
ガラス
  6
Continuous
100
AcDbVertex
100
AcDb2dVertex
 10
-37.95
 20
19.95
 30
0.0
 70
     8
  0
VERTEX
  5
45D
330
450
100
AcDbEntity
  8
ガラス
  6
Continuous
100
AcDbVertex
100
AcDb2dVertex
 10
-37.975
 20
19.9
 30
0.0
 70
     8
  0
VERTEX
  5
45E
330
450
100
AcDbEntity
  8
ガラス
  6
Continuous
100
AcDbVertex
100
AcDb2dVertex
 10
-37.975
 20
19.85
 30
0.0
 70
     8
  0
VERTEX
  5
45F
330
450
100
AcDbEntity
  8
ガラス
  6
Continuous
100
AcDbVertex
100
AcDb2dVertex
 10
-38.0
 20
19.825
 30
0.0
 70
     8
  0
VERTEX
  5
460
330
450
100
AcDbEntity
  8
ガラス
  6
Continuous
100
AcDbVertex
100
AcDb2dVertex
 10
-38.0
 20
19.775
 30
0.0
 70
     8
  0
VERTEX
  5
461
330
450
100
AcDbEntity
  8
ガラス
  6
Continuous
100
AcDbVertex
100
AcDb2dVertex
 10
-38.0
 20
19.725
 30
0.0
 70
     8
  0
VERTEX
  5
462
330
450
100
AcDbEntity
  8
ガラス
  6
Continuous
100
AcDbVertex
100
AcDb2dVertex
 10
-38.025
 20
19.7
 30
0.0
 70
     8
  0
VERTEX
  5
463
330
450
100
AcDbEntity
  8
ガラス
  6
Continuous
100
AcDbVertex
100
AcDb2dVertex
 10
-38.025
 20
19.65
 30
0.0
 70
     8
  0
VERTEX
  5
464
330
450
100
AcDbEntity
  8
ガラス
  6
Continuous
100
AcDbVertex
100
AcDb2dVertex
 10
-38.025
 20
19.6
 30
0.0
 70
     8
  0
VERTEX
  5
465
330
450
100
AcDbEntity
  8
ガラス
  6
Continuous
100
AcDbVertex
100
AcDb2dVertex
 10
-38.025
 20
19.575
 30
0.0
 70
     8
  0
VERTEX
  5
466
330
450
100
AcDbEntity
  8
ガラス
  6
Continuous
100
AcDbVertex
100
AcDb2dVertex
 10
-38.05
 20
19.525
 30
0.0
 70
     8
  0
VERTEX
  5
467
330
450
100
AcDbEntity
  8
ガラス
  6
Continuous
100
AcDbVertex
100
AcDb2dVertex
 10
-38.05
 20
19.475
 30
0.0
 70
     8
  0
VERTEX
  5
468
330
450
100
AcDbEntity
  8
ガラス
  6
Continuous
100
AcDbVertex
100
AcDb2dVertex
 10
-38.05
 20
19.45
 30
0.0
 70
     8
  0
VERTEX
  5
469
330
450
100
AcDbEntity
  8
ガラス
  6
Continuous
100
AcDbVertex
100
AcDb2dVertex
 10
-38.05
 20
19.4
 30
0.0
 70
     8
  0
VERTEX
  5
46A
330
450
100
AcDbEntity
  8
ガラス
  6
Continuous
100
AcDbVertex
100
AcDb2dVertex
 10
-38.05
 20
19.35
 30
0.0
 70
     8
  0
VERTEX
  5
46B
330
450
100
AcDbEntity
  8
ガラス
  6
Continuous
100
AcDbVertex
100
AcDb2dVertex
 10
-38.05
 20
19.3
 30
0.0
 70
     8
  0
VERTEX
  5
46C
330
450
100
AcDbEntity
  8
ガラス
  6
Continuous
100
AcDbVertex
100
AcDb2dVertex
 10
-38.075
 20
19.275
 30
0.0
 70
     8
  0
VERTEX
  5
46D
330
450
100
AcDbEntity
  8
ガラス
  6
Continuous
100
AcDbVertex
100
AcDb2dVertex
 10
-38.075
 20
19.225
 30
0.0
 70
     8
  0
VERTEX
  5
46E
330
450
100
AcDbEntity
  8
ガラス
  6
Continuous
100
AcDbVertex
100
AcDb2dVertex
 10
-38.075
 20
19.175
 30
0.0
 70
     8
  0
VERTEX
  5
46F
330
450
100
AcDbEntity
  8
ガラス
  6
Continuous
100
AcDbVertex
100
AcDb2dVertex
 10
-38.075
 20
19.15
 30
0.0
 70
     8
  0
VERTEX
  5
470
330
450
100
AcDbEntity
  8
ガラス
  6
Continuous
100
AcDbVertex
100
AcDb2dVertex
 10
-38.075
 20
19.1
 30
0.0
 70
     8
  0
VERTEX
  5
471
330
450
100
AcDbEntity
  8
ガラス
  6
Continuous
100
AcDbVertex
100
AcDb2dVertex
 10
-38.075
 20
19.05
 30
0.0
 70
     8
  0
VERTEX
  5
472
330
450
100
AcDbEntity
  8
ガラス
  6
Continuous
100
AcDbVertex
100
AcDb2dVertex
 10
-38.075
 20
19.0
 30
0.0
 70
     8
  0
VERTEX
  5
473
330
450
100
AcDbEntity
  8
ガラス
  6
Continuous
100
AcDbVertex
100
AcDb2dVertex
 10
-38.075
 20
18.975
 30
0.0
 70
     8
  0
VERTEX
  5
474
330
450
100
AcDbEntity
  8
ガラス
  6
Continuous
100
AcDbVertex
100
AcDb2dVertex
 10
-38.075
 20
18.925
 30
0.0
 70
     8
  0
VERTEX
  5
475
330
450
100
AcDbEntity
  8
ガラス
  6
Continuous
100
AcDbVertex
100
AcDb2dVertex
 10
-38.075
 20
18.875
 30
0.0
 70
     8
  0
VERTEX
  5
476
330
450
100
AcDbEntity
  8
ガラス
  6
Continuous
100
AcDbVertex
100
AcDb2dVertex
 10
-38.075
 20
18.85
 30
0.0
 70
     8
  0
VERTEX
  5
477
330
450
100
AcDbEntity
  8
ガラス
  6
Continuous
100
AcDbVertex
100
AcDb2dVertex
 10
-38.075
 20
18.8
 30
0.0
 70
     8
  0
VERTEX
  5
478
330
450
100
AcDbEntity
  8
ガラス
  6
Continuous
100
AcDbVertex
100
AcDb2dVertex
 10
-38.075
 20
18.75
 30
0.0
 70
     8
  0
VERTEX
  5
479
330
450
100
AcDbEntity
  8
ガラス
  6
Continuous
100
AcDbVertex
100
AcDb2dVertex
 10
-38.075
 20
18.7
 30
0.0
 70
     8
  0
SEQEND
  5
47A
330
450
100
AcDbEntity
  8
0
  0
ARC
  5
47B
330
424
100
AcDbEntity
  8
ガラス
  6
Continuous
100
AcDbCircle
 10
-38.729338
 20
18.723173
 30
0.0
 40
0.668594
100
AcDbArc
 50
180.0
 51
0.0
  0
ENDBLK
  5
47C
330
424
100
AcDbEntity
  8
0
100
AcDbBlockEnd
  0
BLOCK
  5
47D
330
47E
100
AcDbEntity
  8
0
100
AcDbBlockBegin
  2
*U16
 70
     1
 71
     0
 10
0.0
 20
0.0
 30
0.0
  3
*U16
  1

  0
POLYLINE
  5
47F
330
47E
100
AcDbEntity
  8
ガラス
  6
Continuous
100
AcDb2dPolyline
 66
     1
 10
0.0
 20
0.0
 30
0.0
 70
     4
  0
VERTEX
  5
480
330
47F
100
AcDbEntity
  8
ガラス
  6
Continuous
100
AcDbVertex
100
AcDb2dVertex
 10
-39.4
 20
-0.1
 30
0.0
 70
     8
  0
VERTEX
  5
481
330
47F
100
AcDbEntity
  8
ガラス
  6
Continuous
100
AcDbVertex
100
AcDb2dVertex
 10
-39.4
 20
-0.025
 30
0.0
 70
     8
  0
VERTEX
  5
482
330
47F
100
AcDbEntity
  8
ガラス
  6
Continuous
100
AcDbVertex
100
AcDb2dVertex
 10
-39.375
 20
0.025
 30
0.0
 70
     8
  0
VERTEX
  5
483
330
47F
100
AcDbEntity
  8
ガラス
  6
Continuous
100
AcDbVertex
100
AcDb2dVertex
 10
-39.35
 20
0.1
 30
0.0
 70
     8
  0
VERTEX
  5
484
330
47F
100
AcDbEntity
  8
ガラス
  6
Continuous
100
AcDbVertex
100
AcDb2dVertex
 10
-39.35
 20
0.15
 30
0.0
 70
     8
  0
VERTEX
  5
485
330
47F
100
AcDbEntity
  8
ガラス
  6
Continuous
100
AcDbVertex
100
AcDb2dVertex
 10
-39.325
 20
0.225
 30
0.0
 70
     8
  0
VERTEX
  5
486
330
47F
100
AcDbEntity
  8
ガラス
  6
Continuous
100
AcDbVertex
100
AcDb2dVertex
 10
-39.3
 20
0.275
 30
0.0
 70
     8
  0
VERTEX
  5
487
330
47F
100
AcDbEntity
  8
ガラス
  6
Continuous
100
AcDbVertex
100
AcDb2dVertex
 10
-39.275
 20
0.35
 30
0.0
 70
     8
  0
VERTEX
  5
488
330
47F
100
AcDbEntity
  8
ガラス
  6
Continuous
100
AcDbVertex
100
AcDb2dVertex
 10
-39.25
 20
0.4
 30
0.0
 70
     8
  0
VERTEX
  5
489
330
47F
100
AcDbEntity
  8
ガラス
  6
Continuous
100
AcDbVertex
100
AcDb2dVertex
 10
-39.25
 20
0.45
 30
0.0
 70
     8
  0
VERTEX
  5
48A
330
47F
100
AcDbEntity
  8
ガラス
  6
Continuous
100
AcDbVertex
100
AcDb2dVertex
 10
-39.225
 20
0.525
 30
0.0
 70
     8
  0
VERTEX
  5
48B
330
47F
100
AcDbEntity
  8
ガラス
  6
Continuous
100
AcDbVertex
100
AcDb2dVertex
 10
-39.2
 20
0.575
 30
0.0
 70
     8
  0
VERTEX
  5
48C
330
47F
100
AcDbEntity
  8
ガラス
  6
Continuous
100
AcDbVertex
100
AcDb2dVertex
 10
-39.175
 20
0.625
 30
0.0
 70
     8
  0
VERTEX
  5
48D
330
47F
100
AcDbEntity
  8
ガラス
  6
Continuous
100
AcDbVertex
100
AcDb2dVertex
 10
-39.15
 20
0.7
 30
0.0
 70
     8
  0
VERTEX
  5
48E
330
47F
100
AcDbEntity
  8
ガラス
  6
Continuous
100
AcDbVertex
100
AcDb2dVertex
 10
-39.125
 20
0.75
 30
0.0
 70
     8
  0
VERTEX
  5
48F
330
47F
100
AcDbEntity
  8
ガラス
  6
Continuous
100
AcDbVertex
100
AcDb2dVertex
 10
-39.075
 20
0.8
 30
0.0
 70
     8
  0
VERTEX
  5
490
330
47F
100
AcDbEntity
  8
ガラス
  6
Continuous
100
AcDbVertex
100
AcDb2dVertex
 10
-39.05
 20
0.85
 30
0.0
 70
     8
  0
VERTEX
  5
491
330
47F
100
AcDbEntity
  8
ガラス
  6
Continuous
100
AcDbVertex
100
AcDb2dVertex
 10
-39.025
 20
0.9
 30
0.0
 70
     8
  0
VERTEX
  5
492
330
47F
100
AcDbEntity
  8
ガラス
  6
Continuous
100
AcDbVertex
100
AcDb2dVertex
 10
-39.0
 20
0.95
 30
0.0
 70
     8
  0
VERTEX
  5
493
330
47F
100
AcDbEntity
  8
ガラス
  6
Continuous
100
AcDbVertex
100
AcDb2dVertex
 10
-38.95
 20
1.0
 30
0.0
 70
     8
  0
VERTEX
  5
494
330
47F
100
AcDbEntity
  8
ガラス
  6
Continuous
100
AcDbVertex
100
AcDb2dVertex
 10
-38.925
 20
1.025
 30
0.0
 70
     8
  0
VERTEX
  5
495
330
47F
100
AcDbEntity
  8
ガラス
  6
Continuous
100
AcDbVertex
100
AcDb2dVertex
 10
-38.875
 20
1.075
 30
0.0
 70
     8
  0
VERTEX
  5
496
330
47F
100
AcDbEntity
  8
ガラス
  6
Continuous
100
AcDbVertex
100
AcDb2dVertex
 10
-38.825
 20
1.125
 30
0.0
 70
     8
  0
VERTEX
  5
497
330
47F
100
AcDbEntity
  8
ガラス
  6
Continuous
100
AcDbVertex
100
AcDb2dVertex
 10
-38.8
 20
1.15
 30
0.0
 70
     8
  0
VERTEX
  5
498
330
47F
100
AcDbEntity
  8
ガラス
  6
Continuous
100
AcDbVertex
100
AcDb2dVertex
 10
-38.75
 20
1.175
 30
0.0
 70
     8
  0
VERTEX
  5
499
330
47F
100
AcDbEntity
  8
ガラス
  6
Continuous
100
AcDbVertex
100
AcDb2dVertex
 10
-38.7
 20
1.225
 30
0.0
 70
     8
  0
VERTEX
  5
49A
330
47F
100
AcDbEntity
  8
ガラス
  6
Continuous
100
AcDbVertex
100
AcDb2dVertex
 10
-38.65
 20
1.25
 30
0.0
 70
     8
  0
VERTEX
  5
49B
330
47F
100
AcDbEntity
  8
ガラス
  6
Continuous
100
AcDbVertex
100
AcDb2dVertex
 10
-38.6
 20
1.275
 30
0.0
 70
     8
  0
VERTEX
  5
49C
330
47F
100
AcDbEntity
  8
ガラス
  6
Continuous
100
AcDbVertex
100
AcDb2dVertex
 10
-38.55
 20
1.325
 30
0.0
 70
     8
  0
VERTEX
  5
49D
330
47F
100
AcDbEntity
  8
ガラス
  6
Continuous
100
AcDbVertex
100
AcDb2dVertex
 10
-38.475
 20
1.35
 30
0.0
 70
     8
  0
VERTEX
  5
49E
330
47F
100
AcDbEntity
  8
ガラス
  6
Continuous
100
AcDbVertex
100
AcDb2dVertex
 10
-38.425
 20
1.375
 30
0.0
 70
     8
  0
VERTEX
  5
49F
330
47F
100
AcDbEntity
  8
ガラス
  6
Continuous
100
AcDbVertex
100
AcDb2dVertex
 10
-38.375
 20
1.4
 30
0.0
 70
     8
  0
VERTEX
  5
4A0
330
47F
100
AcDbEntity
  8
ガラス
  6
Continuous
100
AcDbVertex
100
AcDb2dVertex
 10
-38.325
 20
1.425
 30
0.0
 70
     8
  0
VERTEX
  5
4A1
330
47F
100
AcDbEntity
  8
ガラス
  6
Continuous
100
AcDbVertex
100
AcDb2dVertex
 10
-38.25
 20
1.45
 30
0.0
 70
     8
  0
VERTEX
  5
4A2
330
47F
100
AcDbEntity
  8
ガラス
  6
Continuous
100
AcDbVertex
100
AcDb2dVertex
 10
-38.2
 20
1.475
 30
0.0
 70
     8
  0
VERTEX
  5
4A3
330
47F
100
AcDbEntity
  8
ガラス
  6
Continuous
100
AcDbVertex
100
AcDb2dVertex
 10
-38.15
 20
1.5
 30
0.0
 70
     8
  0
VERTEX
  5
4A4
330
47F
100
AcDbEntity
  8
ガラス
  6
Continuous
100
AcDbVertex
100
AcDb2dVertex
 10
-38.075
 20
1.5
 30
0.0
 70
     8
  0
VERTEX
  5
4A5
330
47F
100
AcDbEntity
  8
ガラス
  6
Continuous
100
AcDbVertex
100
AcDb2dVertex
 10
-38.025
 20
1.525
 30
0.0
 70
     8
  0
VERTEX
  5
4A6
330
47F
100
AcDbEntity
  8
ガラス
  6
Continuous
100
AcDbVertex
100
AcDb2dVertex
 10
-37.95
 20
1.55
 30
0.0
 70
     8
  0
VERTEX
  5
4A7
330
47F
100
AcDbEntity
  8
ガラス
  6
Continuous
100
AcDbVertex
100
AcDb2dVertex
 10
-37.9
 20
1.575
 30
0.0
 70
     8
  0
VERTEX
  5
4A8
330
47F
100
AcDbEntity
  8
ガラス
  6
Continuous
100
AcDbVertex
100
AcDb2dVertex
 10
-37.825
 20
1.6
 30
0.0
 70
     8
  0
SEQEND
  5
4A9
330
47F
100
AcDbEntity
  8
0
  0
POLYLINE
  5
4AA
330
47E
100
AcDbEntity
  8
ガラス
  6
Continuous
100
AcDb2dPolyline
 66
     1
 10
0.0
 20
0.0
 30
0.0
 70
     4
  0
VERTEX
  5
4AB
330
4AA
100
AcDbEntity
  8
ガラス
  6
Continuous
100
AcDbVertex
100
AcDb2dVertex
 10
-37.825
 20
1.6
 30
0.0
 70
     8
  0
VERTEX
  5
4AC
330
4AA
100
AcDbEntity
  8
ガラス
  6
Continuous
100
AcDbVertex
100
AcDb2dVertex
 10
-37.85
 20
1.55
 30
0.0
 70
     8
  0
VERTEX
  5
4AD
330
4AA
100
AcDbEntity
  8
ガラス
  6
Continuous
100
AcDbVertex
100
AcDb2dVertex
 10
-37.85
 20
1.525
 30
0.0
 70
     8
  0
VERTEX
  5
4AE
330
4AA
100
AcDbEntity
  8
ガラス
  6
Continuous
100
AcDbVertex
100
AcDb2dVertex
 10
-37.875
 20
1.475
 30
0.0
 70
     8
  0
VERTEX
  5
4AF
330
4AA
100
AcDbEntity
  8
ガラス
  6
Continuous
100
AcDbVertex
100
AcDb2dVertex
 10
-37.875
 20
1.425
 30
0.0
 70
     8
  0
VERTEX
  5
4B0
330
4AA
100
AcDbEntity
  8
ガラス
  6
Continuous
100
AcDbVertex
100
AcDb2dVertex
 10
-37.9
 20
1.4
 30
0.0
 70
     8
  0
VERTEX
  5
4B1
330
4AA
100
AcDbEntity
  8
ガラス
  6
Continuous
100
AcDbVertex
100
AcDb2dVertex
 10
-37.9
 20
1.35
 30
0.0
 70
     8
  0
VERTEX
  5
4B2
330
4AA
100
AcDbEntity
  8
ガラス
  6
Continuous
100
AcDbVertex
100
AcDb2dVertex
 10
-37.925
 20
1.3
 30
0.0
 70
     8
  0
VERTEX
  5
4B3
330
4AA
100
AcDbEntity
  8
ガラス
  6
Continuous
100
AcDbVertex
100
AcDb2dVertex
 10
-37.925
 20
1.275
 30
0.0
 70
     8
  0
VERTEX
  5
4B4
330
4AA
100
AcDbEntity
  8
ガラス
  6
Continuous
100
AcDbVertex
100
AcDb2dVertex
 10
-37.95
 20
1.225
 30
0.0
 70
     8
  0
VERTEX
  5
4B5
330
4AA
100
AcDbEntity
  8
ガラス
  6
Continuous
100
AcDbVertex
100
AcDb2dVertex
 10
-37.95
 20
1.175
 30
0.0
 70
     8
  0
VERTEX
  5
4B6
330
4AA
100
AcDbEntity
  8
ガラス
  6
Continuous
100
AcDbVertex
100
AcDb2dVertex
 10
-37.95
 20
1.15
 30
0.0
 70
     8
  0
VERTEX
  5
4B7
330
4AA
100
AcDbEntity
  8
ガラス
  6
Continuous
100
AcDbVertex
100
AcDb2dVertex
 10
-37.975
 20
1.1
 30
0.0
 70
     8
  0
VERTEX
  5
4B8
330
4AA
100
AcDbEntity
  8
ガラス
  6
Continuous
100
AcDbVertex
100
AcDb2dVertex
 10
-37.975
 20
1.05
 30
0.0
 70
     8
  0
VERTEX
  5
4B9
330
4AA
100
AcDbEntity
  8
ガラス
  6
Continuous
100
AcDbVertex
100
AcDb2dVertex
 10
-38.0
 20
1.025
 30
0.0
 70
     8
  0
VERTEX
  5
4BA
330
4AA
100
AcDbEntity
  8
ガラス
  6
Continuous
100
AcDbVertex
100
AcDb2dVertex
 10
-38.0
 20
0.975
 30
0.0
 70
     8
  0
VERTEX
  5
4BB
330
4AA
100
AcDbEntity
  8
ガラス
  6
Continuous
100
AcDbVertex
100
AcDb2dVertex
 10
-38.0
 20
0.925
 30
0.0
 70
     8
  0
VERTEX
  5
4BC
330
4AA
100
AcDbEntity
  8
ガラス
  6
Continuous
100
AcDbVertex
100
AcDb2dVertex
 10
-38.025
 20
0.9
 30
0.0
 70
     8
  0
VERTEX
  5
4BD
330
4AA
100
AcDbEntity
  8
ガラス
  6
Continuous
100
AcDbVertex
100
AcDb2dVertex
 10
-38.025
 20
0.85
 30
0.0
 70
     8
  0
VERTEX
  5
4BE
330
4AA
100
AcDbEntity
  8
ガラス
  6
Continuous
100
AcDbVertex
100
AcDb2dVertex
 10
-38.025
 20
0.8
 30
0.0
 70
     8
  0
VERTEX
  5
4BF
330
4AA
100
AcDbEntity
  8
ガラス
  6
Continuous
100
AcDbVertex
100
AcDb2dVertex
 10
-38.025
 20
0.75
 30
0.0
 70
     8
  0
VERTEX
  5
4C0
330
4AA
100
AcDbEntity
  8
ガラス
  6
Continuous
100
AcDbVertex
100
AcDb2dVertex
 10
-38.05
 20
0.725
 30
0.0
 70
     8
  0
VERTEX
  5
4C1
330
4AA
100
AcDbEntity
  8
ガラス
  6
Continuous
100
AcDbVertex
100
AcDb2dVertex
 10
-38.05
 20
0.675
 30
0.0
 70
     8
  0
VERTEX
  5
4C2
330
4AA
100
AcDbEntity
  8
ガラス
  6
Continuous
100
AcDbVertex
100
AcDb2dVertex
 10
-38.05
 20
0.625
 30
0.0
 70
     8
  0
VERTEX
  5
4C3
330
4AA
100
AcDbEntity
  8
ガラス
  6
Continuous
100
AcDbVertex
100
AcDb2dVertex
 10
-38.05
 20
0.6
 30
0.0
 70
     8
  0
VERTEX
  5
4C4
330
4AA
100
AcDbEntity
  8
ガラス
  6
Continuous
100
AcDbVertex
100
AcDb2dVertex
 10
-38.05
 20
0.55
 30
0.0
 70
     8
  0
VERTEX
  5
4C5
330
4AA
100
AcDbEntity
  8
ガラス
  6
Continuous
100
AcDbVertex
100
AcDb2dVertex
 10
-38.05
 20
0.5
 30
0.0
 70
     8
  0
VERTEX
  5
4C6
330
4AA
100
AcDbEntity
  8
ガラス
  6
Continuous
100
AcDbVertex
100
AcDb2dVertex
 10
-38.075
 20
0.475
 30
0.0
 70
     8
  0
VERTEX
  5
4C7
330
4AA
100
AcDbEntity
  8
ガラス
  6
Continuous
100
AcDbVertex
100
AcDb2dVertex
 10
-38.075
 20
0.425
 30
0.0
 70
     8
  0
VERTEX
  5
4C8
330
4AA
100
AcDbEntity
  8
ガラス
  6
Continuous
100
AcDbVertex
100
AcDb2dVertex
 10
-38.075
 20
0.375
 30
0.0
 70
     8
  0
VERTEX
  5
4C9
330
4AA
100
AcDbEntity
  8
ガラス
  6
Continuous
100
AcDbVertex
100
AcDb2dVertex
 10
-38.075
 20
0.325
 30
0.0
 70
     8
  0
VERTEX
  5
4CA
330
4AA
100
AcDbEntity
  8
ガラス
  6
Continuous
100
AcDbVertex
100
AcDb2dVertex
 10
-38.075
 20
0.3
 30
0.0
 70
     8
  0
VERTEX
  5
4CB
330
4AA
100
AcDbEntity
  8
ガラス
  6
Continuous
100
AcDbVertex
100
AcDb2dVertex
 10
-38.075
 20
0.25
 30
0.0
 70
     8
  0
VERTEX
  5
4CC
330
4AA
100
AcDbEntity
  8
ガラス
  6
Continuous
100
AcDbVertex
100
AcDb2dVertex
 10
-38.075
 20
0.2
 30
0.0
 70
     8
  0
VERTEX
  5
4CD
330
4AA
100
AcDbEntity
  8
ガラス
  6
Continuous
100
AcDbVertex
100
AcDb2dVertex
 10
-38.075
 20
0.175
 30
0.0
 70
     8
  0
VERTEX
  5
4CE
330
4AA
100
AcDbEntity
  8
ガラス
  6
Continuous
100
AcDbVertex
100
AcDb2dVertex
 10
-38.075
 20
0.125
 30
0.0
 70
     8
  0
VERTEX
  5
4CF
330
4AA
100
AcDbEntity
  8
ガラス
  6
Continuous
100
AcDbVertex
100
AcDb2dVertex
 10
-38.075
 20
0.075
 30
0.0
 70
     8
  0
VERTEX
  5
4D0
330
4AA
100
AcDbEntity
  8
ガラス
  6
Continuous
100
AcDbVertex
100
AcDb2dVertex
 10
-38.075
 20
0.025
 30
0.0
 70
     8
  0
VERTEX
  5
4D1
330
4AA
100
AcDbEntity
  8
ガラス
  6
Continuous
100
AcDbVertex
100
AcDb2dVertex
 10
-38.075
 20
0.0
 30
0.0
 70
     8
  0
VERTEX
  5
4D2
330
4AA
100
AcDbEntity
  8
ガラス
  6
Continuous
100
AcDbVertex
100
AcDb2dVertex
 10
-38.075
 20
-0.05
 30
0.0
 70
     8
  0
VERTEX
  5
4D3
330
4AA
100
AcDbEntity
  8
ガラス
  6
Continuous
100
AcDbVertex
100
AcDb2dVertex
 10
-38.075
 20
-0.1
 30
0.0
 70
     8
  0
SEQEND
  5
4D4
330
4AA
100
AcDbEntity
  8
0
  0
ARC
  5
4D5
330
47E
100
AcDbEntity
  8
ガラス
  6
Continuous
100
AcDbCircle
 10
-38.729338
 20
-0.081973
 30
0.0
 40
0.668594
100
AcDbArc
 50
180.0
 51
0.0
  0
ENDBLK
  5
4D6
330
47E
100
AcDbEntity
  8
0
100
AcDbBlockEnd
  0
BLOCK
  5
4D7
330
4D8
100
AcDbEntity
  8
0
100
AcDbBlockBegin
  2
*U17
 70
     1
 71
     0
 10
0.0
 20
0.0
 30
0.0
  3
*U17
  1

  0
POLYLINE
  5
4D9
330
4D8
100
AcDbEntity
  8
ガラス
  6
Continuous
100
AcDb2dPolyline
 66
     1
 10
0.0
 20
0.0
 30
0.0
 70
     4
  0
VERTEX
  5
4DA
330
4D9
100
AcDbEntity
  8
ガラス
  6
Continuous
100
AcDbVertex
100
AcDb2dVertex
 10
-39.4
 20
-17.475
 30
0.0
 70
     8
  0
VERTEX
  5
4DB
330
4D9
100
AcDbEntity
  8
ガラス
  6
Continuous
100
AcDbVertex
100
AcDb2dVertex
 10
-39.4
 20
-17.425
 30
0.0
 70
     8
  0
VERTEX
  5
4DC
330
4D9
100
AcDbEntity
  8
ガラス
  6
Continuous
100
AcDbVertex
100
AcDb2dVertex
 10
-39.375
 20
-17.35
 30
0.0
 70
     8
  0
VERTEX
  5
4DD
330
4D9
100
AcDbEntity
  8
ガラス
  6
Continuous
100
AcDbVertex
100
AcDb2dVertex
 10
-39.35
 20
-17.3
 30
0.0
 70
     8
  0
VERTEX
  5
4DE
330
4D9
100
AcDbEntity
  8
ガラス
  6
Continuous
100
AcDbVertex
100
AcDb2dVertex
 10
-39.35
 20
-17.225
 30
0.0
 70
     8
  0
VERTEX
  5
4DF
330
4D9
100
AcDbEntity
  8
ガラス
  6
Continuous
100
AcDbVertex
100
AcDb2dVertex
 10
-39.325
 20
-17.175
 30
0.0
 70
     8
  0
VERTEX
  5
4E0
330
4D9
100
AcDbEntity
  8
ガラス
  6
Continuous
100
AcDbVertex
100
AcDb2dVertex
 10
-39.3
 20
-17.1
 30
0.0
 70
     8
  0
VERTEX
  5
4E1
330
4D9
100
AcDbEntity
  8
ガラス
  6
Continuous
100
AcDbVertex
100
AcDb2dVertex
 10
-39.275
 20
-17.05
 30
0.0
 70
     8
  0
VERTEX
  5
4E2
330
4D9
100
AcDbEntity
  8
ガラス
  6
Continuous
100
AcDbVertex
100
AcDb2dVertex
 10
-39.25
 20
-16.975
 30
0.0
 70
     8
  0
VERTEX
  5
4E3
330
4D9
100
AcDbEntity
  8
ガラス
  6
Continuous
100
AcDbVertex
100
AcDb2dVertex
 10
-39.25
 20
-16.925
 30
0.0
 70
     8
  0
VERTEX
  5
4E4
330
4D9
100
AcDbEntity
  8
ガラス
  6
Continuous
100
AcDbVertex
100
AcDb2dVertex
 10
-39.225
 20
-16.875
 30
0.0
 70
     8
  0
VERTEX
  5
4E5
330
4D9
100
AcDbEntity
  8
ガラス
  6
Continuous
100
AcDbVertex
100
AcDb2dVertex
 10
-39.2
 20
-16.8
 30
0.0
 70
     8
  0
VERTEX
  5
4E6
330
4D9
100
AcDbEntity
  8
ガラス
  6
Continuous
100
AcDbVertex
100
AcDb2dVertex
 10
-39.175
 20
-16.75
 30
0.0
 70
     8
  0
VERTEX
  5
4E7
330
4D9
100
AcDbEntity
  8
ガラス
  6
Continuous
100
AcDbVertex
100
AcDb2dVertex
 10
-39.15
 20
-16.7
 30
0.0
 70
     8
  0
VERTEX
  5
4E8
330
4D9
100
AcDbEntity
  8
ガラス
  6
Continuous
100
AcDbVertex
100
AcDb2dVertex
 10
-39.125
 20
-16.65
 30
0.0
 70
     8
  0
VERTEX
  5
4E9
330
4D9
100
AcDbEntity
  8
ガラス
  6
Continuous
100
AcDbVertex
100
AcDb2dVertex
 10
-39.075
 20
-16.6
 30
0.0
 70
     8
  0
VERTEX
  5
4EA
330
4D9
100
AcDbEntity
  8
ガラス
  6
Continuous
100
AcDbVertex
100
AcDb2dVertex
 10
-39.05
 20
-16.55
 30
0.0
 70
     8
  0
VERTEX
  5
4EB
330
4D9
100
AcDbEntity
  8
ガラス
  6
Continuous
100
AcDbVertex
100
AcDb2dVertex
 10
-39.025
 20
-16.5
 30
0.0
 70
     8
  0
VERTEX
  5
4EC
330
4D9
100
AcDbEntity
  8
ガラス
  6
Continuous
100
AcDbVertex
100
AcDb2dVertex
 10
-39.0
 20
-16.45
 30
0.0
 70
     8
  0
VERTEX
  5
4ED
330
4D9
100
AcDbEntity
  8
ガラス
  6
Continuous
100
AcDbVertex
100
AcDb2dVertex
 10
-38.95
 20
-16.4
 30
0.0
 70
     8
  0
VERTEX
  5
4EE
330
4D9
100
AcDbEntity
  8
ガラス
  6
Continuous
100
AcDbVertex
100
AcDb2dVertex
 10
-38.925
 20
-16.35
 30
0.0
 70
     8
  0
VERTEX
  5
4EF
330
4D9
100
AcDbEntity
  8
ガラス
  6
Continuous
100
AcDbVertex
100
AcDb2dVertex
 10
-38.875
 20
-16.3
 30
0.0
 70
     8
  0
VERTEX
  5
4F0
330
4D9
100
AcDbEntity
  8
ガラス
  6
Continuous
100
AcDbVertex
100
AcDb2dVertex
 10
-38.825
 20
-16.275
 30
0.0
 70
     8
  0
VERTEX
  5
4F1
330
4D9
100
AcDbEntity
  8
ガラス
  6
Continuous
100
AcDbVertex
100
AcDb2dVertex
 10
-38.8
 20
-16.225
 30
0.0
 70
     8
  0
VERTEX
  5
4F2
330
4D9
100
AcDbEntity
  8
ガラス
  6
Continuous
100
AcDbVertex
100
AcDb2dVertex
 10
-38.75
 20
-16.2
 30
0.0
 70
     8
  0
VERTEX
  5
4F3
330
4D9
100
AcDbEntity
  8
ガラス
  6
Continuous
100
AcDbVertex
100
AcDb2dVertex
 10
-38.7
 20
-16.175
 30
0.0
 70
     8
  0
VERTEX
  5
4F4
330
4D9
100
AcDbEntity
  8
ガラス
  6
Continuous
100
AcDbVertex
100
AcDb2dVertex
 10
-38.65
 20
-16.125
 30
0.0
 70
     8
  0
VERTEX
  5
4F5
330
4D9
100
AcDbEntity
  8
ガラス
  6
Continuous
100
AcDbVertex
100
AcDb2dVertex
 10
-38.6
 20
-16.1
 30
0.0
 70
     8
  0
VERTEX
  5
4F6
330
4D9
100
AcDbEntity
  8
ガラス
  6
Continuous
100
AcDbVertex
100
AcDb2dVertex
 10
-38.55
 20
-16.075
 30
0.0
 70
     8
  0
VERTEX
  5
4F7
330
4D9
100
AcDbEntity
  8
ガラス
  6
Continuous
100
AcDbVertex
100
AcDb2dVertex
 10
-38.475
 20
-16.05
 30
0.0
 70
     8
  0
VERTEX
  5
4F8
330
4D9
100
AcDbEntity
  8
ガラス
  6
Continuous
100
AcDbVertex
100
AcDb2dVertex
 10
-38.425
 20
-16.025
 30
0.0
 70
     8
  0
VERTEX
  5
4F9
330
4D9
100
AcDbEntity
  8
ガラス
  6
Continuous
100
AcDbVertex
100
AcDb2dVertex
 10
-38.375
 20
-16.0
 30
0.0
 70
     8
  0
VERTEX
  5
4FA
330
4D9
100
AcDbEntity
  8
ガラス
  6
Continuous
100
AcDbVertex
100
AcDb2dVertex
 10
-38.325
 20
-15.975
 30
0.0
 70
     8
  0
VERTEX
  5
4FB
330
4D9
100
AcDbEntity
  8
ガラス
  6
Continuous
100
AcDbVertex
100
AcDb2dVertex
 10
-38.25
 20
-15.95
 30
0.0
 70
     8
  0
VERTEX
  5
4FC
330
4D9
100
AcDbEntity
  8
ガラス
  6
Continuous
100
AcDbVertex
100
AcDb2dVertex
 10
-38.2
 20
-15.925
 30
0.0
 70
     8
  0
VERTEX
  5
4FD
330
4D9
100
AcDbEntity
  8
ガラス
  6
Continuous
100
AcDbVertex
100
AcDb2dVertex
 10
-38.15
 20
-15.9
 30
0.0
 70
     8
  0
VERTEX
  5
4FE
330
4D9
100
AcDbEntity
  8
ガラス
  6
Continuous
100
AcDbVertex
100
AcDb2dVertex
 10
-38.075
 20
-15.875
 30
0.0
 70
     8
  0
VERTEX
  5
4FF
330
4D9
100
AcDbEntity
  8
ガラス
  6
Continuous
100
AcDbVertex
100
AcDb2dVertex
 10
-38.025
 20
-15.85
 30
0.0
 70
     8
  0
VERTEX
  5
500
330
4D9
100
AcDbEntity
  8
ガラス
  6
Continuous
100
AcDbVertex
100
AcDb2dVertex
 10
-37.95
 20
-15.825
 30
0.0
 70
     8
  0
VERTEX
  5
501
330
4D9
100
AcDbEntity
  8
ガラス
  6
Continuous
100
AcDbVertex
100
AcDb2dVertex
 10
-37.9
 20
-15.8
 30
0.0
 70
     8
  0
VERTEX
  5
502
330
4D9
100
AcDbEntity
  8
ガラス
  6
Continuous
100
AcDbVertex
100
AcDb2dVertex
 10
-37.825
 20
-15.775
 30
0.0
 70
     8
  0
SEQEND
  5
503
330
4D9
100
AcDbEntity
  8
0
  0
POLYLINE
  5
504
330
4D8
100
AcDbEntity
  8
ガラス
  6
Continuous
100
AcDb2dPolyline
 66
     1
 10
0.0
 20
0.0
 30
0.0
 70
     4
  0
VERTEX
  5
505
330
504
100
AcDbEntity
  8
ガラス
  6
Continuous
100
AcDbVertex
100
AcDb2dVertex
 10
-37.825
 20
-15.775
 30
0.0
 70
     8
  0
VERTEX
  5
506
330
504
100
AcDbEntity
  8
ガラス
  6
Continuous
100
AcDbVertex
100
AcDb2dVertex
 10
-37.85
 20
-15.825
 30
0.0
 70
     8
  0
VERTEX
  5
507
330
504
100
AcDbEntity
  8
ガラス
  6
Continuous
100
AcDbVertex
100
AcDb2dVertex
 10
-37.85
 20
-15.875
 30
0.0
 70
     8
  0
VERTEX
  5
508
330
504
100
AcDbEntity
  8
ガラス
  6
Continuous
100
AcDbVertex
100
AcDb2dVertex
 10
-37.875
 20
-15.9
 30
0.0
 70
     8
  0
VERTEX
  5
509
330
504
100
AcDbEntity
  8
ガラス
  6
Continuous
100
AcDbVertex
100
AcDb2dVertex
 10
-37.875
 20
-15.95
 30
0.0
 70
     8
  0
VERTEX
  5
50A
330
504
100
AcDbEntity
  8
ガラス
  6
Continuous
100
AcDbVertex
100
AcDb2dVertex
 10
-37.9
 20
-16.0
 30
0.0
 70
     8
  0
VERTEX
  5
50B
330
504
100
AcDbEntity
  8
ガラス
  6
Continuous
100
AcDbVertex
100
AcDb2dVertex
 10
-37.9
 20
-16.025
 30
0.0
 70
     8
  0
VERTEX
  5
50C
330
504
100
AcDbEntity
  8
ガラス
  6
Continuous
100
AcDbVertex
100
AcDb2dVertex
 10
-37.925
 20
-16.075
 30
0.0
 70
     8
  0
VERTEX
  5
50D
330
504
100
AcDbEntity
  8
ガラス
  6
Continuous
100
AcDbVertex
100
AcDb2dVertex
 10
-37.925
 20
-16.125
 30
0.0
 70
     8
  0
VERTEX
  5
50E
330
504
100
AcDbEntity
  8
ガラス
  6
Continuous
100
AcDbVertex
100
AcDb2dVertex
 10
-37.95
 20
-16.15
 30
0.0
 70
     8
  0
VERTEX
  5
50F
330
504
100
AcDbEntity
  8
ガラス
  6
Continuous
100
AcDbVertex
100
AcDb2dVertex
 10
-37.95
 20
-16.2
 30
0.0
 70
     8
  0
VERTEX
  5
510
330
504
100
AcDbEntity
  8
ガラス
  6
Continuous
100
AcDbVertex
100
AcDb2dVertex
 10
-37.95
 20
-16.25
 30
0.0
 70
     8
  0
VERTEX
  5
511
330
504
100
AcDbEntity
  8
ガラス
  6
Continuous
100
AcDbVertex
100
AcDb2dVertex
 10
-37.975
 20
-16.275
 30
0.0
 70
     8
  0
VERTEX
  5
512
330
504
100
AcDbEntity
  8
ガラス
  6
Continuous
100
AcDbVertex
100
AcDb2dVertex
 10
-37.975
 20
-16.325
 30
0.0
 70
     8
  0
VERTEX
  5
513
330
504
100
AcDbEntity
  8
ガラス
  6
Continuous
100
AcDbVertex
100
AcDb2dVertex
 10
-38.0
 20
-16.375
 30
0.0
 70
     8
  0
VERTEX
  5
514
330
504
100
AcDbEntity
  8
ガラス
  6
Continuous
100
AcDbVertex
100
AcDb2dVertex
 10
-38.0
 20
-16.4
 30
0.0
 70
     8
  0
VERTEX
  5
515
330
504
100
AcDbEntity
  8
ガラス
  6
Continuous
100
AcDbVertex
100
AcDb2dVertex
 10
-38.0
 20
-16.45
 30
0.0
 70
     8
  0
VERTEX
  5
516
330
504
100
AcDbEntity
  8
ガラス
  6
Continuous
100
AcDbVertex
100
AcDb2dVertex
 10
-38.025
 20
-16.5
 30
0.0
 70
     8
  0
VERTEX
  5
517
330
504
100
AcDbEntity
  8
ガラス
  6
Continuous
100
AcDbVertex
100
AcDb2dVertex
 10
-38.025
 20
-16.525
 30
0.0
 70
     8
  0
VERTEX
  5
518
330
504
100
AcDbEntity
  8
ガラス
  6
Continuous
100
AcDbVertex
100
AcDb2dVertex
 10
-38.025
 20
-16.575
 30
0.0
 70
     8
  0
VERTEX
  5
519
330
504
100
AcDbEntity
  8
ガラス
  6
Continuous
100
AcDbVertex
100
AcDb2dVertex
 10
-38.025
 20
-16.625
 30
0.0
 70
     8
  0
VERTEX
  5
51A
330
504
100
AcDbEntity
  8
ガラス
  6
Continuous
100
AcDbVertex
100
AcDb2dVertex
 10
-38.05
 20
-16.675
 30
0.0
 70
     8
  0
VERTEX
  5
51B
330
504
100
AcDbEntity
  8
ガラス
  6
Continuous
100
AcDbVertex
100
AcDb2dVertex
 10
-38.05
 20
-16.7
 30
0.0
 70
     8
  0
VERTEX
  5
51C
330
504
100
AcDbEntity
  8
ガラス
  6
Continuous
100
AcDbVertex
100
AcDb2dVertex
 10
-38.05
 20
-16.75
 30
0.0
 70
     8
  0
VERTEX
  5
51D
330
504
100
AcDbEntity
  8
ガラス
  6
Continuous
100
AcDbVertex
100
AcDb2dVertex
 10
-38.05
 20
-16.8
 30
0.0
 70
     8
  0
VERTEX
  5
51E
330
504
100
AcDbEntity
  8
ガラス
  6
Continuous
100
AcDbVertex
100
AcDb2dVertex
 10
-38.05
 20
-16.825
 30
0.0
 70
     8
  0
VERTEX
  5
51F
330
504
100
AcDbEntity
  8
ガラス
  6
Continuous
100
AcDbVertex
100
AcDb2dVertex
 10
-38.05
 20
-16.875
 30
0.0
 70
     8
  0
VERTEX
  5
520
330
504
100
AcDbEntity
  8
ガラス
  6
Continuous
100
AcDbVertex
100
AcDb2dVertex
 10
-38.075
 20
-16.925
 30
0.0
 70
     8
  0
VERTEX
  5
521
330
504
100
AcDbEntity
  8
ガラス
  6
Continuous
100
AcDbVertex
100
AcDb2dVertex
 10
-38.075
 20
-16.95
 30
0.0
 70
     8
  0
VERTEX
  5
522
330
504
100
AcDbEntity
  8
ガラス
  6
Continuous
100
AcDbVertex
100
AcDb2dVertex
 10
-38.075
 20
-17.0
 30
0.0
 70
     8
  0
VERTEX
  5
523
330
504
100
AcDbEntity
  8
ガラス
  6
Continuous
100
AcDbVertex
100
AcDb2dVertex
 10
-38.075
 20
-17.05
 30
0.0
 70
     8
  0
VERTEX
  5
524
330
504
100
AcDbEntity
  8
ガラス
  6
Continuous
100
AcDbVertex
100
AcDb2dVertex
 10
-38.075
 20
-17.1
 30
0.0
 70
     8
  0
VERTEX
  5
525
330
504
100
AcDbEntity
  8
ガラス
  6
Continuous
100
AcDbVertex
100
AcDb2dVertex
 10
-38.075
 20
-17.125
 30
0.0
 70
     8
  0
VERTEX
  5
526
330
504
100
AcDbEntity
  8
ガラス
  6
Continuous
100
AcDbVertex
100
AcDb2dVertex
 10
-38.075
 20
-17.175
 30
0.0
 70
     8
  0
VERTEX
  5
527
330
504
100
AcDbEntity
  8
ガラス
  6
Continuous
100
AcDbVertex
100
AcDb2dVertex
 10
-38.075
 20
-17.225
 30
0.0
 70
     8
  0
VERTEX
  5
528
330
504
100
AcDbEntity
  8
ガラス
  6
Continuous
100
AcDbVertex
100
AcDb2dVertex
 10
-38.075
 20
-17.25
 30
0.0
 70
     8
  0
VERTEX
  5
529
330
504
100
AcDbEntity
  8
ガラス
  6
Continuous
100
AcDbVertex
100
AcDb2dVertex
 10
-38.075
 20
-17.3
 30
0.0
 70
     8
  0
VERTEX
  5
52A
330
504
100
AcDbEntity
  8
ガラス
  6
Continuous
100
AcDbVertex
100
AcDb2dVertex
 10
-38.075
 20
-17.35
 30
0.0
 70
     8
  0
VERTEX
  5
52B
330
504
100
AcDbEntity
  8
ガラス
  6
Continuous
100
AcDbVertex
100
AcDb2dVertex
 10
-38.075
 20
-17.4
 30
0.0
 70
     8
  0
VERTEX
  5
52C
330
504
100
AcDbEntity
  8
ガラス
  6
Continuous
100
AcDbVertex
100
AcDb2dVertex
 10
-38.075
 20
-17.425
 30
0.0
 70
     8
  0
VERTEX
  5
52D
330
504
100
AcDbEntity
  8
ガラス
  6
Continuous
100
AcDbVertex
100
AcDb2dVertex
 10
-38.075
 20
-17.475
 30
0.0
 70
     8
  0
SEQEND
  5
52E
330
504
100
AcDbEntity
  8
0
  0
ARC
  5
52F
330
4D8
100
AcDbEntity
  8
ガラス
  6
Continuous
100
AcDbCircle
 10
-38.729338
 20
-17.465415
 30
0.0
 40
0.668594
100
AcDbArc
 50
180.0
 51
0.0
  0
ENDBLK
  5
530
330
4D8
100
AcDbEntity
  8
0
100
AcDbBlockEnd
  0
BLOCK
  5
531
330
532
100
AcDbEntity
  8
0
100
AcDbBlockBegin
  2
*U18
 70
     1
 71
     0
 10
0.0
 20
0.0
 30
0.0
  3
*U18
  1

  0
POLYLINE
  5
533
330
532
100
AcDbEntity
  8
ガラス
  6
Continuous
100
AcDb2dPolyline
 66
     1
 10
0.0
 20
0.0
 30
0.0
 70
     4
  0
VERTEX
  5
534
330
533
100
AcDbEntity
  8
ガラス
  6
Continuous
100
AcDbVertex
100
AcDb2dVertex
 10
-28.025
 20
14.975
 30
0.0
 70
     8
  0
VERTEX
  5
535
330
533
100
AcDbEntity
  8
ガラス
  6
Continuous
100
AcDbVertex
100
AcDb2dVertex
 10
-28.025
 20
15.05
 30
0.0
 70
     8
  0
VERTEX
  5
536
330
533
100
AcDbEntity
  8
ガラス
  6
Continuous
100
AcDbVertex
100
AcDb2dVertex
 10
-28.0
 20
15.1
 30
0.0
 70
     8
  0
VERTEX
  5
537
330
533
100
AcDbEntity
  8
ガラス
  6
Continuous
100
AcDbVertex
100
AcDb2dVertex
 10
-27.975
 20
15.175
 30
0.0
 70
     8
  0
VERTEX
  5
538
330
533
100
AcDbEntity
  8
ガラス
  6
Continuous
100
AcDbVertex
100
AcDb2dVertex
 10
-27.975
 20
15.225
 30
0.0
 70
     8
  0
VERTEX
  5
539
330
533
100
AcDbEntity
  8
ガラス
  6
Continuous
100
AcDbVertex
100
AcDb2dVertex
 10
-27.95
 20
15.3
 30
0.0
 70
     8
  0
VERTEX
  5
53A
330
533
100
AcDbEntity
  8
ガラス
  6
Continuous
100
AcDbVertex
100
AcDb2dVertex
 10
-27.925
 20
15.35
 30
0.0
 70
     8
  0
VERTEX
  5
53B
330
533
100
AcDbEntity
  8
ガラス
  6
Continuous
100
AcDbVertex
100
AcDb2dVertex
 10
-27.9
 20
15.425
 30
0.0
 70
     8
  0
VERTEX
  5
53C
330
533
100
AcDbEntity
  8
ガラス
  6
Continuous
100
AcDbVertex
100
AcDb2dVertex
 10
-27.875
 20
15.475
 30
0.0
 70
     8
  0
VERTEX
  5
53D
330
533
100
AcDbEntity
  8
ガラス
  6
Continuous
100
AcDbVertex
100
AcDb2dVertex
 10
-27.875
 20
15.525
 30
0.0
 70
     8
  0
VERTEX
  5
53E
330
533
100
AcDbEntity
  8
ガラス
  6
Continuous
100
AcDbVertex
100
AcDb2dVertex
 10
-27.85
 20
15.6
 30
0.0
 70
     8
  0
VERTEX
  5
53F
330
533
100
AcDbEntity
  8
ガラス
  6
Continuous
100
AcDbVertex
100
AcDb2dVertex
 10
-27.825
 20
15.65
 30
0.0
 70
     8
  0
VERTEX
  5
540
330
533
100
AcDbEntity
  8
ガラス
  6
Continuous
100
AcDbVertex
100
AcDb2dVertex
 10
-27.8
 20
15.7
 30
0.0
 70
     8
  0
VERTEX
  5
541
330
533
100
AcDbEntity
  8
ガラス
  6
Continuous
100
AcDbVertex
100
AcDb2dVertex
 10
-27.775
 20
15.775
 30
0.0
 70
     8
  0
VERTEX
  5
542
330
533
100
AcDbEntity
  8
ガラス
  6
Continuous
100
AcDbVertex
100
AcDb2dVertex
 10
-27.75
 20
15.825
 30
0.0
 70
     8
  0
VERTEX
  5
543
330
533
100
AcDbEntity
  8
ガラス
  6
Continuous
100
AcDbVertex
100
AcDb2dVertex
 10
-27.7
 20
15.875
 30
0.0
 70
     8
  0
VERTEX
  5
544
330
533
100
AcDbEntity
  8
ガラス
  6
Continuous
100
AcDbVertex
100
AcDb2dVertex
 10
-27.675
 20
15.925
 30
0.0
 70
     8
  0
VERTEX
  5
545
330
533
100
AcDbEntity
  8
ガラス
  6
Continuous
100
AcDbVertex
100
AcDb2dVertex
 10
-27.65
 20
15.975
 30
0.0
 70
     8
  0
VERTEX
  5
546
330
533
100
AcDbEntity
  8
ガラス
  6
Continuous
100
AcDbVertex
100
AcDb2dVertex
 10
-27.625
 20
16.025
 30
0.0
 70
     8
  0
VERTEX
  5
547
330
533
100
AcDbEntity
  8
ガラス
  6
Continuous
100
AcDbVertex
100
AcDb2dVertex
 10
-27.575
 20
16.075
 30
0.0
 70
     8
  0
VERTEX
  5
548
330
533
100
AcDbEntity
  8
ガラス
  6
Continuous
100
AcDbVertex
100
AcDb2dVertex
 10
-27.55
 20
16.1
 30
0.0
 70
     8
  0
VERTEX
  5
549
330
533
100
AcDbEntity
  8
ガラス
  6
Continuous
100
AcDbVertex
100
AcDb2dVertex
 10
-27.5
 20
16.15
 30
0.0
 70
     8
  0
VERTEX
  5
54A
330
533
100
AcDbEntity
  8
ガラス
  6
Continuous
100
AcDbVertex
100
AcDb2dVertex
 10
-27.45
 20
16.2
 30
0.0
 70
     8
  0
VERTEX
  5
54B
330
533
100
AcDbEntity
  8
ガラス
  6
Continuous
100
AcDbVertex
100
AcDb2dVertex
 10
-27.425
 20
16.225
 30
0.0
 70
     8
  0
VERTEX
  5
54C
330
533
100
AcDbEntity
  8
ガラス
  6
Continuous
100
AcDbVertex
100
AcDb2dVertex
 10
-27.375
 20
16.25
 30
0.0
 70
     8
  0
VERTEX
  5
54D
330
533
100
AcDbEntity
  8
ガラス
  6
Continuous
100
AcDbVertex
100
AcDb2dVertex
 10
-27.325
 20
16.3
 30
0.0
 70
     8
  0
VERTEX
  5
54E
330
533
100
AcDbEntity
  8
ガラス
  6
Continuous
100
AcDbVertex
100
AcDb2dVertex
 10
-27.275
 20
16.325
 30
0.0
 70
     8
  0
VERTEX
  5
54F
330
533
100
AcDbEntity
  8
ガラス
  6
Continuous
100
AcDbVertex
100
AcDb2dVertex
 10
-27.225
 20
16.35
 30
0.0
 70
     8
  0
VERTEX
  5
550
330
533
100
AcDbEntity
  8
ガラス
  6
Continuous
100
AcDbVertex
100
AcDb2dVertex
 10
-27.175
 20
16.4
 30
0.0
 70
     8
  0
VERTEX
  5
551
330
533
100
AcDbEntity
  8
ガラス
  6
Continuous
100
AcDbVertex
100
AcDb2dVertex
 10
-27.125
 20
16.425
 30
0.0
 70
     8
  0
VERTEX
  5
552
330
533
100
AcDbEntity
  8
ガラス
  6
Continuous
100
AcDbVertex
100
AcDb2dVertex
 10
-27.05
 20
16.45
 30
0.0
 70
     8
  0
VERTEX
  5
553
330
533
100
AcDbEntity
  8
ガラス
  6
Continuous
100
AcDbVertex
100
AcDb2dVertex
 10
-27.0
 20
16.475
 30
0.0
 70
     8
  0
VERTEX
  5
554
330
533
100
AcDbEntity
  8
ガラス
  6
Continuous
100
AcDbVertex
100
AcDb2dVertex
 10
-26.95
 20
16.5
 30
0.0
 70
     8
  0
VERTEX
  5
555
330
533
100
AcDbEntity
  8
ガラス
  6
Continuous
100
AcDbVertex
100
AcDb2dVertex
 10
-26.875
 20
16.525
 30
0.0
 70
     8
  0
VERTEX
  5
556
330
533
100
AcDbEntity
  8
ガラス
  6
Continuous
100
AcDbVertex
100
AcDb2dVertex
 10
-26.825
 20
16.55
 30
0.0
 70
     8
  0
VERTEX
  5
557
330
533
100
AcDbEntity
  8
ガラス
  6
Continuous
100
AcDbVertex
100
AcDb2dVertex
 10
-26.775
 20
16.575
 30
0.0
 70
     8
  0
VERTEX
  5
558
330
533
100
AcDbEntity
  8
ガラス
  6
Continuous
100
AcDbVertex
100
AcDb2dVertex
 10
-26.7
 20
16.575
 30
0.0
 70
     8
  0
VERTEX
  5
559
330
533
100
AcDbEntity
  8
ガラス
  6
Continuous
100
AcDbVertex
100
AcDb2dVertex
 10
-26.65
 20
16.6
 30
0.0
 70
     8
  0
VERTEX
  5
55A
330
533
100
AcDbEntity
  8
ガラス
  6
Continuous
100
AcDbVertex
100
AcDb2dVertex
 10
-26.575
 20
16.625
 30
0.0
 70
     8
  0
VERTEX
  5
55B
330
533
100
AcDbEntity
  8
ガラス
  6
Continuous
100
AcDbVertex
100
AcDb2dVertex
 10
-26.525
 20
16.65
 30
0.0
 70
     8
  0
VERTEX
  5
55C
330
533
100
AcDbEntity
  8
ガラス
  6
Continuous
100
AcDbVertex
100
AcDb2dVertex
 10
-26.45
 20
16.675
 30
0.0
 70
     8
  0
SEQEND
  5
55D
330
533
100
AcDbEntity
  8
0
  0
POLYLINE
  5
55E
330
532
100
AcDbEntity
  8
ガラス
  6
Continuous
100
AcDb2dPolyline
 66
     1
 10
0.0
 20
0.0
 30
0.0
 70
     4
  0
VERTEX
  5
55F
330
55E
100
AcDbEntity
  8
ガラス
  6
Continuous
100
AcDbVertex
100
AcDb2dVertex
 10
-26.45
 20
16.675
 30
0.0
 70
     8
  0
VERTEX
  5
560
330
55E
100
AcDbEntity
  8
ガラス
  6
Continuous
100
AcDbVertex
100
AcDb2dVertex
 10
-26.475
 20
16.625
 30
0.0
 70
     8
  0
VERTEX
  5
561
330
55E
100
AcDbEntity
  8
ガラス
  6
Continuous
100
AcDbVertex
100
AcDb2dVertex
 10
-26.475
 20
16.6
 30
0.0
 70
     8
  0
VERTEX
  5
562
330
55E
100
AcDbEntity
  8
ガラス
  6
Continuous
100
AcDbVertex
100
AcDb2dVertex
 10
-26.5
 20
16.55
 30
0.0
 70
     8
  0
VERTEX
  5
563
330
55E
100
AcDbEntity
  8
ガラス
  6
Continuous
100
AcDbVertex
100
AcDb2dVertex
 10
-26.5
 20
16.5
 30
0.0
 70
     8
  0
VERTEX
  5
564
330
55E
100
AcDbEntity
  8
ガラス
  6
Continuous
100
AcDbVertex
100
AcDb2dVertex
 10
-26.525
 20
16.475
 30
0.0
 70
     8
  0
VERTEX
  5
565
330
55E
100
AcDbEntity
  8
ガラス
  6
Continuous
100
AcDbVertex
100
AcDb2dVertex
 10
-26.525
 20
16.425
 30
0.0
 70
     8
  0
VERTEX
  5
566
330
55E
100
AcDbEntity
  8
ガラス
  6
Continuous
100
AcDbVertex
100
AcDb2dVertex
 10
-26.55
 20
16.375
 30
0.0
 70
     8
  0
VERTEX
  5
567
330
55E
100
AcDbEntity
  8
ガラス
  6
Continuous
100
AcDbVertex
100
AcDb2dVertex
 10
-26.55
 20
16.35
 30
0.0
 70
     8
  0
VERTEX
  5
568
330
55E
100
AcDbEntity
  8
ガラス
  6
Continuous
100
AcDbVertex
100
AcDb2dVertex
 10
-26.575
 20
16.3
 30
0.0
 70
     8
  0
VERTEX
  5
569
330
55E
100
AcDbEntity
  8
ガラス
  6
Continuous
100
AcDbVertex
100
AcDb2dVertex
 10
-26.575
 20
16.25
 30
0.0
 70
     8
  0
VERTEX
  5
56A
330
55E
100
AcDbEntity
  8
ガラス
  6
Continuous
100
AcDbVertex
100
AcDb2dVertex
 10
-26.575
 20
16.225
 30
0.0
 70
     8
  0
VERTEX
  5
56B
330
55E
100
AcDbEntity
  8
ガラス
  6
Continuous
100
AcDbVertex
100
AcDb2dVertex
 10
-26.6
 20
16.175
 30
0.0
 70
     8
  0
VERTEX
  5
56C
330
55E
100
AcDbEntity
  8
ガラス
  6
Continuous
100
AcDbVertex
100
AcDb2dVertex
 10
-26.6
 20
16.125
 30
0.0
 70
     8
  0
VERTEX
  5
56D
330
55E
100
AcDbEntity
  8
ガラス
  6
Continuous
100
AcDbVertex
100
AcDb2dVertex
 10
-26.625
 20
16.1
 30
0.0
 70
     8
  0
VERTEX
  5
56E
330
55E
100
AcDbEntity
  8
ガラス
  6
Continuous
100
AcDbVertex
100
AcDb2dVertex
 10
-26.625
 20
16.05
 30
0.0
 70
     8
  0
VERTEX
  5
56F
330
55E
100
AcDbEntity
  8
ガラス
  6
Continuous
100
AcDbVertex
100
AcDb2dVertex
 10
-26.625
 20
16.0
 30
0.0
 70
     8
  0
VERTEX
  5
570
330
55E
100
AcDbEntity
  8
ガラス
  6
Continuous
100
AcDbVertex
100
AcDb2dVertex
 10
-26.65
 20
15.975
 30
0.0
 70
     8
  0
VERTEX
  5
571
330
55E
100
AcDbEntity
  8
ガラス
  6
Continuous
100
AcDbVertex
100
AcDb2dVertex
 10
-26.65
 20
15.925
 30
0.0
 70
     8
  0
VERTEX
  5
572
330
55E
100
AcDbEntity
  8
ガラス
  6
Continuous
100
AcDbVertex
100
AcDb2dVertex
 10
-26.65
 20
15.875
 30
0.0
 70
     8
  0
VERTEX
  5
573
330
55E
100
AcDbEntity
  8
ガラス
  6
Continuous
100
AcDbVertex
100
AcDb2dVertex
 10
-26.65
 20
15.825
 30
0.0
 70
     8
  0
VERTEX
  5
574
330
55E
100
AcDbEntity
  8
ガラス
  6
Continuous
100
AcDbVertex
100
AcDb2dVertex
 10
-26.675
 20
15.8
 30
0.0
 70
     8
  0
VERTEX
  5
575
330
55E
100
AcDbEntity
  8
ガラス
  6
Continuous
100
AcDbVertex
100
AcDb2dVertex
 10
-26.675
 20
15.75
 30
0.0
 70
     8
  0
VERTEX
  5
576
330
55E
100
AcDbEntity
  8
ガラス
  6
Continuous
100
AcDbVertex
100
AcDb2dVertex
 10
-26.675
 20
15.7
 30
0.0
 70
     8
  0
VERTEX
  5
577
330
55E
100
AcDbEntity
  8
ガラス
  6
Continuous
100
AcDbVertex
100
AcDb2dVertex
 10
-26.675
 20
15.675
 30
0.0
 70
     8
  0
VERTEX
  5
578
330
55E
100
AcDbEntity
  8
ガラス
  6
Continuous
100
AcDbVertex
100
AcDb2dVertex
 10
-26.675
 20
15.625
 30
0.0
 70
     8
  0
VERTEX
  5
579
330
55E
100
AcDbEntity
  8
ガラス
  6
Continuous
100
AcDbVertex
100
AcDb2dVertex
 10
-26.7
 20
15.575
 30
0.0
 70
     8
  0
VERTEX
  5
57A
330
55E
100
AcDbEntity
  8
ガラス
  6
Continuous
100
AcDbVertex
100
AcDb2dVertex
 10
-26.7
 20
15.55
 30
0.0
 70
     8
  0
VERTEX
  5
57B
330
55E
100
AcDbEntity
  8
ガラス
  6
Continuous
100
AcDbVertex
100
AcDb2dVertex
 10
-26.7
 20
15.5
 30
0.0
 70
     8
  0
VERTEX
  5
57C
330
55E
100
AcDbEntity
  8
ガラス
  6
Continuous
100
AcDbVertex
100
AcDb2dVertex
 10
-26.7
 20
15.45
 30
0.0
 70
     8
  0
VERTEX
  5
57D
330
55E
100
AcDbEntity
  8
ガラス
  6
Continuous
100
AcDbVertex
100
AcDb2dVertex
 10
-26.7
 20
15.4
 30
0.0
 70
     8
  0
VERTEX
  5
57E
330
55E
100
AcDbEntity
  8
ガラス
  6
Continuous
100
AcDbVertex
100
AcDb2dVertex
 10
-26.7
 20
15.375
 30
0.0
 70
     8
  0
VERTEX
  5
57F
330
55E
100
AcDbEntity
  8
ガラス
  6
Continuous
100
AcDbVertex
100
AcDb2dVertex
 10
-26.7
 20
15.325
 30
0.0
 70
     8
  0
VERTEX
  5
580
330
55E
100
AcDbEntity
  8
ガラス
  6
Continuous
100
AcDbVertex
100
AcDb2dVertex
 10
-26.7
 20
15.275
 30
0.0
 70
     8
  0
VERTEX
  5
581
330
55E
100
AcDbEntity
  8
ガラス
  6
Continuous
100
AcDbVertex
100
AcDb2dVertex
 10
-26.7
 20
15.25
 30
0.0
 70
     8
  0
VERTEX
  5
582
330
55E
100
AcDbEntity
  8
ガラス
  6
Continuous
100
AcDbVertex
100
AcDb2dVertex
 10
-26.7
 20
15.2
 30
0.0
 70
     8
  0
VERTEX
  5
583
330
55E
100
AcDbEntity
  8
ガラス
  6
Continuous
100
AcDbVertex
100
AcDb2dVertex
 10
-26.7
 20
15.15
 30
0.0
 70
     8
  0
VERTEX
  5
584
330
55E
100
AcDbEntity
  8
ガラス
  6
Continuous
100
AcDbVertex
100
AcDb2dVertex
 10
-26.7
 20
15.1
 30
0.0
 70
     8
  0
VERTEX
  5
585
330
55E
100
AcDbEntity
  8
ガラス
  6
Continuous
100
AcDbVertex
100
AcDb2dVertex
 10
-26.7
 20
15.075
 30
0.0
 70
     8
  0
VERTEX
  5
586
330
55E
100
AcDbEntity
  8
ガラス
  6
Continuous
100
AcDbVertex
100
AcDb2dVertex
 10
-26.7
 20
15.025
 30
0.0
 70
     8
  0
VERTEX
  5
587
330
55E
100
AcDbEntity
  8
ガラス
  6
Continuous
100
AcDbVertex
100
AcDb2dVertex
 10
-26.7
 20
14.975
 30
0.0
 70
     8
  0
SEQEND
  5
588
330
55E
100
AcDbEntity
  8
0
  0
ARC
  5
589
330
532
100
AcDbEntity
  8
ガラス
  6
Continuous
100
AcDbCircle
 10
-27.35593
 20
14.993026
 30
0.0
 40
0.668594
100
AcDbArc
 50
180.0
 51
0.0
  0
ENDBLK
  5
58A
330
532
100
AcDbEntity
  8
0
100
AcDbBlockEnd
  0
BLOCK
  5
58B
330
58C
100
AcDbEntity
  8
0
100
AcDbBlockBegin
  2
*U19
 70
     1
 71
     0
 10
0.0
 20
0.0
 30
0.0
  3
*U19
  1

  0
POLYLINE
  5
58D
330
58C
100
AcDbEntity
  8
ガラス
  6
Continuous
100
AcDb2dPolyline
 66
     1
 10
0.0
 20
0.0
 30
0.0
 70
     4
  0
VERTEX
  5
58E
330
58D
100
AcDbEntity
  8
ガラス
  6
Continuous
100
AcDbVertex
100
AcDb2dVertex
 10
-28.025
 20
0.675
 30
0.0
 70
     8
  0
VERTEX
  5
58F
330
58D
100
AcDbEntity
  8
ガラス
  6
Continuous
100
AcDbVertex
100
AcDb2dVertex
 10
-28.025
 20
0.75
 30
0.0
 70
     8
  0
VERTEX
  5
590
330
58D
100
AcDbEntity
  8
ガラス
  6
Continuous
100
AcDbVertex
100
AcDb2dVertex
 10
-28.0
 20
0.8
 30
0.0
 70
     8
  0
VERTEX
  5
591
330
58D
100
AcDbEntity
  8
ガラス
  6
Continuous
100
AcDbVertex
100
AcDb2dVertex
 10
-27.975
 20
0.875
 30
0.0
 70
     8
  0
VERTEX
  5
592
330
58D
100
AcDbEntity
  8
ガラス
  6
Continuous
100
AcDbVertex
100
AcDb2dVertex
 10
-27.975
 20
0.95
 30
0.0
 70
     8
  0
VERTEX
  5
593
330
58D
100
AcDbEntity
  8
ガラス
  6
Continuous
100
AcDbVertex
100
AcDb2dVertex
 10
-27.95
 20
1.0
 30
0.0
 70
     8
  0
VERTEX
  5
594
330
58D
100
AcDbEntity
  8
ガラス
  6
Continuous
100
AcDbVertex
100
AcDb2dVertex
 10
-27.925
 20
1.05
 30
0.0
 70
     8
  0
VERTEX
  5
595
330
58D
100
AcDbEntity
  8
ガラス
  6
Continuous
100
AcDbVertex
100
AcDb2dVertex
 10
-27.9
 20
1.125
 30
0.0
 70
     8
  0
VERTEX
  5
596
330
58D
100
AcDbEntity
  8
ガラス
  6
Continuous
100
AcDbVertex
100
AcDb2dVertex
 10
-27.875
 20
1.175
 30
0.0
 70
     8
  0
VERTEX
  5
597
330
58D
100
AcDbEntity
  8
ガラス
  6
Continuous
100
AcDbVertex
100
AcDb2dVertex
 10
-27.875
 20
1.25
 30
0.0
 70
     8
  0
VERTEX
  5
598
330
58D
100
AcDbEntity
  8
ガラス
  6
Continuous
100
AcDbVertex
100
AcDb2dVertex
 10
-27.85
 20
1.3
 30
0.0
 70
     8
  0
VERTEX
  5
599
330
58D
100
AcDbEntity
  8
ガラス
  6
Continuous
100
AcDbVertex
100
AcDb2dVertex
 10
-27.825
 20
1.35
 30
0.0
 70
     8
  0
VERTEX
  5
59A
330
58D
100
AcDbEntity
  8
ガラス
  6
Continuous
100
AcDbVertex
100
AcDb2dVertex
 10
-27.8
 20
1.425
 30
0.0
 70
     8
  0
VERTEX
  5
59B
330
58D
100
AcDbEntity
  8
ガラス
  6
Continuous
100
AcDbVertex
100
AcDb2dVertex
 10
-27.775
 20
1.475
 30
0.0
 70
     8
  0
VERTEX
  5
59C
330
58D
100
AcDbEntity
  8
ガラス
  6
Continuous
100
AcDbVertex
100
AcDb2dVertex
 10
-27.75
 20
1.525
 30
0.0
 70
     8
  0
VERTEX
  5
59D
330
58D
100
AcDbEntity
  8
ガラス
  6
Continuous
100
AcDbVertex
100
AcDb2dVertex
 10
-27.7
 20
1.575
 30
0.0
 70
     8
  0
VERTEX
  5
59E
330
58D
100
AcDbEntity
  8
ガラス
  6
Continuous
100
AcDbVertex
100
AcDb2dVertex
 10
-27.675
 20
1.625
 30
0.0
 70
     8
  0
VERTEX
  5
59F
330
58D
100
AcDbEntity
  8
ガラス
  6
Continuous
100
AcDbVertex
100
AcDb2dVertex
 10
-27.65
 20
1.675
 30
0.0
 70
     8
  0
VERTEX
  5
5A0
330
58D
100
AcDbEntity
  8
ガラス
  6
Continuous
100
AcDbVertex
100
AcDb2dVertex
 10
-27.625
 20
1.725
 30
0.0
 70
     8
  0
VERTEX
  5
5A1
330
58D
100
AcDbEntity
  8
ガラス
  6
Continuous
100
AcDbVertex
100
AcDb2dVertex
 10
-27.575
 20
1.775
 30
0.0
 70
     8
  0
VERTEX
  5
5A2
330
58D
100
AcDbEntity
  8
ガラス
  6
Continuous
100
AcDbVertex
100
AcDb2dVertex
 10
-27.55
 20
1.825
 30
0.0
 70
     8
  0
VERTEX
  5
5A3
330
58D
100
AcDbEntity
  8
ガラス
  6
Continuous
100
AcDbVertex
100
AcDb2dVertex
 10
-27.5
 20
1.85
 30
0.0
 70
     8
  0
VERTEX
  5
5A4
330
58D
100
AcDbEntity
  8
ガラス
  6
Continuous
100
AcDbVertex
100
AcDb2dVertex
 10
-27.45
 20
1.9
 30
0.0
 70
     8
  0
VERTEX
  5
5A5
330
58D
100
AcDbEntity
  8
ガラス
  6
Continuous
100
AcDbVertex
100
AcDb2dVertex
 10
-27.425
 20
1.925
 30
0.0
 70
     8
  0
VERTEX
  5
5A6
330
58D
100
AcDbEntity
  8
ガラス
  6
Continuous
100
AcDbVertex
100
AcDb2dVertex
 10
-27.375
 20
1.975
 30
0.0
 70
     8
  0
VERTEX
  5
5A7
330
58D
100
AcDbEntity
  8
ガラス
  6
Continuous
100
AcDbVertex
100
AcDb2dVertex
 10
-27.325
 20
2.0
 30
0.0
 70
     8
  0
VERTEX
  5
5A8
330
58D
100
AcDbEntity
  8
ガラス
  6
Continuous
100
AcDbVertex
100
AcDb2dVertex
 10
-27.275
 20
2.025
 30
0.0
 70
     8
  0
VERTEX
  5
5A9
330
58D
100
AcDbEntity
  8
ガラス
  6
Continuous
100
AcDbVertex
100
AcDb2dVertex
 10
-27.225
 20
2.075
 30
0.0
 70
     8
  0
VERTEX
  5
5AA
330
58D
100
AcDbEntity
  8
ガラス
  6
Continuous
100
AcDbVertex
100
AcDb2dVertex
 10
-27.175
 20
2.1
 30
0.0
 70
     8
  0
VERTEX
  5
5AB
330
58D
100
AcDbEntity
  8
ガラス
  6
Continuous
100
AcDbVertex
100
AcDb2dVertex
 10
-27.125
 20
2.125
 30
0.0
 70
     8
  0
VERTEX
  5
5AC
330
58D
100
AcDbEntity
  8
ガラス
  6
Continuous
100
AcDbVertex
100
AcDb2dVertex
 10
-27.05
 20
2.15
 30
0.0
 70
     8
  0
VERTEX
  5
5AD
330
58D
100
AcDbEntity
  8
ガラス
  6
Continuous
100
AcDbVertex
100
AcDb2dVertex
 10
-27.0
 20
2.175
 30
0.0
 70
     8
  0
VERTEX
  5
5AE
330
58D
100
AcDbEntity
  8
ガラス
  6
Continuous
100
AcDbVertex
100
AcDb2dVertex
 10
-26.95
 20
2.2
 30
0.0
 70
     8
  0
VERTEX
  5
5AF
330
58D
100
AcDbEntity
  8
ガラス
  6
Continuous
100
AcDbVertex
100
AcDb2dVertex
 10
-26.875
 20
2.225
 30
0.0
 70
     8
  0
VERTEX
  5
5B0
330
58D
100
AcDbEntity
  8
ガラス
  6
Continuous
100
AcDbVertex
100
AcDb2dVertex
 10
-26.825
 20
2.25
 30
0.0
 70
     8
  0
VERTEX
  5
5B1
330
58D
100
AcDbEntity
  8
ガラス
  6
Continuous
100
AcDbVertex
100
AcDb2dVertex
 10
-26.775
 20
2.275
 30
0.0
 70
     8
  0
VERTEX
  5
5B2
330
58D
100
AcDbEntity
  8
ガラス
  6
Continuous
100
AcDbVertex
100
AcDb2dVertex
 10
-26.7
 20
2.3
 30
0.0
 70
     8
  0
VERTEX
  5
5B3
330
58D
100
AcDbEntity
  8
ガラス
  6
Continuous
100
AcDbVertex
100
AcDb2dVertex
 10
-26.65
 20
2.325
 30
0.0
 70
     8
  0
VERTEX
  5
5B4
330
58D
100
AcDbEntity
  8
ガラス
  6
Continuous
100
AcDbVertex
100
AcDb2dVertex
 10
-26.575
 20
2.325
 30
0.0
 70
     8
  0
VERTEX
  5
5B5
330
58D
100
AcDbEntity
  8
ガラス
  6
Continuous
100
AcDbVertex
100
AcDb2dVertex
 10
-26.525
 20
2.35
 30
0.0
 70
     8
  0
VERTEX
  5
5B6
330
58D
100
AcDbEntity
  8
ガラス
  6
Continuous
100
AcDbVertex
100
AcDb2dVertex
 10
-26.45
 20
2.375
 30
0.0
 70
     8
  0
SEQEND
  5
5B7
330
58D
100
AcDbEntity
  8
0
  0
POLYLINE
  5
5B8
330
58C
100
AcDbEntity
  8
ガラス
  6
Continuous
100
AcDb2dPolyline
 66
     1
 10
0.0
 20
0.0
 30
0.0
 70
     4
  0
VERTEX
  5
5B9
330
5B8
100
AcDbEntity
  8
ガラス
  6
Continuous
100
AcDbVertex
100
AcDb2dVertex
 10
-26.45
 20
2.375
 30
0.0
 70
     8
  0
VERTEX
  5
5BA
330
5B8
100
AcDbEntity
  8
ガラス
  6
Continuous
100
AcDbVertex
100
AcDb2dVertex
 10
-26.475
 20
2.325
 30
0.0
 70
     8
  0
VERTEX
  5
5BB
330
5B8
100
AcDbEntity
  8
ガラス
  6
Continuous
100
AcDbVertex
100
AcDb2dVertex
 10
-26.475
 20
2.3
 30
0.0
 70
     8
  0
VERTEX
  5
5BC
330
5B8
100
AcDbEntity
  8
ガラス
  6
Continuous
100
AcDbVertex
100
AcDb2dVertex
 10
-26.5
 20
2.25
 30
0.0
 70
     8
  0
VERTEX
  5
5BD
330
5B8
100
AcDbEntity
  8
ガラス
  6
Continuous
100
AcDbVertex
100
AcDb2dVertex
 10
-26.5
 20
2.2
 30
0.0
 70
     8
  0
VERTEX
  5
5BE
330
5B8
100
AcDbEntity
  8
ガラス
  6
Continuous
100
AcDbVertex
100
AcDb2dVertex
 10
-26.525
 20
2.175
 30
0.0
 70
     8
  0
VERTEX
  5
5BF
330
5B8
100
AcDbEntity
  8
ガラス
  6
Continuous
100
AcDbVertex
100
AcDb2dVertex
 10
-26.525
 20
2.125
 30
0.0
 70
     8
  0
VERTEX
  5
5C0
330
5B8
100
AcDbEntity
  8
ガラス
  6
Continuous
100
AcDbVertex
100
AcDb2dVertex
 10
-26.55
 20
2.075
 30
0.0
 70
     8
  0
VERTEX
  5
5C1
330
5B8
100
AcDbEntity
  8
ガラス
  6
Continuous
100
AcDbVertex
100
AcDb2dVertex
 10
-26.55
 20
2.05
 30
0.0
 70
     8
  0
VERTEX
  5
5C2
330
5B8
100
AcDbEntity
  8
ガラス
  6
Continuous
100
AcDbVertex
100
AcDb2dVertex
 10
-26.575
 20
2.0
 30
0.0
 70
     8
  0
VERTEX
  5
5C3
330
5B8
100
AcDbEntity
  8
ガラス
  6
Continuous
100
AcDbVertex
100
AcDb2dVertex
 10
-26.575
 20
1.975
 30
0.0
 70
     8
  0
VERTEX
  5
5C4
330
5B8
100
AcDbEntity
  8
ガラス
  6
Continuous
100
AcDbVertex
100
AcDb2dVertex
 10
-26.575
 20
1.925
 30
0.0
 70
     8
  0
VERTEX
  5
5C5
330
5B8
100
AcDbEntity
  8
ガラス
  6
Continuous
100
AcDbVertex
100
AcDb2dVertex
 10
-26.6
 20
1.875
 30
0.0
 70
     8
  0
VERTEX
  5
5C6
330
5B8
100
AcDbEntity
  8
ガラス
  6
Continuous
100
AcDbVertex
100
AcDb2dVertex
 10
-26.6
 20
1.825
 30
0.0
 70
     8
  0
VERTEX
  5
5C7
330
5B8
100
AcDbEntity
  8
ガラス
  6
Continuous
100
AcDbVertex
100
AcDb2dVertex
 10
-26.625
 20
1.8
 30
0.0
 70
     8
  0
VERTEX
  5
5C8
330
5B8
100
AcDbEntity
  8
ガラス
  6
Continuous
100
AcDbVertex
100
AcDb2dVertex
 10
-26.625
 20
1.75
 30
0.0
 70
     8
  0
VERTEX
  5
5C9
330
5B8
100
AcDbEntity
  8
ガラス
  6
Continuous
100
AcDbVertex
100
AcDb2dVertex
 10
-26.625
 20
1.7
 30
0.0
 70
     8
  0
VERTEX
  5
5CA
330
5B8
100
AcDbEntity
  8
ガラス
  6
Continuous
100
AcDbVertex
100
AcDb2dVertex
 10
-26.65
 20
1.675
 30
0.0
 70
     8
  0
VERTEX
  5
5CB
330
5B8
100
AcDbEntity
  8
ガラス
  6
Continuous
100
AcDbVertex
100
AcDb2dVertex
 10
-26.65
 20
1.625
 30
0.0
 70
     8
  0
VERTEX
  5
5CC
330
5B8
100
AcDbEntity
  8
ガラス
  6
Continuous
100
AcDbVertex
100
AcDb2dVertex
 10
-26.65
 20
1.575
 30
0.0
 70
     8
  0
VERTEX
  5
5CD
330
5B8
100
AcDbEntity
  8
ガラス
  6
Continuous
100
AcDbVertex
100
AcDb2dVertex
 10
-26.65
 20
1.55
 30
0.0
 70
     8
  0
VERTEX
  5
5CE
330
5B8
100
AcDbEntity
  8
ガラス
  6
Continuous
100
AcDbVertex
100
AcDb2dVertex
 10
-26.675
 20
1.5
 30
0.0
 70
     8
  0
VERTEX
  5
5CF
330
5B8
100
AcDbEntity
  8
ガラス
  6
Continuous
100
AcDbVertex
100
AcDb2dVertex
 10
-26.675
 20
1.45
 30
0.0
 70
     8
  0
VERTEX
  5
5D0
330
5B8
100
AcDbEntity
  8
ガラス
  6
Continuous
100
AcDbVertex
100
AcDb2dVertex
 10
-26.675
 20
1.425
 30
0.0
 70
     8
  0
VERTEX
  5
5D1
330
5B8
100
AcDbEntity
  8
ガラス
  6
Continuous
100
AcDbVertex
100
AcDb2dVertex
 10
-26.675
 20
1.375
 30
0.0
 70
     8
  0
VERTEX
  5
5D2
330
5B8
100
AcDbEntity
  8
ガラス
  6
Continuous
100
AcDbVertex
100
AcDb2dVertex
 10
-26.675
 20
1.325
 30
0.0
 70
     8
  0
VERTEX
  5
5D3
330
5B8
100
AcDbEntity
  8
ガラス
  6
Continuous
100
AcDbVertex
100
AcDb2dVertex
 10
-26.7
 20
1.3
 30
0.0
 70
     8
  0
VERTEX
  5
5D4
330
5B8
100
AcDbEntity
  8
ガラス
  6
Continuous
100
AcDbVertex
100
AcDb2dVertex
 10
-26.7
 20
1.25
 30
0.0
 70
     8
  0
VERTEX
  5
5D5
330
5B8
100
AcDbEntity
  8
ガラス
  6
Continuous
100
AcDbVertex
100
AcDb2dVertex
 10
-26.7
 20
1.2
 30
0.0
 70
     8
  0
VERTEX
  5
5D6
330
5B8
100
AcDbEntity
  8
ガラス
  6
Continuous
100
AcDbVertex
100
AcDb2dVertex
 10
-26.7
 20
1.15
 30
0.0
 70
     8
  0
VERTEX
  5
5D7
330
5B8
100
AcDbEntity
  8
ガラス
  6
Continuous
100
AcDbVertex
100
AcDb2dVertex
 10
-26.7
 20
1.125
 30
0.0
 70
     8
  0
VERTEX
  5
5D8
330
5B8
100
AcDbEntity
  8
ガラス
  6
Continuous
100
AcDbVertex
100
AcDb2dVertex
 10
-26.7
 20
1.075
 30
0.0
 70
     8
  0
VERTEX
  5
5D9
330
5B8
100
AcDbEntity
  8
ガラス
  6
Continuous
100
AcDbVertex
100
AcDb2dVertex
 10
-26.7
 20
1.025
 30
0.0
 70
     8
  0
VERTEX
  5
5DA
330
5B8
100
AcDbEntity
  8
ガラス
  6
Continuous
100
AcDbVertex
100
AcDb2dVertex
 10
-26.7
 20
1.0
 30
0.0
 70
     8
  0
VERTEX
  5
5DB
330
5B8
100
AcDbEntity
  8
ガラス
  6
Continuous
100
AcDbVertex
100
AcDb2dVertex
 10
-26.7
 20
0.95
 30
0.0
 70
     8
  0
VERTEX
  5
5DC
330
5B8
100
AcDbEntity
  8
ガラス
  6
Continuous
100
AcDbVertex
100
AcDb2dVertex
 10
-26.7
 20
0.9
 30
0.0
 70
     8
  0
VERTEX
  5
5DD
330
5B8
100
AcDbEntity
  8
ガラス
  6
Continuous
100
AcDbVertex
100
AcDb2dVertex
 10
-26.7
 20
0.85
 30
0.0
 70
     8
  0
VERTEX
  5
5DE
330
5B8
100
AcDbEntity
  8
ガラス
  6
Continuous
100
AcDbVertex
100
AcDb2dVertex
 10
-26.7
 20
0.825
 30
0.0
 70
     8
  0
VERTEX
  5
5DF
330
5B8
100
AcDbEntity
  8
ガラス
  6
Continuous
100
AcDbVertex
100
AcDb2dVertex
 10
-26.7
 20
0.775
 30
0.0
 70
     8
  0
VERTEX
  5
5E0
330
5B8
100
AcDbEntity
  8
ガラス
  6
Continuous
100
AcDbVertex
100
AcDb2dVertex
 10
-26.7
 20
0.725
 30
0.0
 70
     8
  0
VERTEX
  5
5E1
330
5B8
100
AcDbEntity
  8
ガラス
  6
Continuous
100
AcDbVertex
100
AcDb2dVertex
 10
-26.7
 20
0.675
 30
0.0
 70
     8
  0
SEQEND
  5
5E2
330
5B8
100
AcDbEntity
  8
0
  0
ARC
  5
5E3
330
58C
100
AcDbEntity
  8
ガラス
  6
Continuous
100
AcDbCircle
 10
-27.35593
 20
0.698965
 30
0.0
 40
0.668594
100
AcDbArc
 50
180.0
 51
0.0
  0
ENDBLK
  5
5E4
330
58C
100
AcDbEntity
  8
0
100
AcDbBlockEnd
  0
BLOCK
  5
5E5
330
5E6
100
AcDbEntity
  8
0
100
AcDbBlockBegin
  2
*U20
 70
     1
 71
     0
 10
0.0
 20
0.0
 30
0.0
  3
*U20
  1

  0
POLYLINE
  5
5E7
330
5E6
100
AcDbEntity
  8
ガラス
  6
Continuous
100
AcDb2dPolyline
 66
     1
 10
0.0
 20
0.0
 30
0.0
 70
     4
  0
VERTEX
  5
5E8
330
5E7
100
AcDbEntity
  8
ガラス
  6
Continuous
100
AcDbVertex
100
AcDb2dVertex
 10
-28.025
 20
-15.8
 30
0.0
 70
     8
  0
VERTEX
  5
5E9
330
5E7
100
AcDbEntity
  8
ガラス
  6
Continuous
100
AcDbVertex
100
AcDb2dVertex
 10
-28.025
 20
-15.725
 30
0.0
 70
     8
  0
VERTEX
  5
5EA
330
5E7
100
AcDbEntity
  8
ガラス
  6
Continuous
100
AcDbVertex
100
AcDb2dVertex
 10
-28.0
 20
-15.675
 30
0.0
 70
     8
  0
VERTEX
  5
5EB
330
5E7
100
AcDbEntity
  8
ガラス
  6
Continuous
100
AcDbVertex
100
AcDb2dVertex
 10
-27.975
 20
-15.6
 30
0.0
 70
     8
  0
VERTEX
  5
5EC
330
5E7
100
AcDbEntity
  8
ガラス
  6
Continuous
100
AcDbVertex
100
AcDb2dVertex
 10
-27.975
 20
-15.55
 30
0.0
 70
     8
  0
VERTEX
  5
5ED
330
5E7
100
AcDbEntity
  8
ガラス
  6
Continuous
100
AcDbVertex
100
AcDb2dVertex
 10
-27.95
 20
-15.475
 30
0.0
 70
     8
  0
VERTEX
  5
5EE
330
5E7
100
AcDbEntity
  8
ガラス
  6
Continuous
100
AcDbVertex
100
AcDb2dVertex
 10
-27.925
 20
-15.425
 30
0.0
 70
     8
  0
VERTEX
  5
5EF
330
5E7
100
AcDbEntity
  8
ガラス
  6
Continuous
100
AcDbVertex
100
AcDb2dVertex
 10
-27.9
 20
-15.35
 30
0.0
 70
     8
  0
VERTEX
  5
5F0
330
5E7
100
AcDbEntity
  8
ガラス
  6
Continuous
100
AcDbVertex
100
AcDb2dVertex
 10
-27.875
 20
-15.3
 30
0.0
 70
     8
  0
VERTEX
  5
5F1
330
5E7
100
AcDbEntity
  8
ガラス
  6
Continuous
100
AcDbVertex
100
AcDb2dVertex
 10
-27.875
 20
-15.25
 30
0.0
 70
     8
  0
VERTEX
  5
5F2
330
5E7
100
AcDbEntity
  8
ガラス
  6
Continuous
100
AcDbVertex
100
AcDb2dVertex
 10
-27.85
 20
-15.175
 30
0.0
 70
     8
  0
VERTEX
  5
5F3
330
5E7
100
AcDbEntity
  8
ガラス
  6
Continuous
100
AcDbVertex
100
AcDb2dVertex
 10
-27.825
 20
-15.125
 30
0.0
 70
     8
  0
VERTEX
  5
5F4
330
5E7
100
AcDbEntity
  8
ガラス
  6
Continuous
100
AcDbVertex
100
AcDb2dVertex
 10
-27.8
 20
-15.075
 30
0.0
 70
     8
  0
VERTEX
  5
5F5
330
5E7
100
AcDbEntity
  8
ガラス
  6
Continuous
100
AcDbVertex
100
AcDb2dVertex
 10
-27.775
 20
-15.0
 30
0.0
 70
     8
  0
VERTEX
  5
5F6
330
5E7
100
AcDbEntity
  8
ガラス
  6
Continuous
100
AcDbVertex
100
AcDb2dVertex
 10
-27.75
 20
-14.95
 30
0.0
 70
     8
  0
VERTEX
  5
5F7
330
5E7
100
AcDbEntity
  8
ガラス
  6
Continuous
100
AcDbVertex
100
AcDb2dVertex
 10
-27.7
 20
-14.9
 30
0.0
 70
     8
  0
VERTEX
  5
5F8
330
5E7
100
AcDbEntity
  8
ガラス
  6
Continuous
100
AcDbVertex
100
AcDb2dVertex
 10
-27.675
 20
-14.85
 30
0.0
 70
     8
  0
VERTEX
  5
5F9
330
5E7
100
AcDbEntity
  8
ガラス
  6
Continuous
100
AcDbVertex
100
AcDb2dVertex
 10
-27.65
 20
-14.8
 30
0.0
 70
     8
  0
VERTEX
  5
5FA
330
5E7
100
AcDbEntity
  8
ガラス
  6
Continuous
100
AcDbVertex
100
AcDb2dVertex
 10
-27.625
 20
-14.75
 30
0.0
 70
     8
  0
VERTEX
  5
5FB
330
5E7
100
AcDbEntity
  8
ガラス
  6
Continuous
100
AcDbVertex
100
AcDb2dVertex
 10
-27.575
 20
-14.7
 30
0.0
 70
     8
  0
VERTEX
  5
5FC
330
5E7
100
AcDbEntity
  8
ガラス
  6
Continuous
100
AcDbVertex
100
AcDb2dVertex
 10
-27.55
 20
-14.675
 30
0.0
 70
     8
  0
VERTEX
  5
5FD
330
5E7
100
AcDbEntity
  8
ガラス
  6
Continuous
100
AcDbVertex
100
AcDb2dVertex
 10
-27.5
 20
-14.625
 30
0.0
 70
     8
  0
VERTEX
  5
5FE
330
5E7
100
AcDbEntity
  8
ガラス
  6
Continuous
100
AcDbVertex
100
AcDb2dVertex
 10
-27.45
 20
-14.575
 30
0.0
 70
     8
  0
VERTEX
  5
5FF
330
5E7
100
AcDbEntity
  8
ガラス
  6
Continuous
100
AcDbVertex
100
AcDb2dVertex
 10
-27.425
 20
-14.55
 30
0.0
 70
     8
  0
VERTEX
  5
600
330
5E7
100
AcDbEntity
  8
ガラス
  6
Continuous
100
AcDbVertex
100
AcDb2dVertex
 10
-27.375
 20
-14.525
 30
0.0
 70
     8
  0
VERTEX
  5
601
330
5E7
100
AcDbEntity
  8
ガラス
  6
Continuous
100
AcDbVertex
100
AcDb2dVertex
 10
-27.325
 20
-14.475
 30
0.0
 70
     8
  0
VERTEX
  5
602
330
5E7
100
AcDbEntity
  8
ガラス
  6
Continuous
100
AcDbVertex
100
AcDb2dVertex
 10
-27.275
 20
-14.45
 30
0.0
 70
     8
  0
VERTEX
  5
603
330
5E7
100
AcDbEntity
  8
ガラス
  6
Continuous
100
AcDbVertex
100
AcDb2dVertex
 10
-27.225
 20
-14.425
 30
0.0
 70
     8
  0
VERTEX
  5
604
330
5E7
100
AcDbEntity
  8
ガラス
  6
Continuous
100
AcDbVertex
100
AcDb2dVertex
 10
-27.175
 20
-14.375
 30
0.0
 70
     8
  0
VERTEX
  5
605
330
5E7
100
AcDbEntity
  8
ガラス
  6
Continuous
100
AcDbVertex
100
AcDb2dVertex
 10
-27.125
 20
-14.35
 30
0.0
 70
     8
  0
VERTEX
  5
606
330
5E7
100
AcDbEntity
  8
ガラス
  6
Continuous
100
AcDbVertex
100
AcDb2dVertex
 10
-27.05
 20
-14.325
 30
0.0
 70
     8
  0
VERTEX
  5
607
330
5E7
100
AcDbEntity
  8
ガラス
  6
Continuous
100
AcDbVertex
100
AcDb2dVertex
 10
-27.0
 20
-14.3
 30
0.0
 70
     8
  0
VERTEX
  5
608
330
5E7
100
AcDbEntity
  8
ガラス
  6
Continuous
100
AcDbVertex
100
AcDb2dVertex
 10
-26.95
 20
-14.275
 30
0.0
 70
     8
  0
VERTEX
  5
609
330
5E7
100
AcDbEntity
  8
ガラス
  6
Continuous
100
AcDbVertex
100
AcDb2dVertex
 10
-26.875
 20
-14.25
 30
0.0
 70
     8
  0
VERTEX
  5
60A
330
5E7
100
AcDbEntity
  8
ガラス
  6
Continuous
100
AcDbVertex
100
AcDb2dVertex
 10
-26.825
 20
-14.225
 30
0.0
 70
     8
  0
VERTEX
  5
60B
330
5E7
100
AcDbEntity
  8
ガラス
  6
Continuous
100
AcDbVertex
100
AcDb2dVertex
 10
-26.775
 20
-14.2
 30
0.0
 70
     8
  0
VERTEX
  5
60C
330
5E7
100
AcDbEntity
  8
ガラス
  6
Continuous
100
AcDbVertex
100
AcDb2dVertex
 10
-26.7
 20
-14.175
 30
0.0
 70
     8
  0
VERTEX
  5
60D
330
5E7
100
AcDbEntity
  8
ガラス
  6
Continuous
100
AcDbVertex
100
AcDb2dVertex
 10
-26.65
 20
-14.175
 30
0.0
 70
     8
  0
VERTEX
  5
60E
330
5E7
100
AcDbEntity
  8
ガラス
  6
Continuous
100
AcDbVertex
100
AcDb2dVertex
 10
-26.575
 20
-14.15
 30
0.0
 70
     8
  0
VERTEX
  5
60F
330
5E7
100
AcDbEntity
  8
ガラス
  6
Continuous
100
AcDbVertex
100
AcDb2dVertex
 10
-26.525
 20
-14.125
 30
0.0
 70
     8
  0
VERTEX
  5
610
330
5E7
100
AcDbEntity
  8
ガラス
  6
Continuous
100
AcDbVertex
100
AcDb2dVertex
 10
-26.45
 20
-14.1
 30
0.0
 70
     8
  0
SEQEND
  5
611
330
5E7
100
AcDbEntity
  8
0
  0
POLYLINE
  5
612
330
5E6
100
AcDbEntity
  8
ガラス
  6
Continuous
100
AcDb2dPolyline
 66
     1
 10
0.0
 20
0.0
 30
0.0
 70
     4
  0
VERTEX
  5
613
330
612
100
AcDbEntity
  8
ガラス
  6
Continuous
100
AcDbVertex
100
AcDb2dVertex
 10
-26.45
 20
-14.1
 30
0.0
 70
     8
  0
VERTEX
  5
614
330
612
100
AcDbEntity
  8
ガラス
  6
Continuous
100
AcDbVertex
100
AcDb2dVertex
 10
-26.475
 20
-14.15
 30
0.0
 70
     8
  0
VERTEX
  5
615
330
612
100
AcDbEntity
  8
ガラス
  6
Continuous
100
AcDbVertex
100
AcDb2dVertex
 10
-26.475
 20
-14.175
 30
0.0
 70
     8
  0
VERTEX
  5
616
330
612
100
AcDbEntity
  8
ガラス
  6
Continuous
100
AcDbVertex
100
AcDb2dVertex
 10
-26.5
 20
-14.225
 30
0.0
 70
     8
  0
VERTEX
  5
617
330
612
100
AcDbEntity
  8
ガラス
  6
Continuous
100
AcDbVertex
100
AcDb2dVertex
 10
-26.5
 20
-14.275
 30
0.0
 70
     8
  0
VERTEX
  5
618
330
612
100
AcDbEntity
  8
ガラス
  6
Continuous
100
AcDbVertex
100
AcDb2dVertex
 10
-26.525
 20
-14.3
 30
0.0
 70
     8
  0
VERTEX
  5
619
330
612
100
AcDbEntity
  8
ガラス
  6
Continuous
100
AcDbVertex
100
AcDb2dVertex
 10
-26.525
 20
-14.35
 30
0.0
 70
     8
  0
VERTEX
  5
61A
330
612
100
AcDbEntity
  8
ガラス
  6
Continuous
100
AcDbVertex
100
AcDb2dVertex
 10
-26.55
 20
-14.4
 30
0.0
 70
     8
  0
VERTEX
  5
61B
330
612
100
AcDbEntity
  8
ガラス
  6
Continuous
100
AcDbVertex
100
AcDb2dVertex
 10
-26.55
 20
-14.425
 30
0.0
 70
     8
  0
VERTEX
  5
61C
330
612
100
AcDbEntity
  8
ガラス
  6
Continuous
100
AcDbVertex
100
AcDb2dVertex
 10
-26.575
 20
-14.475
 30
0.0
 70
     8
  0
VERTEX
  5
61D
330
612
100
AcDbEntity
  8
ガラス
  6
Continuous
100
AcDbVertex
100
AcDb2dVertex
 10
-26.575
 20
-14.525
 30
0.0
 70
     8
  0
VERTEX
  5
61E
330
612
100
AcDbEntity
  8
ガラス
  6
Continuous
100
AcDbVertex
100
AcDb2dVertex
 10
-26.575
 20
-14.55
 30
0.0
 70
     8
  0
VERTEX
  5
61F
330
612
100
AcDbEntity
  8
ガラス
  6
Continuous
100
AcDbVertex
100
AcDb2dVertex
 10
-26.6
 20
-14.6
 30
0.0
 70
     8
  0
VERTEX
  5
620
330
612
100
AcDbEntity
  8
ガラス
  6
Continuous
100
AcDbVertex
100
AcDb2dVertex
 10
-26.6
 20
-14.65
 30
0.0
 70
     8
  0
VERTEX
  5
621
330
612
100
AcDbEntity
  8
ガラス
  6
Continuous
100
AcDbVertex
100
AcDb2dVertex
 10
-26.625
 20
-14.675
 30
0.0
 70
     8
  0
VERTEX
  5
622
330
612
100
AcDbEntity
  8
ガラス
  6
Continuous
100
AcDbVertex
100
AcDb2dVertex
 10
-26.625
 20
-14.725
 30
0.0
 70
     8
  0
VERTEX
  5
623
330
612
100
AcDbEntity
  8
ガラス
  6
Continuous
100
AcDbVertex
100
AcDb2dVertex
 10
-26.625
 20
-14.775
 30
0.0
 70
     8
  0
VERTEX
  5
624
330
612
100
AcDbEntity
  8
ガラス
  6
Continuous
100
AcDbVertex
100
AcDb2dVertex
 10
-26.65
 20
-14.8
 30
0.0
 70
     8
  0
VERTEX
  5
625
330
612
100
AcDbEntity
  8
ガラス
  6
Continuous
100
AcDbVertex
100
AcDb2dVertex
 10
-26.65
 20
-14.85
 30
0.0
 70
     8
  0
VERTEX
  5
626
330
612
100
AcDbEntity
  8
ガラス
  6
Continuous
100
AcDbVertex
100
AcDb2dVertex
 10
-26.65
 20
-14.9
 30
0.0
 70
     8
  0
VERTEX
  5
627
330
612
100
AcDbEntity
  8
ガラス
  6
Continuous
100
AcDbVertex
100
AcDb2dVertex
 10
-26.65
 20
-14.925
 30
0.0
 70
     8
  0
VERTEX
  5
628
330
612
100
AcDbEntity
  8
ガラス
  6
Continuous
100
AcDbVertex
100
AcDb2dVertex
 10
-26.675
 20
-14.975
 30
0.0
 70
     8
  0
VERTEX
  5
629
330
612
100
AcDbEntity
  8
ガラス
  6
Continuous
100
AcDbVertex
100
AcDb2dVertex
 10
-26.675
 20
-15.025
 30
0.0
 70
     8
  0
VERTEX
  5
62A
330
612
100
AcDbEntity
  8
ガラス
  6
Continuous
100
AcDbVertex
100
AcDb2dVertex
 10
-26.675
 20
-15.075
 30
0.0
 70
     8
  0
VERTEX
  5
62B
330
612
100
AcDbEntity
  8
ガラス
  6
Continuous
100
AcDbVertex
100
AcDb2dVertex
 10
-26.675
 20
-15.1
 30
0.0
 70
     8
  0
VERTEX
  5
62C
330
612
100
AcDbEntity
  8
ガラス
  6
Continuous
100
AcDbVertex
100
AcDb2dVertex
 10
-26.675
 20
-15.15
 30
0.0
 70
     8
  0
VERTEX
  5
62D
330
612
100
AcDbEntity
  8
ガラス
  6
Continuous
100
AcDbVertex
100
AcDb2dVertex
 10
-26.7
 20
-15.2
 30
0.0
 70
     8
  0
VERTEX
  5
62E
330
612
100
AcDbEntity
  8
ガラス
  6
Continuous
100
AcDbVertex
100
AcDb2dVertex
 10
-26.7
 20
-15.225
 30
0.0
 70
     8
  0
VERTEX
  5
62F
330
612
100
AcDbEntity
  8
ガラス
  6
Continuous
100
AcDbVertex
100
AcDb2dVertex
 10
-26.7
 20
-15.275
 30
0.0
 70
     8
  0
VERTEX
  5
630
330
612
100
AcDbEntity
  8
ガラス
  6
Continuous
100
AcDbVertex
100
AcDb2dVertex
 10
-26.7
 20
-15.325
 30
0.0
 70
     8
  0
VERTEX
  5
631
330
612
100
AcDbEntity
  8
ガラス
  6
Continuous
100
AcDbVertex
100
AcDb2dVertex
 10
-26.7
 20
-15.375
 30
0.0
 70
     8
  0
VERTEX
  5
632
330
612
100
AcDbEntity
  8
ガラス
  6
Continuous
100
AcDbVertex
100
AcDb2dVertex
 10
-26.7
 20
-15.4
 30
0.0
 70
     8
  0
VERTEX
  5
633
330
612
100
AcDbEntity
  8
ガラス
  6
Continuous
100
AcDbVertex
100
AcDb2dVertex
 10
-26.7
 20
-15.45
 30
0.0
 70
     8
  0
VERTEX
  5
634
330
612
100
AcDbEntity
  8
ガラス
  6
Continuous
100
AcDbVertex
100
AcDb2dVertex
 10
-26.7
 20
-15.5
 30
0.0
 70
     8
  0
VERTEX
  5
635
330
612
100
AcDbEntity
  8
ガラス
  6
Continuous
100
AcDbVertex
100
AcDb2dVertex
 10
-26.7
 20
-15.525
 30
0.0
 70
     8
  0
VERTEX
  5
636
330
612
100
AcDbEntity
  8
ガラス
  6
Continuous
100
AcDbVertex
100
AcDb2dVertex
 10
-26.7
 20
-15.575
 30
0.0
 70
     8
  0
VERTEX
  5
637
330
612
100
AcDbEntity
  8
ガラス
  6
Continuous
100
AcDbVertex
100
AcDb2dVertex
 10
-26.7
 20
-15.625
 30
0.0
 70
     8
  0
VERTEX
  5
638
330
612
100
AcDbEntity
  8
ガラス
  6
Continuous
100
AcDbVertex
100
AcDb2dVertex
 10
-26.7
 20
-15.675
 30
0.0
 70
     8
  0
VERTEX
  5
639
330
612
100
AcDbEntity
  8
ガラス
  6
Continuous
100
AcDbVertex
100
AcDb2dVertex
 10
-26.7
 20
-15.7
 30
0.0
 70
     8
  0
VERTEX
  5
63A
330
612
100
AcDbEntity
  8
ガラス
  6
Continuous
100
AcDbVertex
100
AcDb2dVertex
 10
-26.7
 20
-15.75
 30
0.0
 70
     8
  0
VERTEX
  5
63B
330
612
100
AcDbEntity
  8
ガラス
  6
Continuous
100
AcDbVertex
100
AcDb2dVertex
 10
-26.7
 20
-15.8
 30
0.0
 70
     8
  0
SEQEND
  5
63C
330
612
100
AcDbEntity
  8
0
  0
ARC
  5
63D
330
5E6
100
AcDbEntity
  8
ガラス
  6
Continuous
100
AcDbCircle
 10
-27.35593
 20
-15.781394
 30
0.0
 40
0.668594
100
AcDbArc
 50
180.0
 51
0.0
  0
ENDBLK
  5
63E
330
5E6
100
AcDbEntity
  8
0
100
AcDbBlockEnd
  0
BLOCK
  5
63F
330
640
100
AcDbEntity
  8
0
100
AcDbBlockBegin
  2
*U21
 70
     1
 71
     0
 10
0.0
 20
0.0
 30
0.0
  3
*U21
  1

  0
LINE
  5
641
330
640
100
AcDbEntity
  8
ゴム等
  6
Continuous
100
AcDbLine
 10
-39.949947
 20
32.145197
 30
0.0
 11
-34.949945
 21
32.145197
 31
0.0
  0
LINE
  5
642
330
640
100
AcDbEntity
  8
ゴム等
  6
Continuous
100
AcDbLine
 10
-39.949947
 20
32.145197
 30
0.0
 11
-39.949947
 21
22.1452
 31
0.0
  0
LINE
  5
643
330
640
100
AcDbEntity
  8
ゴム等
  6
Continuous
100
AcDbLine
 10
-39.949947
 20
22.1452
 30
0.0
 11
-34.949945
 21
22.1452
 31
0.0
  0
LINE
  5
644
330
640
100
AcDbEntity
  8
ゴム等
  6
Continuous
100
AcDbLine
 10
-34.949945
 20
32.145197
 30
0.0
 11
-34.949945
 21
22.1452
 31
0.0
  0
LINE
  5
645
330
640
100
AcDbEntity
  8
ゴム等
  6
Continuous
100
AcDbLine
 10
-36.28007
 20
22.1452
 30
0.0
 11
-34.949945
 21
23.475325
 31
0.0
  0
LINE
  5
646
330
640
100
AcDbEntity
  8
ゴム等
  6
Continuous
100
AcDbLine
 10
-37.694293
 20
22.1452
 30
0.0
 11
-34.949945
 21
24.889547
 31
0.0
  0
LINE
  5
647
330
640
100
AcDbEntity
  8
ゴム等
  6
Continuous
100
AcDbLine
 10
-39.108493
 20
22.1452
 30
0.0
 11
-34.949945
 21
26.303747
 31
0.0
  0
LINE
  5
648
330
640
100
AcDbEntity
  8
ゴム等
  6
Continuous
100
AcDbLine
 10
-39.949947
 20
25.546398
 30
0.0
 11
-34.949945
 21
30.5464
 31
0.0
  0
LINE
  5
649
330
640
100
AcDbEntity
  8
ゴム等
  6
Continuous
100
AcDbLine
 10
-39.949947
 20
24.132175
 30
0.0
 11
-34.949945
 21
29.13217
 31
0.0
  0
LINE
  5
64A
330
640
100
AcDbEntity
  8
ゴム等
  6
Continuous
100
AcDbLine
 10
-39.949947
 20
22.717975
 30
0.0
 11
-34.949945
 21
27.71797
 31
0.0
  0
LINE
  5
64B
330
640
100
AcDbEntity
  8
ゴム等
  6
Continuous
100
AcDbLine
 10
-39.949947
 20
26.96062
 30
0.0
 11
-34.949945
 21
31.9606
 31
0.0
  0
LINE
  5
64C
330
640
100
AcDbEntity
  8
ゴム等
  6
Continuous
100
AcDbLine
 10
-39.949947
 20
28.37482
 30
0.0
 11
-36.17957
 21
32.145197
 31
0.0
  0
LINE
  5
64D
330
640
100
AcDbEntity
  8
ゴム等
  6
Continuous
100
AcDbLine
 10
-39.949947
 20
29.78902
 30
0.0
 11
-37.59377
 21
32.145197
 31
0.0
  0
LINE
  5
64E
330
640
100
AcDbEntity
  8
ゴム等
  6
Continuous
100
AcDbLine
 10
-39.949947
 20
31.20325
 30
0.0
 11
-39.007993
 21
32.145197
 31
0.0
  0
ENDBLK
  5
64F
330
640
100
AcDbEntity
  8
0
100
AcDbBlockEnd
  0
BLOCK
  5
650
330
651
100
AcDbEntity
  8
0
100
AcDbBlockBegin
  2
*U22
 70
     1
 71
     0
 10
0.0
 20
0.0
 30
0.0
  3
*U22
  1

  0
LINE
  5
652
330
651
100
AcDbEntity
  8
ゴム等
  6
Continuous
100
AcDbLine
 10
-9.549950000000001
 20
-43.8548
 30
0.0
 11
-10.049953
 21
-41.354803
 31
0.0
  0
LINE
  5
653
330
651
100
AcDbEntity
  8
ゴム等
  6
Continuous
100
AcDbLine
 10
-4.249947
 20
-41.354803
 30
0.0
 11
-4.74995
 21
-43.8548
 31
0.0
  0
LINE
  5
654
330
651
100
AcDbEntity
  8
ゴム等
  6
Continuous
100
AcDbLine
 10
-2.149947
 20
-36.3548
 30
0.0
 11
-2.149947
 21
-41.354803
 31
0.0
  0
LINE
  5
655
330
651
100
AcDbEntity
  8
ゴム等
  6
Continuous
100
AcDbLine
 10
-12.149953
 20
-36.3548
 30
0.0
 11
-12.149953
 21
-41.354803
 31
0.0
  0
LINE
  5
656
330
651
100
AcDbEntity
  8
ゴム等
  6
Continuous
100
AcDbLine
 10
-9.549950000000001
 20
-43.8548
 30
0.0
 11
-4.74995
 21
-43.8548
 31
0.0
  0
LINE
  5
657
330
651
100
AcDbEntity
  8
ゴム等
  6
Continuous
100
AcDbLine
 10
-2.149947
 20
-41.354803
 30
0.0
 11
-4.249947
 21
-41.354803
 31
0.0
  0
LINE
  5
658
330
651
100
AcDbEntity
  8
ゴム等
  6
Continuous
100
AcDbLine
 10
-10.049953
 20
-41.354803
 30
0.0
 11
-12.149953
 21
-41.354803
 31
0.0
  0
LINE
  5
659
330
651
100
AcDbEntity
  8
ゴム等
  6
Continuous
100
AcDbLine
 10
-7.14995
 20
-36.854803
 30
0.0
 11
-6.649947
 21
-36.3548
 31
0.0
  0
LINE
  5
65A
330
651
100
AcDbEntity
  8
ゴム等
  6
Continuous
100
AcDbLine
 10
-7.14995
 20
-36.854803
 30
0.0
 11
-7.649953
 21
-36.3548
 31
0.0
  0
LINE
  5
65B
330
651
100
AcDbEntity
  8
ゴム等
  6
Continuous
100
AcDbLine
 10
-12.149953
 20
-36.3548
 30
0.0
 11
-7.649953
 21
-36.3548
 31
0.0
  0
LINE
  5
65C
330
651
100
AcDbEntity
  8
ゴム等
  6
Continuous
100
AcDbLine
 10
-6.649947
 20
-36.3548
 30
0.0
 11
-2.149947
 21
-36.3548
 31
0.0
  0
LINE
  5
65D
330
651
100
AcDbEntity
  8
ゴム等
  6
Continuous
100
AcDbLine
 10
-12.149953
 20
-38.132488
 30
0.0
 11
-6.42764
 21
-43.8548
 31
0.0
  0
LINE
  5
65E
330
651
100
AcDbEntity
  8
ゴム等
  6
Continuous
100
AcDbLine
 10
-11.806318
 20
-36.3548
 30
0.0
 11
-4.676008
 21
-43.485102
 31
0.0
  0
LINE
  5
65F
330
651
100
AcDbEntity
  8
ゴム等
  6
Continuous
100
AcDbLine
 10
-9.684995000000001
 20
-36.3548
 30
0.0
 11
-4.322458
 21
-41.717338
 31
0.0
  0
LINE
  5
660
330
651
100
AcDbEntity
  8
ゴム等
  6
Continuous
100
AcDbLine
 10
-7.10681
 20
-36.811662
 30
0.0
 11
-2.56367
 21
-41.354803
 31
0.0
  0
LINE
  5
661
330
651
100
AcDbEntity
  8
ゴム等
  6
Continuous
100
AcDbLine
 10
-3.321035
 20
-36.3548
 30
0.0
 11
-2.149947
 21
-37.525888
 31
0.0
  0
LINE
  5
662
330
651
100
AcDbEntity
  8
ゴム等
  6
Continuous
100
AcDbLine
 10
-5.44235
 20
-36.3548
 30
0.0
 11
-2.149947
 21
-39.647203
 31
0.0
  0
LINE
  5
663
330
651
100
AcDbEntity
  8
ゴム等
  6
Continuous
100
AcDbLine
 10
-12.149953
 20
-40.253802
 30
0.0
 11
-11.048952
 21
-41.354803
 31
0.0
  0
LINE
  5
664
330
651
100
AcDbEntity
  8
ゴム等
  6
Continuous
100
AcDbLine
 10
-9.800202000000001
 20
-42.603553
 30
0.0
 11
-8.548954999999999
 21
-43.8548
 31
0.0
  0
ENDBLK
  5
665
330
651
100
AcDbEntity
  8
0
100
AcDbBlockEnd
  0
BLOCK
  5
666
330
667
100
AcDbEntity
  8
0
100
AcDbBlockBegin
  2
*U23
 70
     1
 71
     0
 10
0.0
 20
0.0
 30
0.0
  3
*U23
  1

  0
ARC
  5
668
330
667
100
AcDbEntity
  8
ゴム等
  6
Continuous
100
AcDbCircle
 10
-15.149953
 20
33.145192
 30
0.0
 40
1.0
100
AcDbArc
 50
270.0
 51
0.0
  0
LINE
  5
669
330
667
100
AcDbEntity
  8
ゴム等
  6
Continuous
100
AcDbLine
 10
-14.14994
 20
34.1452
 30
0.0
 11
-14.14994
 21
33.145195
 31
0.0
  0
ARC
  5
66A
330
667
100
AcDbEntity
  8
ゴム等
  6
Continuous
100
AcDbCircle
 10
-15.149953
 20
34.145192
 30
0.0
 40
1.0
100
AcDbArc
 50
0.0
 51
90.0
  0
LINE
  5
66B
330
667
100
AcDbEntity
  8
ゴム等
  6
Continuous
100
AcDbLine
 10
-14.14994
 20
33.865855
 30
0.0
 11
-15.870597
 21
32.145197
 31
0.0
  0
LINE
  5
66C
330
667
100
AcDbEntity
  8
ゴム等
  6
Continuous
100
AcDbLine
 10
-14.513495
 20
34.916515
 30
0.0
 11
-17.284813
 21
32.145197
 31
0.0
  0
LINE
  5
66D
330
667
100
AcDbEntity
  8
ゴム等
  6
Continuous
100
AcDbLine
 10
-21.355872
 20
35.145197
 30
0.0
 11
-24.355872
 21
32.145197
 31
0.0
  0
LINE
  5
66E
330
667
100
AcDbEntity
  8
ゴム等
  6
Continuous
100
AcDbLine
 10
-19.941658
 20
35.145197
 30
0.0
 11
-22.941658
 21
32.145197
 31
0.0
  0
LINE
  5
66F
330
667
100
AcDbEntity
  8
ゴム等
  6
Continuous
100
AcDbLine
 10
-18.527442
 20
35.145197
 30
0.0
 11
-21.527442
 21
32.145197
 31
0.0
  0
LINE
  5
670
330
667
100
AcDbEntity
  8
ゴム等
  6
Continuous
100
AcDbLine
 10
-17.113227
 20
35.145197
 30
0.0
 11
-20.113227
 21
32.145197
 31
0.0
  0
LINE
  5
671
330
667
100
AcDbEntity
  8
ゴム等
  6
Continuous
100
AcDbLine
 10
-15.699013
 20
35.145197
 30
0.0
 11
-18.699013
 21
32.145197
 31
0.0
  0
LINE
  5
672
330
667
100
AcDbEntity
  8
ゴム等
  6
Continuous
100
AcDbLine
 10
-31.255362
 20
35.145197
 30
0.0
 11
-34.255362
 21
32.145197
 31
0.0
  0
LINE
  5
673
330
667
100
AcDbEntity
  8
ゴム等
  6
Continuous
100
AcDbLine
 10
-29.841162
 20
35.145197
 30
0.0
 11
-32.841162
 21
32.145197
 31
0.0
  0
LINE
  5
674
330
667
100
AcDbEntity
  8
ゴム等
  6
Continuous
100
AcDbLine
 10
-28.426948
 20
35.145197
 30
0.0
 11
-31.426948
 21
32.145197
 31
0.0
  0
LINE
  5
675
330
667
100
AcDbEntity
  8
ゴム等
  6
Continuous
100
AcDbLine
 10
-27.012733
 20
35.145197
 30
0.0
 11
-30.012733
 21
32.145197
 31
0.0
  0
LINE
  5
676
330
667
100
AcDbEntity
  8
ゴム等
  6
Continuous
100
AcDbLine
 10
-25.598517
 20
35.145197
 30
0.0
 11
-28.598517
 21
32.145197
 31
0.0
  0
LINE
  5
677
330
667
100
AcDbEntity
  8
ゴム等
  6
Continuous
100
AcDbLine
 10
-24.184303
 20
35.145197
 30
0.0
 11
-27.184303
 21
32.145197
 31
0.0
  0
LINE
  5
678
330
667
100
AcDbEntity
  8
ゴム等
  6
Continuous
100
AcDbLine
 10
-22.770088
 20
35.145197
 30
0.0
 11
-25.770088
 21
32.145197
 31
0.0
  0
ARC
  5
679
330
667
100
AcDbEntity
  8
ゴム等
  6
Continuous
100
AcDbCircle
 10
-43.14995
 20
34.145192
 30
0.0
 40
1.0
100
AcDbArc
 50
90.0
 51
180.0
  0
LINE
  5
67A
330
667
100
AcDbEntity
  8
ゴム等
  6
Continuous
100
AcDbLine
 10
-44.14994
 20
33.145195
 30
0.0
 11
-44.14994
 21
34.1452
 31
0.0
  0
ARC
  5
67B
330
667
100
AcDbEntity
  8
ゴム等
  6
Continuous
100
AcDbCircle
 10
-43.14995
 20
33.145192
 30
0.0
 40
1.0
100
AcDbArc
 50
180.0
 51
270.0
  0
LINE
  5
67C
330
667
100
AcDbEntity
  8
ゴム等
  6
Continuous
100
AcDbLine
 10
-15.149938
 20
32.145197
 30
0.0
 11
-43.149942
 21
32.145197
 31
0.0
  0
LINE
  5
67D
330
667
100
AcDbEntity
  8
ゴム等
  6
Continuous
100
AcDbLine
 10
-15.149938
 20
35.145197
 30
0.0
 11
-43.149942
 21
35.145197
 31
0.0
  0
LINE
  5
67E
330
667
100
AcDbEntity
  8
ゴム等
  6
Continuous
100
AcDbLine
 10
-32.669578
 20
35.145197
 30
0.0
 11
-35.669578
 21
32.145197
 31
0.0
  0
LINE
  5
67F
330
667
100
AcDbEntity
  8
ゴム等
  6
Continuous
100
AcDbLine
 10
-39.740653
 20
35.145197
 30
0.0
 11
-42.740653
 21
32.145197
 31
0.0
  0
LINE
  5
680
330
667
100
AcDbEntity
  8
ゴム等
  6
Continuous
100
AcDbLine
 10
-38.326437
 20
35.145197
 30
0.0
 11
-41.326437
 21
32.145197
 31
0.0
  0
LINE
  5
681
330
667
100
AcDbEntity
  8
ゴム等
  6
Continuous
100
AcDbLine
 10
-36.912223
 20
35.145197
 30
0.0
 11
-39.912223
 21
32.145197
 31
0.0
  0
LINE
  5
682
330
667
100
AcDbEntity
  8
ゴム等
  6
Continuous
100
AcDbLine
 10
-35.498008
 20
35.145197
 30
0.0
 11
-38.498008
 21
32.145197
 31
0.0
  0
LINE
  5
683
330
667
100
AcDbEntity
  8
ゴム等
  6
Continuous
100
AcDbLine
 10
-34.083792
 20
35.145197
 30
0.0
 11
-37.083792
 21
32.145197
 31
0.0
  0
LINE
  5
684
330
667
100
AcDbEntity
  8
ゴム等
  6
Continuous
100
AcDbLine
 10
-42.569067
 20
35.145197
 30
0.0
 11
-44.14994
 21
33.564325
 31
0.0
  0
LINE
  5
685
330
667
100
AcDbEntity
  8
ゴム等
  6
Continuous
100
AcDbLine
 10
-41.154868
 20
35.145197
 30
0.0
 11
-43.85951
 21
32.440555
 31
0.0
  0
ENDBLK
  5
686
330
667
100
AcDbEntity
  8
0
100
AcDbBlockEnd
  0
BLOCK
  5
687
330
688
100
AcDbEntity
  8
0
100
AcDbBlockBegin
  2
*U24
 70
     1
 71
     0
 10
0.0
 20
0.0
 30
0.0
  3
*U24
  1

  0
ARC
  5
689
330
688
100
AcDbEntity
  8
ゴム等
  6
Continuous
100
AcDbCircle
 10
-15.149953
 20
37.648777
 30
0.0
 40
1.0
100
AcDbArc
 50
270.0
 51
0.0
  0
LINE
  5
68A
330
688
100
AcDbEntity
  8
ゴム等
  6
Continuous
100
AcDbLine
 10
-14.14994
 20
38.648785
 30
0.0
 11
-14.14994
 21
37.64878
 31
0.0
  0
ARC
  5
68B
330
688
100
AcDbEntity
  8
ゴム等
  6
Continuous
100
AcDbCircle
 10
-15.149953
 20
38.648777
 30
0.0
 40
1.0
100
AcDbArc
 50
0.0
 51
90.0
  0
LINE
  5
68C
330
688
100
AcDbEntity
  8
ゴム等
  6
Continuous
100
AcDbLine
 10
-14.14994
 20
38.36944
 30
0.0
 11
-15.870597
 21
36.648783
 31
0.0
  0
LINE
  5
68D
330
688
100
AcDbEntity
  8
ゴム等
  6
Continuous
100
AcDbLine
 10
-14.513495
 20
39.4201
 30
0.0
 11
-17.284813
 21
36.648783
 31
0.0
  0
LINE
  5
68E
330
688
100
AcDbEntity
  8
ゴム等
  6
Continuous
100
AcDbLine
 10
-21.355872
 20
39.648783
 30
0.0
 11
-24.355872
 21
36.648783
 31
0.0
  0
LINE
  5
68F
330
688
100
AcDbEntity
  8
ゴム等
  6
Continuous
100
AcDbLine
 10
-19.941658
 20
39.648783
 30
0.0
 11
-22.941658
 21
36.648783
 31
0.0
  0
LINE
  5
690
330
688
100
AcDbEntity
  8
ゴム等
  6
Continuous
100
AcDbLine
 10
-18.527442
 20
39.648783
 30
0.0
 11
-21.527442
 21
36.648783
 31
0.0
  0
LINE
  5
691
330
688
100
AcDbEntity
  8
ゴム等
  6
Continuous
100
AcDbLine
 10
-17.113227
 20
39.648783
 30
0.0
 11
-20.113227
 21
36.648783
 31
0.0
  0
LINE
  5
692
330
688
100
AcDbEntity
  8
ゴム等
  6
Continuous
100
AcDbLine
 10
-15.699013
 20
39.648783
 30
0.0
 11
-18.699013
 21
36.648783
 31
0.0
  0
LINE
  5
693
330
688
100
AcDbEntity
  8
ゴム等
  6
Continuous
100
AcDbLine
 10
-31.255362
 20
39.648783
 30
0.0
 11
-34.255362
 21
36.648783
 31
0.0
  0
LINE
  5
694
330
688
100
AcDbEntity
  8
ゴム等
  6
Continuous
100
AcDbLine
 10
-29.841162
 20
39.648783
 30
0.0
 11
-32.841162
 21
36.648783
 31
0.0
  0
LINE
  5
695
330
688
100
AcDbEntity
  8
ゴム等
  6
Continuous
100
AcDbLine
 10
-28.426948
 20
39.648783
 30
0.0
 11
-31.426948
 21
36.648783
 31
0.0
  0
LINE
  5
696
330
688
100
AcDbEntity
  8
ゴム等
  6
Continuous
100
AcDbLine
 10
-27.012733
 20
39.648783
 30
0.0
 11
-30.012733
 21
36.648783
 31
0.0
  0
LINE
  5
697
330
688
100
AcDbEntity
  8
ゴム等
  6
Continuous
100
AcDbLine
 10
-25.598517
 20
39.648783
 30
0.0
 11
-28.598517
 21
36.648783
 31
0.0
  0
LINE
  5
698
330
688
100
AcDbEntity
  8
ゴム等
  6
Continuous
100
AcDbLine
 10
-24.184303
 20
39.648783
 30
0.0
 11
-27.184303
 21
36.648783
 31
0.0
  0
LINE
  5
699
330
688
100
AcDbEntity
  8
ゴム等
  6
Continuous
100
AcDbLine
 10
-22.770088
 20
39.648783
 30
0.0
 11
-25.770088
 21
36.648783
 31
0.0
  0
ARC
  5
69A
330
688
100
AcDbEntity
  8
ゴム等
  6
Continuous
100
AcDbCircle
 10
-43.14995
 20
38.648777
 30
0.0
 40
1.0
100
AcDbArc
 50
90.0
 51
180.0
  0
LINE
  5
69B
330
688
100
AcDbEntity
  8
ゴム等
  6
Continuous
100
AcDbLine
 10
-44.14994
 20
37.64878
 30
0.0
 11
-44.14994
 21
38.648785
 31
0.0
  0
ARC
  5
69C
330
688
100
AcDbEntity
  8
ゴム等
  6
Continuous
100
AcDbCircle
 10
-43.14995
 20
37.648777
 30
0.0
 40
1.0
100
AcDbArc
 50
180.0
 51
270.0
  0
LINE
  5
69D
330
688
100
AcDbEntity
  8
ゴム等
  6
Continuous
100
AcDbLine
 10
-15.149938
 20
36.648783
 30
0.0
 11
-43.149942
 21
36.648783
 31
0.0
  0
LINE
  5
69E
330
688
100
AcDbEntity
  8
ゴム等
  6
Continuous
100
AcDbLine
 10
-15.149938
 20
39.648783
 30
0.0
 11
-43.149942
 21
39.648783
 31
0.0
  0
LINE
  5
69F
330
688
100
AcDbEntity
  8
ゴム等
  6
Continuous
100
AcDbLine
 10
-32.669578
 20
39.648783
 30
0.0
 11
-35.669578
 21
36.648783
 31
0.0
  0
LINE
  5
6A0
330
688
100
AcDbEntity
  8
ゴム等
  6
Continuous
100
AcDbLine
 10
-39.740653
 20
39.648783
 30
0.0
 11
-42.740653
 21
36.648783
 31
0.0
  0
LINE
  5
6A1
330
688
100
AcDbEntity
  8
ゴム等
  6
Continuous
100
AcDbLine
 10
-38.326437
 20
39.648783
 30
0.0
 11
-41.326437
 21
36.648783
 31
0.0
  0
LINE
  5
6A2
330
688
100
AcDbEntity
  8
ゴム等
  6
Continuous
100
AcDbLine
 10
-36.912223
 20
39.648783
 30
0.0
 11
-39.912223
 21
36.648783
 31
0.0
  0
LINE
  5
6A3
330
688
100
AcDbEntity
  8
ゴム等
  6
Continuous
100
AcDbLine
 10
-35.498008
 20
39.648783
 30
0.0
 11
-38.498008
 21
36.648783
 31
0.0
  0
LINE
  5
6A4
330
688
100
AcDbEntity
  8
ゴム等
  6
Continuous
100
AcDbLine
 10
-34.083792
 20
39.648783
 30
0.0
 11
-37.083792
 21
36.648783
 31
0.0
  0
LINE
  5
6A5
330
688
100
AcDbEntity
  8
ゴム等
  6
Continuous
100
AcDbLine
 10
-42.569067
 20
39.648783
 30
0.0
 11
-44.14994
 21
38.06791
 31
0.0
  0
LINE
  5
6A6
330
688
100
AcDbEntity
  8
ゴム等
  6
Continuous
100
AcDbLine
 10
-41.154868
 20
39.648783
 30
0.0
 11
-43.85951
 21
36.94414
 31
0.0
  0
ENDBLK
  5
6A7
330
688
100
AcDbEntity
  8
0
100
AcDbBlockEnd
  0
BLOCK
  5
6A8
330
6A9
100
AcDbEntity
  8
0
100
AcDbBlockBegin
  2
*U25
 70
     1
 71
     0
 10
0.0
 20
0.0
 30
0.0
  3
*U25
  1

  0
LWPOLYLINE
  5
6AA
330
6A9
100
AcDbEntity
  8
ゴム等
  6
DOT
100
AcDbPolyline
 90
        4
 70
     1
 43
0.0
 10
-33.949955
 20
-42.354807
 10
-43.949953
 20
-42.354807
 10
-43.949953
 20
-52.354805
 10
-33.949955
 20
-52.354805
  0
LINE
  5
6B0
330
6A9
100
AcDbEntity
  8
ゴム等
  6
DOT
100
AcDbLine
 10
-43.949953
 20
-52.354805
 30
0.0
 11
-33.949955
 21
-42.354807
 31
0.0
  0
LINE
  5
6B1
330
6A9
100
AcDbEntity
  8
ゴム等
  6
DOT
100
AcDbLine
 10
-42.43523
 20
-42.354807
 30
0.0
 11
-43.949953
 21
-43.86953
 31
0.0
  0
LINE
  5
6B2
330
6A9
100
AcDbEntity
  8
ゴム等
  6
DOT
100
AcDbLine
 10
-40.313915
 20
-42.354807
 30
0.0
 11
-43.949953
 21
-45.990845
 31
0.0
  0
LINE
  5
6B3
330
6A9
100
AcDbEntity
  8
ゴム等
  6
DOT
100
AcDbLine
 10
-38.1926
 20
-42.354807
 30
0.0
 11
-43.949953
 21
-48.11216
 31
0.0
  0
LINE
  5
6B4
330
6A9
100
AcDbEntity
  8
ゴム等
  6
DOT
100
AcDbLine
 10
-36.07127
 20
-42.354807
 30
0.0
 11
-43.949953
 21
-50.23349
 31
0.0
  0
LINE
  5
6B5
330
6A9
100
AcDbEntity
  8
ゴム等
  6
DOT
100
AcDbLine
 10
-33.949955
 20
-50.840082
 30
0.0
 11
-35.464678
 21
-52.354805
 31
0.0
  0
LINE
  5
6B6
330
6A9
100
AcDbEntity
  8
ゴム等
  6
DOT
100
AcDbLine
 10
-33.949955
 20
-48.718768
 30
0.0
 11
-37.585992
 21
-52.354805
 31
0.0
  0
LINE
  5
6B7
330
6A9
100
AcDbEntity
  8
ゴム等
  6
DOT
100
AcDbLine
 10
-33.949955
 20
-46.597452
 30
0.0
 11
-39.707308
 21
-52.354805
 31
0.0
  0
LINE
  5
6B8
330
6A9
100
AcDbEntity
  8
ゴム等
  6
DOT
100
AcDbLine
 10
-33.949955
 20
-44.476123
 30
0.0
 11
-41.828637
 21
-52.354805
 31
0.0
  0
ENDBLK
  5
6B9
330
6A9
100
AcDbEntity
  8
0
100
AcDbBlockEnd
  0
BLOCK
  5
6BA
330
6BB
100
AcDbEntity
  8
0
100
AcDbBlockBegin
  2
*U26
 70
     1
 71
     0
 10
0.0
 20
0.0
 30
0.0
  3
*U26
  1

  0
LINE
  5
6BC
330
6BB
100
AcDbEntity
  8
ゴム等
  6
Continuous
100
AcDbLine
 10
13.150052
 20
2.641427
 30
0.0
 11
13.150052
 21
-2.358575
 31
0.0
  0
LINE
  5
6BD
330
6BB
100
AcDbEntity
  8
ゴム等
  6
Continuous
100
AcDbLine
 10
13.150052
 20
2.641427
 30
0.0
 11
3.150055
 21
2.641427
 31
0.0
  0
LINE
  5
6BE
330
6BB
100
AcDbEntity
  8
ゴム等
  6
Continuous
100
AcDbLine
 10
3.150055
 20
2.641427
 30
0.0
 11
3.150055
 21
-2.358575
 31
0.0
  0
LINE
  5
6BF
330
6BB
100
AcDbEntity
  8
ゴム等
  6
Continuous
100
AcDbLine
 10
13.150052
 20
-2.358575
 30
0.0
 11
3.150055
 21
-2.358575
 31
0.0
  0
LINE
  5
6C0
330
6BB
100
AcDbEntity
  8
ゴム等
  6
Continuous
100
AcDbLine
 10
3.150055
 20
-1.02845
 30
0.0
 11
4.48018
 21
-2.358575
 31
0.0
  0
LINE
  5
6C1
330
6BB
100
AcDbEntity
  8
ゴム等
  6
Continuous
100
AcDbLine
 10
3.150055
 20
0.385772
 30
0.0
 11
5.894403
 21
-2.358575
 31
0.0
  0
LINE
  5
6C2
330
6BB
100
AcDbEntity
  8
ゴム等
  6
Continuous
100
AcDbLine
 10
3.150055
 20
1.799972
 30
0.0
 11
7.308603
 21
-2.358575
 31
0.0
  0
LINE
  5
6C3
330
6BB
100
AcDbEntity
  8
ゴム等
  6
Continuous
100
AcDbLine
 10
6.551253
 20
2.641427
 30
0.0
 11
11.551255
 21
-2.358575
 31
0.0
  0
LINE
  5
6C4
330
6BB
100
AcDbEntity
  8
ゴム等
  6
Continuous
100
AcDbLine
 10
5.13703
 20
2.641427
 30
0.0
 11
10.137025
 21
-2.358575
 31
0.0
  0
LINE
  5
6C5
330
6BB
100
AcDbEntity
  8
ゴム等
  6
Continuous
100
AcDbLine
 10
3.72283
 20
2.641427
 30
0.0
 11
8.722825
 21
-2.358575
 31
0.0
  0
LINE
  5
6C6
330
6BB
100
AcDbEntity
  8
ゴム等
  6
Continuous
100
AcDbLine
 10
7.965475
 20
2.641427
 30
0.0
 11
12.965455
 21
-2.358575
 31
0.0
  0
LINE
  5
6C7
330
6BB
100
AcDbEntity
  8
ゴム等
  6
Continuous
100
AcDbLine
 10
9.379675000000001
 20
2.641427
 30
0.0
 11
13.150052
 21
-1.12895
 31
0.0
  0
LINE
  5
6C8
330
6BB
100
AcDbEntity
  8
ゴム等
  6
Continuous
100
AcDbLine
 10
10.793875
 20
2.641427
 30
0.0
 11
13.150052
 21
0.28525
 31
0.0
  0
LINE
  5
6C9
330
6BB
100
AcDbEntity
  8
ゴム等
  6
Continuous
100
AcDbLine
 10
12.208105
 20
2.641427
 30
0.0
 11
13.150052
 21
1.699473
 31
0.0
  0
ENDBLK
  5
6CA
330
6BB
100
AcDbEntity
  8
0
100
AcDbBlockEnd
  0
BLOCK
  5
6CB
330
6CC
100
AcDbEntity
  8
0
100
AcDbBlockBegin
  2
*U27
 70
     1
 71
     0
 10
0.0
 20
0.0
 30
0.0
  3
*U27
  1

  0
LINE
  5
6CD
330
6CC
100
AcDbEntity
  8
ボルト／ビス
  6
Continuous
100
AcDbLine
 10
-36.649955
 20
42.652368
 30
0.0
 11
-36.649955
 21
44.652377
 31
0.0
  0
LINE
  5
6CE
330
6CC
100
AcDbEntity
  8
ボルト／ビス
  6
Continuous
100
AcDbLine
 10
-36.649955
 20
44.652377
 30
0.0
 11
-14.64995
 21
44.652377
 31
0.0
  0
LINE
  5
6CF
330
6CC
100
AcDbEntity
  8
ボルト／ビス
  6
Continuous
100
AcDbLine
 10
-14.64995
 20
44.652377
 30
0.0
 11
-14.64995
 21
42.652368
 31
0.0
  0
LINE
  5
6D0
330
6CC
100
AcDbEntity
  8
ボルト／ビス
  6
Continuous
100
AcDbLine
 10
-36.649955
 20
42.652368
 30
0.0
 11
-14.64995
 21
42.652368
 31
0.0
  0
LINE
  5
6D1
330
6CC
100
AcDbEntity
  8
ボルト／ビス
  6
Continuous
100
AcDbLine
 10
-34.649953
 20
45.652368
 30
0.0
 11
-34.649953
 21
44.652377
 31
0.0
  0
LINE
  5
6D2
330
6CC
100
AcDbEntity
  8
ボルト／ビス
  6
Continuous
100
AcDbLine
 10
-34.649953
 20
45.652368
 30
0.0
 11
-16.649953
 21
45.652368
 31
0.0
  0
LINE
  5
6D3
330
6CC
100
AcDbEntity
  8
ボルト／ビス
  6
Continuous
100
AcDbLine
 10
-16.649953
 20
45.652368
 30
0.0
 11
-16.649953
 21
44.652377
 31
0.0
  0
LINE
  5
6D4
330
6CC
100
AcDbEntity
  8
ボルト／ビス
  6
Continuous
 62
    64
100
AcDbLine
 10
-30.46121
 20
51.652368
 30
0.0
 11
-31.42346
 21
51.30214
 31
0.0
  0
ARC
  5
6D5
330
6CC
100
AcDbEntity
  8
ボルト／ビス
  6
Continuous
 62
    64
100
AcDbCircle
 10
-29.980078
 20
48.503015
 30
0.0
 40
3.149352
100
AcDbArc
 50
62.721967
 51
90.0
  0
ARC
  5
6D6
330
6CC
100
AcDbEntity
  8
ボルト／ビス
  6
Continuous
 62
    64
100
AcDbCircle
 10
-25.649951
 20
39.5803
 30
0.0
 40
12.072067
100
AcDbArc
 50
76.165002
 51
103.834985
  0
LINE
  5
6D7
330
6CC
100
AcDbEntity
  8
ボルト／ビス
  6
Continuous
 62
    64
100
AcDbLine
 10
-20.838703
 20
51.652368
 30
0.0
 11
-19.876452
 21
51.30214
 31
0.0
  0
ARC
  5
6D8
330
6CC
100
AcDbEntity
  8
ボルト／ビス
  6
Continuous
 62
    64
100
AcDbCircle
 10
-21.319823
 20
48.503015
 30
0.0
 40
3.149352
100
AcDbArc
 50
90.0
 51
117.278033
  0
LINE
  5
6D9
330
6CC
100
AcDbEntity
  8
ボルト／ビス
  6
Continuous
 62
    64
100
AcDbLine
 10
-30.46121
 20
51.652368
 30
0.0
 11
-20.838703
 21
51.652368
 31
0.0
  0
LINE
  5
6DA
330
6CC
100
AcDbEntity
  8
ボルト／ビス
  6
Continuous
 62
    64
100
AcDbLine
 10
-19.876452
 20
51.30214
 30
0.0
 11
-19.876452
 21
47.652377
 31
0.0
  0
LINE
  5
6DB
330
6CC
100
AcDbEntity
  8
ボルト／ビス
  6
Continuous
 62
    64
100
AcDbLine
 10
-22.763202
 20
51.30214
 30
0.0
 11
-22.763202
 21
47.652377
 31
0.0
  0
LINE
  5
6DC
330
6CC
100
AcDbEntity
  8
ボルト／ビス
  6
Continuous
 62
    64
100
AcDbLine
 10
-31.42346
 20
51.30214
 30
0.0
 11
-31.42346
 21
47.652377
 31
0.0
  0
LINE
  5
6DD
330
6CC
100
AcDbEntity
  8
ボルト／ビス
  6
Continuous
 62
    64
100
AcDbLine
 10
-28.536702
 20
51.30214
 30
0.0
 11
-28.536702
 21
47.652377
 31
0.0
  0
LINE
  5
6DE
330
6CC
100
AcDbEntity
  8
ボルト／ビス
  6
Continuous
 62
    64
100
AcDbLine
 10
-27.949955
 20
17.652377
 30
0.0
 11
-23.34995
 21
17.652377
 31
0.0
  0
LINE
  5
6DF
330
6CC
100
AcDbEntity
  8
ボルト／ビス
  6
Continuous
 62
    64
100
AcDbLine
 10
-22.649953
 20
18.652368
 30
0.0
 11
-23.34995
 21
17.652377
 31
0.0
  0
LINE
  5
6E0
330
6CC
100
AcDbEntity
  8
ボルト／ビス
  6
Continuous
 62
    64
100
AcDbLine
 10
-28.649953
 20
18.652368
 30
0.0
 11
-27.949955
 21
17.652377
 31
0.0
  0
LINE
  5
6E1
330
6CC
100
AcDbEntity
  8
ボルト／ビス
  6
Continuous
 62
    64
100
AcDbLine
 10
-28.649953
 20
18.652368
 30
0.0
 11
-22.649953
 21
18.652368
 31
0.0
  0
LINE
  5
6E2
330
6CC
100
AcDbEntity
  8
ボルト／ビス
  6
Continuous
 62
    64
100
AcDbLine
 10
-27.949955
 20
17.652377
 30
0.0
 11
-23.34995
 21
17.652377
 31
0.0
  0
LINE
  5
6E3
330
6CC
100
AcDbEntity
  8
ボルト／ビス
  6
Continuous
100
AcDbLine
 10
-31.42346
 20
47.652377
 30
0.0
 11
-19.876452
 21
47.652377
 31
0.0
  0
LINE
  5
6E4
330
6CC
100
AcDbEntity
  8
ボルト／ビス
  6
Continuous
100
AcDbLine
 10
-31.649953
 20
47.652377
 30
0.0
 11
-31.649953
 21
45.652368
 31
0.0
  0
LINE
  5
6E5
330
6CC
100
AcDbEntity
  8
ボルト／ビス
  6
Continuous
100
AcDbLine
 10
-31.649953
 20
47.652377
 30
0.0
 11
-19.649953
 21
47.652377
 31
0.0
  0
LINE
  5
6E6
330
6CC
100
AcDbEntity
  8
ボルト／ビス
  6
Continuous
100
AcDbLine
 10
-19.649953
 20
47.652377
 30
0.0
 11
-19.649953
 21
45.652368
 31
0.0
  0
LINE
  5
6E7
330
6CC
100
AcDbEntity
  8
ボルト／ビス
  6
Continuous
 62
    64
100
AcDbLine
 10
-23.34995
 20
42.652368
 30
0.0
 11
-23.34995
 21
17.652377
 31
0.0
  0
LINE
  5
6E8
330
6CC
100
AcDbEntity
  8
ボルト／ビス
  6
Continuous
 62
    64
100
AcDbLine
 10
-27.949955
 20
42.652368
 30
0.0
 11
-27.949955
 21
17.652377
 31
0.0
  0
LINE
  5
6E9
330
6CC
100
AcDbEntity
  8
ボルト／ビス
  6
Continuous
 62
    64
100
AcDbLine
 10
-28.649953
 20
42.652368
 30
0.0
 11
-28.649953
 21
18.652368
 31
0.0
  0
LINE
  5
6EA
330
6CC
100
AcDbEntity
  8
ボルト／ビス
  6
Continuous
 62
    64
100
AcDbLine
 10
-22.649953
 20
42.652368
 30
0.0
 11
-22.649953
 21
18.652368
 31
0.0
  0
ENDBLK
  5
6EB
330
6CC
100
AcDbEntity
  8
0
100
AcDbBlockEnd
  0
BLOCK
  5
6EC
330
6ED
100
AcDbEntity
  8
0
100
AcDbBlockBegin
  2
*U28
 70
     1
 71
     0
 10
0.0
 20
0.0
 30
0.0
  3
*U28
  1

  0
LINE
  5
6EE
330
6ED
100
AcDbEntity
  8
ボルト／ビス
  6
Continuous
 62
    64
100
AcDbLine
 10
-41.649942
 20
30.645183
 30
0.0
 11
-42.698105
 21
30.55348
 31
0.0
  0
ARC
  5
6EF
330
6ED
100
AcDbEntity
  8
ボルト／ビス
  6
Continuous
 62
    64
100
AcDbCircle
 10
-42.549939
 20
28.859954
 30
0.0
 40
1.7
100
AcDbArc
 50
94.999989
 51
180.0
  0
LINE
  5
6F0
330
6ED
100
AcDbEntity
  8
ボルト／ビス
  6
Continuous
 62
    64
100
AcDbLine
 10
-44.249938
 20
28.85995
 30
0.0
 11
-44.249938
 21
27.145188
 31
0.0
  0
LINE
  5
6F1
330
6ED
100
AcDbEntity
  8
ボルト／ビス
  6
Continuous
 62
    64
100
AcDbLine
 10
-41.649942
 20
23.645185
 30
0.0
 11
-42.698105
 21
23.736888
 31
0.0
  0
ARC
  5
6F2
330
6ED
100
AcDbEntity
  8
ボルト／ビス
  6
Continuous
 62
    64
100
AcDbCircle
 10
-42.549939
 20
25.430421
 30
0.0
 40
1.7
100
AcDbArc
 50
180.0
 51
265.000011
  0
LINE
  5
6F3
330
6ED
100
AcDbEntity
  8
ボルト／ビス
  6
Continuous
 62
    64
100
AcDbLine
 10
-44.249938
 20
25.430417
 30
0.0
 11
-44.249938
 21
27.145188
 31
0.0
  0
LINE
  5
6F4
330
6ED
100
AcDbEntity
  8
ボルト／ビス
  6
Continuous
 62
    64
100
AcDbLine
 10
-43.865038
 20
29.541828
 30
0.0
 11
-44.107197
 21
29.541828
 31
0.0
  0
LINE
  5
6F5
330
6ED
100
AcDbEntity
  8
ボルト／ビス
  6
Continuous
 62
    64
100
AcDbLine
 10
-43.214952
 20
27.845185
 30
0.0
 11
-43.214952
 21
27.145188
 31
0.0
  0
LINE
  5
6F6
330
6ED
100
AcDbEntity
  8
ボルト／ビス
  6
Continuous
 62
    64
100
AcDbLine
 10
-43.865038
 20
28.245183
 30
0.0
 11
-43.865038
 21
29.541828
 31
0.0
  0
LINE
  5
6F7
330
6ED
100
AcDbEntity
  8
ボルト／ビス
  6
Continuous
 62
    64
100
AcDbLine
 10
-43.214952
 20
27.845185
 30
0.0
 11
-43.465032
 21
27.845185
 31
0.0
  0
ARC
  5
6F8
330
6ED
100
AcDbEntity
  8
ボルト／ビス
  6
Continuous
 62
    64
100
AcDbCircle
 10
-43.465034
 20
28.245187
 30
0.0
 40
0.4
100
AcDbArc
 50
180.0
 51
270.0
  0
LINE
  5
6F9
330
6ED
100
AcDbEntity
  8
ボルト／ビス
  6
Continuous
 62
    64
100
AcDbLine
 10
-43.865038
 20
24.748547
 30
0.0
 11
-44.107197
 21
24.748547
 31
0.0
  0
LINE
  5
6FA
330
6ED
100
AcDbEntity
  8
ボルト／ビス
  6
Continuous
 62
    64
100
AcDbLine
 10
-43.214952
 20
26.445183
 30
0.0
 11
-43.214952
 21
27.145188
 31
0.0
  0
LINE
  5
6FB
330
6ED
100
AcDbEntity
  8
ボルト／ビス
  6
Continuous
 62
    64
100
AcDbLine
 10
-43.865038
 20
26.045185
 30
0.0
 11
-43.865038
 21
24.748547
 31
0.0
  0
LINE
  5
6FC
330
6ED
100
AcDbEntity
  8
ボルト／ビス
  6
Continuous
 62
    64
100
AcDbLine
 10
-43.214952
 20
26.445183
 30
0.0
 11
-43.465032
 21
26.445183
 31
0.0
  0
ARC
  5
6FD
330
6ED
100
AcDbEntity
  8
ボルト／ビス
  6
Continuous
 62
    64
100
AcDbCircle
 10
-43.465034
 20
26.045187
 30
0.0
 40
0.4
100
AcDbArc
 50
90.0
 51
180.0
  0
LINE
  5
6FE
330
6ED
100
AcDbEntity
  8
ボルト／ビス
  6
Continuous
 62
    64
100
AcDbLine
 10
-41.649942
 20
30.645183
 30
0.0
 11
-41.649942
 21
23.645185
 31
0.0
  0
LINE
  5
6FF
330
6ED
100
AcDbEntity
  8
ボルト／ビス
  6
Continuous
 62
    64
100
AcDbLine
 10
-30.149938
 20
29.145183
 30
0.0
 11
-29.649942
 21
28.645188
 31
0.0
  0
LINE
  5
700
330
6ED
100
AcDbEntity
  8
ボルト／ビス
  6
Continuous
 62
    64
100
AcDbLine
 10
-30.149938
 20
25.145185
 30
0.0
 11
-29.649942
 21
25.645188
 31
0.0
  0
LINE
  5
701
330
6ED
100
AcDbEntity
  8
ボルト／ビス
  6
Continuous
 62
    64
100
AcDbLine
 10
-30.149938
 20
29.145183
 30
0.0
 11
-30.149938
 21
25.145185
 31
0.0
  0
LINE
  5
702
330
6ED
100
AcDbEntity
  8
ボルト／ビス
  6
Continuous
 62
    64
100
AcDbLine
 10
-29.649942
 20
28.645188
 30
0.0
 11
-29.649942
 21
25.645188
 31
0.0
  0
LINE
  5
703
330
6ED
100
AcDbEntity
  8
ボルト／ビス
  6
Continuous
 62
    64
100
AcDbLine
 10
-41.649942
 20
28.645188
 30
0.0
 11
-29.649942
 21
28.645188
 31
0.0
  0
LINE
  5
704
330
6ED
100
AcDbEntity
  8
ボルト／ビス
  6
Continuous
 62
    64
100
AcDbLine
 10
-41.649942
 20
25.645188
 30
0.0
 11
-29.649942
 21
25.645188
 31
0.0
  0
LINE
  5
705
330
6ED
100
AcDbEntity
  8
ボルト／ビス
  6
Continuous
 62
    64
100
AcDbLine
 10
-41.649942
 20
25.145185
 30
0.0
 11
-30.149938
 21
25.145185
 31
0.0
  0
LINE
  5
706
330
6ED
100
AcDbEntity
  8
ボルト／ビス
  6
Continuous
 62
    64
100
AcDbLine
 10
-41.649942
 20
29.145183
 30
0.0
 11
-30.149938
 21
29.145183
 31
0.0
  0
LINE
  5
707
330
6ED
100
AcDbEntity
  8
ボルト／ビス
  6
DASHDOT
 62
    64
100
AcDbLine
 10
-47.249938
 20
27.145188
 30
0.0
 11
-26.649942
 21
27.145188
 31
0.0
  0
ENDBLK
  5
708
330
6ED
100
AcDbEntity
  8
0
100
AcDbBlockEnd
  0
BLOCK
  5
709
330
70A
100
AcDbEntity
  8
0
100
AcDbBlockBegin
  2
*U29
 70
     1
 71
     0
 10
0.0
 20
0.0
 30
0.0
  3
*U29
  1

  0
LINE
  5
70B
330
70A
100
AcDbEntity
  8
ボルト／ビス
  6
Continuous
 62
    64
100
AcDbLine
 10
-3.649947
 20
-45.85481
 30
0.0
 11
-3.74165
 21
-46.90298
 31
0.0
  0
ARC
  5
70C
330
70A
100
AcDbEntity
  8
ボルト／ビス
  6
Continuous
 62
    64
100
AcDbCircle
 10
-5.435189
 20
-46.754805
 30
0.0
 40
1.7
100
AcDbArc
 50
270.0
 51
355.000011
  0
LINE
  5
70D
330
70A
100
AcDbEntity
  8
ボルト／ビス
  6
Continuous
 62
    64
100
AcDbLine
 10
-5.43518
 20
-48.454813
 30
0.0
 11
-7.14995
 21
-48.454813
 31
0.0
  0
LINE
  5
70E
330
70A
100
AcDbEntity
  8
ボルト／ビス
  6
Continuous
 62
    64
100
AcDbLine
 10
-10.649945
 20
-45.85481
 30
0.0
 11
-10.558242
 21
-46.90298
 31
0.0
  0
ARC
  5
70F
330
70A
100
AcDbEntity
  8
ボルト／ビス
  6
Continuous
 62
    64
100
AcDbCircle
 10
-8.864722
 20
-46.754805
 30
0.0
 40
1.7
100
AcDbArc
 50
184.999989
 51
270.0
  0
LINE
  5
710
330
70A
100
AcDbEntity
  8
ボルト／ビス
  6
Continuous
 62
    64
100
AcDbLine
 10
-8.864713
 20
-48.454813
 30
0.0
 11
-7.14995
 21
-48.454813
 31
0.0
  0
LINE
  5
711
330
70A
100
AcDbEntity
  8
ボルト／ビス
  6
Continuous
 62
    64
100
AcDbLine
 10
-4.75331
 20
-48.069905
 30
0.0
 11
-4.75331
 21
-48.312072
 31
0.0
  0
LINE
  5
712
330
70A
100
AcDbEntity
  8
ボルト／ビス
  6
Continuous
 62
    64
100
AcDbLine
 10
-6.449945
 20
-47.419827
 30
0.0
 11
-7.14995
 21
-47.419827
 31
0.0
  0
LINE
  5
713
330
70A
100
AcDbEntity
  8
ボルト／ビス
  6
Continuous
 62
    64
100
AcDbLine
 10
-6.049947
 20
-48.069905
 30
0.0
 11
-4.75331
 21
-48.069905
 31
0.0
  0
LINE
  5
714
330
70A
100
AcDbEntity
  8
ボルト／ビス
  6
Continuous
 62
    64
100
AcDbLine
 10
-6.449945
 20
-47.419827
 30
0.0
 11
-6.449945
 21
-47.669908
 31
0.0
  0
ARC
  5
715
330
70A
100
AcDbEntity
  8
ボルト／ビス
  6
Continuous
 62
    64
100
AcDbCircle
 10
-6.049955
 20
-47.6699
 30
0.0
 40
0.4
100
AcDbArc
 50
180.0
 51
270.0
  0
LINE
  5
716
330
70A
100
AcDbEntity
  8
ボルト／ビス
  6
Continuous
 62
    64
100
AcDbLine
 10
-9.54659
 20
-48.069905
 30
0.0
 11
-9.54659
 21
-48.312072
 31
0.0
  0
LINE
  5
717
330
70A
100
AcDbEntity
  8
ボルト／ビス
  6
Continuous
 62
    64
100
AcDbLine
 10
-7.849947
 20
-47.419827
 30
0.0
 11
-7.14995
 21
-47.419827
 31
0.0
  0
LINE
  5
718
330
70A
100
AcDbEntity
  8
ボルト／ビス
  6
Continuous
 62
    64
100
AcDbLine
 10
-8.249945
 20
-48.069905
 30
0.0
 11
-9.54659
 21
-48.069905
 31
0.0
  0
LINE
  5
719
330
70A
100
AcDbEntity
  8
ボルト／ビス
  6
Continuous
 62
    64
100
AcDbLine
 10
-7.849947
 20
-47.419827
 30
0.0
 11
-7.849947
 21
-47.669908
 31
0.0
  0
ARC
  5
71A
330
70A
100
AcDbEntity
  8
ボルト／ビス
  6
Continuous
 62
    64
100
AcDbCircle
 10
-8.249955
 20
-47.6699
 30
0.0
 40
0.4
100
AcDbArc
 50
270.0
 51
0.0
  0
LINE
  5
71B
330
70A
100
AcDbEntity
  8
ボルト／ビス
  6
Continuous
 62
    64
100
AcDbLine
 10
-3.649947
 20
-45.85481
 30
0.0
 11
-10.649945
 21
-45.85481
 31
0.0
  0
LINE
  5
71C
330
70A
100
AcDbEntity
  8
ボルト／ビス
  6
Continuous
 62
    64
100
AcDbLine
 10
-7.14995
 20
-50.426203
 30
0.0
 11
-7.14995
 21
-30.211542
 31
0.0
  0
LINE
  5
71D
330
70A
100
AcDbEntity
  8
ボルト／ビス
  6
Continuous
 62
    64
100
AcDbLine
 10
-5.149947
 20
-32.35481
 30
0.0
 11
-5.64995
 21
-31.854815
 31
0.0
  0
LINE
  5
71E
330
70A
100
AcDbEntity
  8
ボルト／ビス
  6
Continuous
 62
    64
100
AcDbLine
 10
-9.149945000000001
 20
-32.35481
 30
0.0
 11
-8.649950000000001
 21
-31.854815
 31
0.0
  0
LINE
  5
71F
330
70A
100
AcDbEntity
  8
ボルト／ビス
  6
Continuous
 62
    64
100
AcDbLine
 10
-5.149947
 20
-32.35481
 30
0.0
 11
-9.149945000000001
 21
-32.35481
 31
0.0
  0
LINE
  5
720
330
70A
100
AcDbEntity
  8
ボルト／ビス
  6
Continuous
 62
    64
100
AcDbLine
 10
-5.64995
 20
-31.854815
 30
0.0
 11
-8.649950000000001
 21
-31.854815
 31
0.0
  0
LINE
  5
721
330
70A
100
AcDbEntity
  8
ボルト／ビス
  6
Continuous
 62
    64
100
AcDbLine
 10
-9.149945000000001
 20
-45.85481
 30
0.0
 11
-9.149945000000001
 21
-32.35481
 31
0.0
  0
LINE
  5
722
330
70A
100
AcDbEntity
  8
ボルト／ビス
  6
Continuous
 62
    64
100
AcDbLine
 10
-5.149947
 20
-45.85481
 30
0.0
 11
-5.149947
 21
-32.35481
 31
0.0
  0
LINE
  5
723
330
70A
100
AcDbEntity
  8
ボルト／ビス
  6
Continuous
 62
    64
100
AcDbLine
 10
-5.64995
 20
-45.85481
 30
0.0
 11
-5.64995
 21
-31.854815
 31
0.0
  0
LINE
  5
724
330
70A
100
AcDbEntity
  8
ボルト／ビス
  6
Continuous
 62
    64
100
AcDbLine
 10
-8.649950000000001
 20
-45.85481
 30
0.0
 11
-8.649950000000001
 21
-31.854815
 31
0.0
  0
ENDBLK
  5
725
330
70A
100
AcDbEntity
  8
0
100
AcDbBlockEnd
  0
BLOCK
  5
726
330
727
100
AcDbEntity
  8
0
100
AcDbBlockBegin
  2
*U30
 70
     1
 71
     0
 10
0.0
 20
0.0
 30
0.0
  3
*U30
  1

  0
LINE
  5
728
330
727
100
AcDbEntity
  8
ボルト／ビス
  6
Continuous
 62
    64
100
AcDbLine
 10
-21.149953
 20
-77.454688
 30
0.0
 11
-21.05825
 21
-78.50285
 31
0.0
  0
ARC
  5
729
330
727
100
AcDbEntity
  8
ボルト／ビス
  6
Continuous
 62
    64
100
AcDbCircle
 10
-19.364721
 20
-78.354681
 30
0.0
 40
1.7
100
AcDbArc
 50
184.999989
 51
270.0
  0
LINE
  5
72A
330
727
100
AcDbEntity
  8
ボルト／ビス
  6
Continuous
 62
    64
100
AcDbLine
 10
-19.36472
 20
-80.05468999999999
 30
0.0
 11
-17.64995
 21
-80.05468999999999
 31
0.0
  0
LINE
  5
72B
330
727
100
AcDbEntity
  8
ボルト／ビス
  6
Continuous
 62
    64
100
AcDbLine
 10
-14.149947
 20
-77.454688
 30
0.0
 11
-14.24165
 21
-78.50285
 31
0.0
  0
ARC
  5
72C
330
727
100
AcDbEntity
  8
ボルト／ビス
  6
Continuous
 62
    64
100
AcDbCircle
 10
-15.935188
 20
-78.354681
 30
0.0
 40
1.7
100
AcDbArc
 50
270.0
 51
355.000011
  0
LINE
  5
72D
330
727
100
AcDbEntity
  8
ボルト／ビス
  6
Continuous
 62
    64
100
AcDbLine
 10
-15.93518
 20
-80.05468999999999
 30
0.0
 11
-17.64995
 21
-80.05468999999999
 31
0.0
  0
LINE
  5
72E
330
727
100
AcDbEntity
  8
ボルト／ビス
  6
Continuous
 62
    64
100
AcDbLine
 10
-20.04659
 20
-79.669783
 30
0.0
 11
-20.04659
 21
-79.911942
 31
0.0
  0
LINE
  5
72F
330
727
100
AcDbEntity
  8
ボルト／ビス
  6
Continuous
 62
    64
100
AcDbLine
 10
-18.349947
 20
-79.01969699999999
 30
0.0
 11
-17.64995
 21
-79.01969699999999
 31
0.0
  0
LINE
  5
730
330
727
100
AcDbEntity
  8
ボルト／ビス
  6
Continuous
 62
    64
100
AcDbLine
 10
-18.749953
 20
-79.669783
 30
0.0
 11
-20.04659
 21
-79.669783
 31
0.0
  0
LINE
  5
731
330
727
100
AcDbEntity
  8
ボルト／ビス
  6
Continuous
 62
    64
100
AcDbLine
 10
-18.349947
 20
-79.01969699999999
 30
0.0
 11
-18.349947
 21
-79.269785
 31
0.0
  0
ARC
  5
732
330
727
100
AcDbEntity
  8
ボルト／ビス
  6
Continuous
 62
    64
100
AcDbCircle
 10
-18.749955
 20
-79.26977599999999
 30
0.0
 40
0.4
100
AcDbArc
 50
270.0
 51
0.0
  0
LINE
  5
733
330
727
100
AcDbEntity
  8
ボルト／ビス
  6
Continuous
 62
    64
100
AcDbLine
 10
-15.25331
 20
-79.669783
 30
0.0
 11
-15.25331
 21
-79.911942
 31
0.0
  0
LINE
  5
734
330
727
100
AcDbEntity
  8
ボルト／ビス
  6
Continuous
 62
    64
100
AcDbLine
 10
-16.949953
 20
-79.01969699999999
 30
0.0
 11
-17.64995
 21
-79.01969699999999
 31
0.0
  0
LINE
  5
735
330
727
100
AcDbEntity
  8
ボルト／ビス
  6
Continuous
 62
    64
100
AcDbLine
 10
-16.549947
 20
-79.669783
 30
0.0
 11
-15.25331
 21
-79.669783
 31
0.0
  0
LINE
  5
736
330
727
100
AcDbEntity
  8
ボルト／ビス
  6
Continuous
 62
    64
100
AcDbLine
 10
-16.949953
 20
-79.01969699999999
 30
0.0
 11
-16.949953
 21
-79.269785
 31
0.0
  0
ARC
  5
737
330
727
100
AcDbEntity
  8
ボルト／ビス
  6
Continuous
 62
    64
100
AcDbCircle
 10
-16.549955
 20
-79.26977599999999
 30
0.0
 40
0.4
100
AcDbArc
 50
180.0
 51
270.0
  0
LINE
  5
738
330
727
100
AcDbEntity
  8
ボルト／ビス
  6
Continuous
 62
    64
100
AcDbLine
 10
-21.149953
 20
-77.454688
 30
0.0
 11
-14.149947
 21
-77.454688
 31
0.0
  0
LINE
  5
739
330
727
100
AcDbEntity
  8
ボルト／ビス
  6
Continuous
 62
    64
100
AcDbLine
 10
-19.649953
 20
-67.954685
 30
0.0
 11
-19.14995
 21
-67.45469
 31
0.0
  0
LINE
  5
73A
330
727
100
AcDbEntity
  8
ボルト／ビス
  6
Continuous
 62
    64
100
AcDbLine
 10
-15.649947
 20
-67.954685
 30
0.0
 11
-16.14995
 21
-67.45469
 31
0.0
  0
LINE
  5
73B
330
727
100
AcDbEntity
  8
ボルト／ビス
  6
Continuous
 62
    64
100
AcDbLine
 10
-19.649953
 20
-67.954685
 30
0.0
 11
-15.649947
 21
-67.954685
 31
0.0
  0
LINE
  5
73C
330
727
100
AcDbEntity
  8
ボルト／ビス
  6
Continuous
 62
    64
100
AcDbLine
 10
-19.14995
 20
-67.45469
 30
0.0
 11
-16.14995
 21
-67.45469
 31
0.0
  0
LINE
  5
73D
330
727
100
AcDbEntity
  8
ボルト／ビス
  6
Continuous
 62
    64
100
AcDbLine
 10
-17.64995
 20
-82.026073
 30
0.0
 11
-17.64995
 21
-65.879817
 31
0.0
  0
LINE
  5
73E
330
727
100
AcDbEntity
  8
ボルト／ビス
  6
Continuous
 62
    64
100
AcDbLine
 10
-19.649953
 20
-77.454688
 30
0.0
 11
-19.649953
 21
-67.954685
 31
0.0
  0
LINE
  5
73F
330
727
100
AcDbEntity
  8
ボルト／ビス
  6
Continuous
 62
    64
100
AcDbLine
 10
-15.649947
 20
-77.454688
 30
0.0
 11
-15.649947
 21
-67.954685
 31
0.0
  0
LINE
  5
740
330
727
100
AcDbEntity
  8
ボルト／ビス
  6
Continuous
 62
    64
100
AcDbLine
 10
-16.14995
 20
-77.454688
 30
0.0
 11
-16.14995
 21
-67.45469
 31
0.0
  0
LINE
  5
741
330
727
100
AcDbEntity
  8
ボルト／ビス
  6
Continuous
 62
    64
100
AcDbLine
 10
-19.14995
 20
-77.454688
 30
0.0
 11
-19.14995
 21
-67.45469
 31
0.0
  0
ENDBLK
  5
742
330
727
100
AcDbEntity
  8
0
100
AcDbBlockEnd
  0
BLOCK
  5
743
330
744
100
AcDbEntity
  8
0
100
AcDbBlockBegin
  2
*U31
 70
     1
 71
     0
 10
0.0
 20
0.0
 30
0.0
  3
*U31
  1

  0
LINE
  5
745
330
744
100
AcDbEntity
  8
ボルト／ビス
  6
Continuous
 62
    64
100
AcDbLine
 10
-72.649925
 20
-75.55481
 30
0.0
 11
-72.558223
 21
-76.60297300000001
 31
0.0
  0
ARC
  5
746
330
744
100
AcDbEntity
  8
ボルト／ビス
  6
Continuous
 62
    64
100
AcDbCircle
 10
-70.86469099999999
 20
-76.454802
 30
0.0
 40
1.7
100
AcDbArc
 50
184.999989
 51
270.0
  0
LINE
  5
747
330
744
100
AcDbEntity
  8
ボルト／ビス
  6
Continuous
 62
    64
100
AcDbLine
 10
-70.864693
 20
-78.154813
 30
0.0
 11
-69.149922
 21
-78.154813
 31
0.0
  0
LINE
  5
748
330
744
100
AcDbEntity
  8
ボルト／ビス
  6
Continuous
 62
    64
100
AcDbLine
 10
-65.64992
 20
-75.55481
 30
0.0
 11
-65.74162200000001
 21
-76.60297300000001
 31
0.0
  0
ARC
  5
749
330
744
100
AcDbEntity
  8
ボルト／ビス
  6
Continuous
 62
    64
100
AcDbCircle
 10
-67.435158
 20
-76.454802
 30
0.0
 40
1.7
100
AcDbArc
 50
270.0
 51
355.000011
  0
LINE
  5
74A
330
744
100
AcDbEntity
  8
ボルト／ビス
  6
Continuous
 62
    64
100
AcDbLine
 10
-67.435153
 20
-78.154813
 30
0.0
 11
-69.149922
 21
-78.154813
 31
0.0
  0
LINE
  5
74B
330
744
100
AcDbEntity
  8
ボルト／ビス
  6
Continuous
 62
    64
100
AcDbLine
 10
-71.54656199999999
 20
-77.76990499999999
 30
0.0
 11
-71.54656199999999
 21
-78.01206500000001
 31
0.0
  0
LINE
  5
74C
330
744
100
AcDbEntity
  8
ボルト／ビス
  6
Continuous
 62
    64
100
AcDbLine
 10
-69.84992
 20
-77.11982
 30
0.0
 11
-69.149922
 21
-77.11982
 31
0.0
  0
LINE
  5
74D
330
744
100
AcDbEntity
  8
ボルト／ビス
  6
Continuous
 62
    64
100
AcDbLine
 10
-70.24992500000001
 20
-77.76990499999999
 30
0.0
 11
-71.54656199999999
 21
-77.76990499999999
 31
0.0
  0
LINE
  5
74E
330
744
100
AcDbEntity
  8
ボルト／ビス
  6
Continuous
 62
    64
100
AcDbLine
 10
-69.84992
 20
-77.11982
 30
0.0
 11
-69.84992
 21
-77.369908
 31
0.0
  0
ARC
  5
74F
330
744
100
AcDbEntity
  8
ボルト／ビス
  6
Continuous
 62
    64
100
AcDbCircle
 10
-70.24992500000001
 20
-77.369897
 30
0.0
 40
0.4
100
AcDbArc
 50
270.0
 51
0.0
  0
LINE
  5
750
330
744
100
AcDbEntity
  8
ボルト／ビス
  6
Continuous
 62
    64
100
AcDbLine
 10
-66.753283
 20
-77.76990499999999
 30
0.0
 11
-66.753283
 21
-78.01206500000001
 31
0.0
  0
LINE
  5
751
330
744
100
AcDbEntity
  8
ボルト／ビス
  6
Continuous
 62
    64
100
AcDbLine
 10
-68.44992499999999
 20
-77.11982
 30
0.0
 11
-69.149922
 21
-77.11982
 31
0.0
  0
LINE
  5
752
330
744
100
AcDbEntity
  8
ボルト／ビス
  6
Continuous
 62
    64
100
AcDbLine
 10
-68.04992
 20
-77.76990499999999
 30
0.0
 11
-66.753283
 21
-77.76990499999999
 31
0.0
  0
LINE
  5
753
330
744
100
AcDbEntity
  8
ボルト／ビス
  6
Continuous
 62
    64
100
AcDbLine
 10
-68.44992499999999
 20
-77.11982
 30
0.0
 11
-68.44992499999999
 21
-77.369908
 31
0.0
  0
ARC
  5
754
330
744
100
AcDbEntity
  8
ボルト／ビス
  6
Continuous
 62
    64
100
AcDbCircle
 10
-68.049925
 20
-77.369897
 30
0.0
 40
0.4
100
AcDbArc
 50
180.0
 51
270.0
  0
LINE
  5
755
330
744
100
AcDbEntity
  8
ボルト／ビス
  6
Continuous
 62
    64
100
AcDbLine
 10
-72.649925
 20
-75.55481
 30
0.0
 11
-65.64992
 21
-75.55481
 31
0.0
  0
LINE
  5
756
330
744
100
AcDbEntity
  8
ボルト／ビス
  6
Continuous
 62
    64
100
AcDbLine
 10
-71.149925
 20
-66.054807
 30
0.0
 11
-70.649922
 21
-65.554813
 31
0.0
  0
LINE
  5
757
330
744
100
AcDbEntity
  8
ボルト／ビス
  6
Continuous
 62
    64
100
AcDbLine
 10
-67.14992
 20
-66.054807
 30
0.0
 11
-67.649922
 21
-65.554813
 31
0.0
  0
LINE
  5
758
330
744
100
AcDbEntity
  8
ボルト／ビス
  6
Continuous
 62
    64
100
AcDbLine
 10
-71.149925
 20
-66.054807
 30
0.0
 11
-67.14992
 21
-66.054807
 31
0.0
  0
LINE
  5
759
330
744
100
AcDbEntity
  8
ボルト／ビス
  6
Continuous
 62
    64
100
AcDbLine
 10
-70.649922
 20
-65.554813
 30
0.0
 11
-67.649922
 21
-65.554813
 31
0.0
  0
LINE
  5
75A
330
744
100
AcDbEntity
  8
ボルト／ビス
  6
Continuous
 62
    64
100
AcDbLine
 10
-69.149922
 20
-80.126195
 30
0.0
 11
-69.149922
 21
-63.97994
 31
0.0
  0
LINE
  5
75B
330
744
100
AcDbEntity
  8
ボルト／ビス
  6
Continuous
 62
    64
100
AcDbLine
 10
-71.149925
 20
-75.55481
 30
0.0
 11
-71.149925
 21
-66.054807
 31
0.0
  0
LINE
  5
75C
330
744
100
AcDbEntity
  8
ボルト／ビス
  6
Continuous
 62
    64
100
AcDbLine
 10
-67.14992
 20
-75.55481
 30
0.0
 11
-67.14992
 21
-66.054807
 31
0.0
  0
LINE
  5
75D
330
744
100
AcDbEntity
  8
ボルト／ビス
  6
Continuous
 62
    64
100
AcDbLine
 10
-67.649922
 20
-75.55481
 30
0.0
 11
-67.649922
 21
-65.554813
 31
0.0
  0
LINE
  5
75E
330
744
100
AcDbEntity
  8
ボルト／ビス
  6
Continuous
 62
    64
100
AcDbLine
 10
-70.649922
 20
-75.55481
 30
0.0
 11
-70.649922
 21
-65.554813
 31
0.0
  0
ENDBLK
  5
75F
330
744
100
AcDbEntity
  8
0
100
AcDbBlockEnd
  0
BLOCK
  5
760
330
761
100
AcDbEntity
  8
0
100
AcDbBlockBegin
  2
*U32
 70
     1
 71
     0
 10
0.0
 20
0.0
 30
0.0
  3
*U32
  1

  0
LINE
  5
762
330
761
100
AcDbEntity
  8
ボルト／ビス
  6
Continuous
 62
    64
100
AcDbLine
 10
-20.549945
 20
-9.854794999999999
 30
0.0
 11
-21.049947
 21
-10.354798
 31
0.0
  0
LINE
  5
763
330
761
100
AcDbEntity
  8
ボルト／ビス
  6
Continuous
 62
    64
100
AcDbLine
 10
-20.549945
 20
-13.8548
 30
0.0
 11
-21.049947
 21
-13.354798
 31
0.0
  0
LINE
  5
764
330
761
100
AcDbEntity
  8
ボルト／ビス
  6
Continuous
 62
    64
100
AcDbLine
 10
-21.049947
 20
-10.354798
 30
0.0
 11
-21.049947
 21
-13.354798
 31
0.0
  0
LINE
  5
765
330
761
100
AcDbEntity
  8
ボルト／ビス
  6
Continuous
 62
    64
100
AcDbLine
 10
-20.549945
 20
-9.854794999999999
 30
0.0
 11
-20.549945
 21
-13.8548
 31
0.0
  0
LINE
  5
766
330
761
100
AcDbEntity
  8
ボルト／ビス
  6
Continuous
 62
    64
100
AcDbLine
 10
-20.549945
 20
-9.854794999999999
 30
0.0
 11
-16.849947
 21
-9.854794999999999
 31
0.0
  0
LINE
  5
767
330
761
100
AcDbEntity
  8
ボルト／ビス
  6
Continuous
 62
    64
100
AcDbLine
 10
-21.049947
 20
-10.354798
 30
0.0
 11
-16.849947
 21
-10.354798
 31
0.0
  0
LINE
  5
768
330
761
100
AcDbEntity
  8
ボルト／ビス
  6
Continuous
 62
    64
100
AcDbLine
 10
-21.049947
 20
-13.354798
 30
0.0
 11
-16.849947
 21
-13.354798
 31
0.0
  0
LINE
  5
769
330
761
100
AcDbEntity
  8
ボルト／ビス
  6
Continuous
 62
    64
100
AcDbLine
 10
-20.549945
 20
-13.8548
 30
0.0
 11
-16.849947
 21
-13.8548
 31
0.0
  0
LINE
  5
76A
330
761
100
AcDbEntity
  8
ボルト／ビス
  6
Continuous
 62
    64
100
AcDbLine
 10
-16.849947
 20
-9.854794999999999
 30
0.0
 11
-16.849947
 21
-13.8548
 31
0.0
  0
LINE
  5
76B
330
761
100
AcDbEntity
  8
ボルト／ビス
  6
Continuous
 62
    64
100
AcDbLine
 10
-15.049947
 20
-8.854798000000001
 30
0.0
 11
-16.849947
 21
-9.854794999999999
 31
0.0
  0
LINE
  5
76C
330
761
100
AcDbEntity
  8
ボルト／ビス
  6
Continuous
 62
    64
100
AcDbLine
 10
-15.049947
 20
-8.854798000000001
 30
0.0
 11
-15.049947
 21
-14.854798
 31
0.0
  0
LINE
  5
76D
330
761
100
AcDbEntity
  8
ボルト／ビス
  6
Continuous
 62
    64
100
AcDbLine
 10
-15.049947
 20
-14.854798
 30
0.0
 11
-16.849947
 21
-13.8548
 31
0.0
  0
LINE
  5
76E
330
761
100
AcDbEntity
  8
ボルト／ビス
  6
Continuous
 62
    64
100
AcDbLine
 10
-22.630422
 20
-11.854798
 30
0.0
 11
-13.566417
 21
-11.854798
 31
0.0
  0
ENDBLK
  5
76F
330
761
100
AcDbEntity
  8
0
100
AcDbBlockEnd
  0
BLOCK
  5
770
330
771
100
AcDbEntity
  8
0
100
AcDbBlockBegin
  2
*U33
 70
     1
 71
     0
 10
0.0
 20
0.0
 30
0.0
  3
*U33
  1

  0
LINE
  5
772
330
771
100
AcDbEntity
  8
ボルト／ビス
  6
Continuous
 62
    64
100
AcDbLine
 10
-14.64995
 20
9.141423
 30
0.0
 11
-13.601787
 21
9.049720000000001
 31
0.0
  0
ARC
  5
773
330
771
100
AcDbEntity
  8
ボルト／ビス
  6
Continuous
 62
    64
100
AcDbCircle
 10
-13.749952
 20
7.356194
 30
0.0
 40
1.7
100
AcDbArc
 50
0.0
 51
85.000011
  0
LINE
  5
774
330
771
100
AcDbEntity
  8
ボルト／ビス
  6
Continuous
 62
    64
100
AcDbLine
 10
-12.049955
 20
7.35619
 30
0.0
 11
-12.049955
 21
5.64142
 31
0.0
  0
LINE
  5
775
330
771
100
AcDbEntity
  8
ボルト／ビス
  6
Continuous
 62
    64
100
AcDbLine
 10
-14.64995
 20
2.141417
 30
0.0
 11
-13.601787
 21
2.23312
 31
0.0
  0
ARC
  5
776
330
771
100
AcDbEntity
  8
ボルト／ビス
  6
Continuous
 62
    64
100
AcDbCircle
 10
-13.749952
 20
3.92666
 30
0.0
 40
1.7
100
AcDbArc
 50
274.999989
 51
0.0
  0
LINE
  5
777
330
771
100
AcDbEntity
  8
ボルト／ビス
  6
Continuous
 62
    64
100
AcDbLine
 10
-12.049955
 20
3.92665
 30
0.0
 11
-12.049955
 21
5.64142
 31
0.0
  0
LINE
  5
778
330
771
100
AcDbEntity
  8
ボルト／ビス
  6
Continuous
 62
    64
100
AcDbLine
 10
-12.434855
 20
8.03806
 30
0.0
 11
-12.192695
 21
8.03806
 31
0.0
  0
LINE
  5
779
330
771
100
AcDbEntity
  8
ボルト／ビス
  6
Continuous
 62
    64
100
AcDbLine
 10
-13.08494
 20
6.341417
 30
0.0
 11
-13.08494
 21
5.64142
 31
0.0
  0
LINE
  5
77A
330
771
100
AcDbEntity
  8
ボルト／ビス
  6
Continuous
 62
    64
100
AcDbLine
 10
-12.434855
 20
6.741423
 30
0.0
 11
-12.434855
 21
8.03806
 31
0.0
  0
LINE
  5
77B
330
771
100
AcDbEntity
  8
ボルト／ビス
  6
Continuous
 62
    64
100
AcDbLine
 10
-13.08494
 20
6.341417
 30
0.0
 11
-12.83486
 21
6.341417
 31
0.0
  0
ARC
  5
77C
330
771
100
AcDbEntity
  8
ボルト／ビス
  6
Continuous
 62
    64
100
AcDbCircle
 10
-12.834857
 20
6.741427
 30
0.0
 40
0.4
100
AcDbArc
 50
270.0
 51
0.0
  0
LINE
  5
77D
330
771
100
AcDbEntity
  8
ボルト／ビス
  6
Continuous
 62
    64
100
AcDbLine
 10
-12.434855
 20
3.24478
 30
0.0
 11
-12.192695
 21
3.24478
 31
0.0
  0
LINE
  5
77E
330
771
100
AcDbEntity
  8
ボルト／ビス
  6
Continuous
 62
    64
100
AcDbLine
 10
-13.08494
 20
4.941423
 30
0.0
 11
-13.08494
 21
5.64142
 31
0.0
  0
LINE
  5
77F
330
771
100
AcDbEntity
  8
ボルト／ビス
  6
Continuous
 62
    64
100
AcDbLine
 10
-12.434855
 20
4.541417
 30
0.0
 11
-12.434855
 21
3.24478
 31
0.0
  0
LINE
  5
780
330
771
100
AcDbEntity
  8
ボルト／ビス
  6
Continuous
 62
    64
100
AcDbLine
 10
-13.08494
 20
4.941423
 30
0.0
 11
-12.83486
 21
4.941423
 31
0.0
  0
ARC
  5
781
330
771
100
AcDbEntity
  8
ボルト／ビス
  6
Continuous
 62
    64
100
AcDbCircle
 10
-12.834857
 20
4.541427
 30
0.0
 40
0.4
100
AcDbArc
 50
0.0
 51
90.0
  0
LINE
  5
782
330
771
100
AcDbEntity
  8
ボルト／ビス
  6
Continuous
 62
    64
100
AcDbLine
 10
-14.64995
 20
9.141423
 30
0.0
 11
-14.64995
 21
2.141417
 31
0.0
  0
LINE
  5
783
330
771
100
AcDbEntity
  8
ボルト／ビス
  6
Continuous
 62
    64
100
AcDbLine
 10
-22.14995
 20
7.641423
 30
0.0
 11
-22.649953
 21
7.14142
 31
0.0
  0
LINE
  5
784
330
771
100
AcDbEntity
  8
ボルト／ビス
  6
Continuous
 62
    64
100
AcDbLine
 10
-22.14995
 20
3.641417
 30
0.0
 11
-22.649953
 21
4.14142
 31
0.0
  0
LINE
  5
785
330
771
100
AcDbEntity
  8
ボルト／ビス
  6
Continuous
 62
    64
100
AcDbLine
 10
-14.64995
 20
7.14142
 30
0.0
 11
-22.649953
 21
7.14142
 31
0.0
  0
LINE
  5
786
330
771
100
AcDbEntity
  8
ボルト／ビス
  6
Continuous
 62
    64
100
AcDbLine
 10
-14.64995
 20
7.641423
 30
0.0
 11
-22.14995
 21
7.641423
 31
0.0
  0
LINE
  5
787
330
771
100
AcDbEntity
  8
ボルト／ビス
  6
Continuous
 62
    64
100
AcDbLine
 10
-14.64995
 20
4.14142
 30
0.0
 11
-22.649953
 21
4.14142
 31
0.0
  0
LINE
  5
788
330
771
100
AcDbEntity
  8
ボルト／ビス
  6
Continuous
 62
    64
100
AcDbLine
 10
-14.64995
 20
3.641417
 30
0.0
 11
-22.14995
 21
3.641417
 31
0.0
  0
LINE
  5
789
330
771
100
AcDbEntity
  8
ボルト／ビス
  6
Continuous
 62
    64
100
AcDbLine
 10
-22.14995
 20
7.641423
 30
0.0
 11
-22.14995
 21
3.641417
 31
0.0
  0
LINE
  5
78A
330
771
100
AcDbEntity
  8
ボルト／ビス
  6
Continuous
 62
    64
100
AcDbLine
 10
-22.649953
 20
7.14142
 30
0.0
 11
-22.649953
 21
4.14142
 31
0.0
  0
LINE
  5
78B
330
771
100
AcDbEntity
  8
ボルト／ビス
  6
DASHDOT
 62
    64
100
AcDbLine
 10
-9.049955000000001
 20
5.64142
 30
0.0
 11
-25.649953
 21
5.64142
 31
0.0
  0
ENDBLK
  5
78C
330
771
100
AcDbEntity
  8
0
100
AcDbBlockEnd
  0
BLOCK
  5
78D
330
78E
100
AcDbEntity
  8
0
100
AcDbBlockBegin
  2
*U34
 70
     1
 71
     0
 10
0.0
 20
0.0
 30
0.0
  3
*U34
  1

  0
LINE
  5
78F
330
78E
100
AcDbEntity
  8
St
  6
Continuous
100
AcDbLine
 10
-55.455537
 20
-112.65479
 30
0.0
 11
-58.65554
 21
-112.65479
 31
0.0
  0
LINE
  5
790
330
78E
100
AcDbEntity
  8
St
  6
Continuous
100
AcDbLine
 10
-55.455537
 20
-102.654785
 30
0.0
 11
-58.65554
 21
-102.654785
 31
0.0
  0
LINE
  5
791
330
78E
100
AcDbEntity
  8
St
  6
Continuous
100
AcDbLine
 10
-33.732628
 20
-72.654687
 30
0.0
 11
-36.932622
 21
-75.85469000000001
 31
0.0
  0
LINE
  5
792
330
78E
100
AcDbEntity
  8
St
  6
Continuous
100
AcDbLine
 10
-34.439735
 20
-72.654687
 30
0.0
 11
-37.63973
 21
-75.85469000000001
 31
0.0
  0
LINE
  5
793
330
78E
100
AcDbEntity
  8
St
  6
Continuous
100
AcDbLine
 10
-62.3741
 20
-72.654687
 30
0.0
 11
-65.574095
 21
-75.85469000000001
 31
0.0
  0
LINE
  5
794
330
78E
100
AcDbEntity
  8
St
  6
Continuous
100
AcDbLine
 10
-63.081207
 20
-72.654687
 30
0.0
 11
-66.28120300000001
 21
-75.85469000000001
 31
0.0
  0
LINE
  5
795
330
78E
100
AcDbEntity
  8
St
  6
Continuous
100
AcDbLine
 10
-12.649947
 20
-72.654815
 30
0.0
 11
-12.649947
 21
-75.85469000000001
 31
0.0
  0
ARC
  5
796
330
78E
100
AcDbEntity
  8
St
  6
Continuous
 62
   127
100
AcDbCircle
 10
-55.455545
 20
-75.85478999999999
 30
0.0
 40
3.2
100
AcDbArc
 50
90.0
 51
180.0
  0
LINE
  5
797
330
78E
100
AcDbEntity
  8
St
  6
Continuous
100
AcDbLine
 10
-19.899905
 20
-72.654687
 30
0.0
 11
-19.899905
 21
-75.85469000000001
 31
0.0
  0
LINE
  5
798
330
78E
100
AcDbEntity
  8
St
  6
Continuous
100
AcDbLine
 10
-15.399905
 20
-72.654687
 30
0.0
 11
-15.399905
 21
-75.85469000000001
 31
0.0
  0
LINE
  5
799
330
78E
100
AcDbEntity
  8
St
  6
Continuous
100
AcDbLine
 10
-15.399905
 20
-73.45469
 30
0.0
 11
-19.899905
 21
-73.45469
 31
0.0
  0
LINE
  5
79A
330
78E
100
AcDbEntity
  8
St
  6
Continuous
100
AcDbLine
 10
-15.399905
 20
-74.254685
 30
0.0
 11
-19.899905
 21
-74.254685
 31
0.0
  0
LINE
  5
79B
330
78E
100
AcDbEntity
  8
St
  6
Continuous
100
AcDbLine
 10
-15.399905
 20
-75.054688
 30
0.0
 11
-19.899905
 21
-75.054688
 31
0.0
  0
LINE
  5
79C
330
78E
100
AcDbEntity
  8
St
  6
Continuous
100
AcDbLine
 10
-17.649905
 20
-78.905563
 30
0.0
 11
-17.649905
 21
-69.432928
 31
0.0
  0
LINE
  5
79D
330
78E
100
AcDbEntity
  8
St
  6
Continuous
100
AcDbLine
 10
-71.399878
 20
-72.65480700000001
 30
0.0
 11
-71.399878
 21
-75.85481
 31
0.0
  0
LINE
  5
79E
330
78E
100
AcDbEntity
  8
St
  6
Continuous
100
AcDbLine
 10
-66.899878
 20
-72.65480700000001
 30
0.0
 11
-66.899878
 21
-75.85481
 31
0.0
  0
LINE
  5
79F
330
78E
100
AcDbEntity
  8
St
  6
Continuous
100
AcDbLine
 10
-66.899878
 20
-73.45481
 30
0.0
 11
-71.399878
 21
-73.45481
 31
0.0
  0
LINE
  5
7A0
330
78E
100
AcDbEntity
  8
St
  6
Continuous
100
AcDbLine
 10
-66.899878
 20
-74.25480500000001
 30
0.0
 11
-71.399878
 21
-74.25480500000001
 31
0.0
  0
LINE
  5
7A1
330
78E
100
AcDbEntity
  8
St
  6
Continuous
100
AcDbLine
 10
-66.899878
 20
-75.054807
 30
0.0
 11
-71.399878
 21
-75.054807
 31
0.0
  0
LINE
  5
7A2
330
78E
100
AcDbEntity
  8
St
  6
Continuous
100
AcDbLine
 10
-69.149878
 20
-78.905682
 30
0.0
 11
-69.149878
 21
-69.433047
 31
0.0
  0
LINE
  5
7A3
330
78E
100
AcDbEntity
  8
St
  6
Continuous
100
AcDbLine
 10
-50.283875
 20
-107.654788
 30
0.0
 11
-64.121053
 21
-107.654788
 31
0.0
  0
LINE
  5
7A4
330
78E
100
AcDbEntity
  8
St
  6
Continuous
100
AcDbLine
 10
-55.455537
 20
-122.65469
 30
0.0
 11
-58.65554
 21
-122.65469
 31
0.0
  0
LINE
  5
7A5
330
78E
100
AcDbEntity
  8
St
  6
Continuous
 62
   127
100
AcDbLine
 10
-55.455537
 20
-75.854803
 30
0.0
 11
-55.455537
 21
-122.65469
 31
0.0
  0
LINE
  5
7A6
330
78E
100
AcDbEntity
  8
St
  6
Continuous
 62
   127
100
AcDbLine
 10
-58.65554
 20
-75.854803
 30
0.0
 11
-58.65554
 21
-122.65469
 31
0.0
  0
LINE
  5
7A7
330
78E
100
AcDbEntity
  8
St
  6
Continuous
 62
   127
100
AcDbLine
 10
-56.25554
 20
-102.654785
 30
0.0
 11
-56.25554
 21
-112.65479
 31
0.0
  0
LINE
  5
7A8
330
78E
100
AcDbEntity
  8
St
  6
Continuous
 62
   127
100
AcDbLine
 10
-57.055535
 20
-102.654785
 30
0.0
 11
-57.055535
 21
-112.65479
 31
0.0
  0
LINE
  5
7A9
330
78E
100
AcDbEntity
  8
St
  6
Continuous
 62
   127
100
AcDbLine
 10
-57.855537
 20
-102.654785
 30
0.0
 11
-57.855537
 21
-112.65479
 31
0.0
  0
LINE
  5
7AA
330
78E
100
AcDbEntity
  8
St
  6
Continuous
 62
   127
100
AcDbLine
 10
-12.649947
 20
-75.85469000000001
 30
0.0
 11
-74.14995500000001
 21
-75.85481
 31
0.0
  0
LINE
  5
7AB
330
78E
100
AcDbEntity
  8
St
  6
Continuous
 62
   127
100
AcDbLine
 10
-74.14995500000001
 20
-75.85481
 30
0.0
 11
-74.149947
 21
-72.65480700000001
 31
0.0
  0
LINE
  5
7AC
330
78E
100
AcDbEntity
  8
St
  6
Continuous
 62
   127
100
AcDbLine
 10
-12.649947
 20
-72.654687
 30
0.0
 11
-74.149947
 21
-72.65480700000001
 31
0.0
  0
ENDBLK
  5
7AD
330
78E
100
AcDbEntity
  8
0
100
AcDbBlockEnd
  0
BLOCK
  5
7AE
330
7AF
100
AcDbEntity
  8
0
100
AcDbBlockBegin
  2
*U35
 70
     1
 71
     0
 10
0.0
 20
0.0
 30
0.0
  3
*U35
  1

  0
LINE
  5
7B0
330
7AF
100
AcDbEntity
  8
寸法
  6
Continuous
100
AcDbLine
 10
-5.64995
 20
43.652368
 30
0.0
 11
-5.64995
 21
115.95727
 31
0.0
  0
LINE
  5
7B1
330
7AF
100
AcDbEntity
  8
寸法
  6
Continuous
100
AcDbLine
 10
-100.649945
 20
-56.354807
 30
0.0
 11
-100.649945
 21
115.95727
 31
0.0
  0
LINE
  5
7B2
330
7AF
100
AcDbEntity
  8
寸法
  6
Continuous
100
AcDbLine
 10
-5.64995
 20
115.95727
 30
0.0
 11
-100.649945
 21
115.95727
 31
0.0
  0
POINT
  5
7B3
330
7AF
100
AcDbEntity
  8
寸法
100
AcDbPoint
 10
-5.64995
 20
115.95727
 30
0.0
  0
POINT
  5
7B4
330
7AF
100
AcDbEntity
  8
寸法
100
AcDbPoint
 10
-100.649945
 20
115.95727
 30
0.0
  0
TEXT
  5
7B5
330
7AF
100
AcDbEntity
  8
寸法
  6
Continuous
100
AcDbText
 10
-55.275
 20
116.35
 30
0.0
 40
4.0
  1
95
  7
TextStyle03
 72
     5
 11
-51.025
 21
116.35
 31
0.0
100
AcDbText
  0
ENDBLK
  5
7B6
330
7AF
100
AcDbEntity
  8
0
100
AcDbBlockEnd
  0
BLOCK
  5
7B7
330
7B8
100
AcDbEntity
  8
0
100
AcDbBlockBegin
  2
*U36
 70
     1
 71
     0
 10
0.0
 20
0.0
 30
0.0
  3
*U36
  1

  0
LINE
  5
7B9
330
7B8
100
AcDbEntity
  8
寸法
  6
Continuous
100
AcDbLine
 10
-5.64995
 20
44.652368
 30
0.0
 11
-5.64995
 21
107.594062
 31
0.0
  0
LINE
  5
7BA
330
7B8
100
AcDbEntity
  8
寸法
  6
Continuous
100
AcDbLine
 10
-55.649945
 20
43.652368
 30
0.0
 11
-55.649945
 21
107.594062
 31
0.0
  0
LINE
  5
7BB
330
7B8
100
AcDbEntity
  8
寸法
  6
Continuous
100
AcDbLine
 10
-5.64995
 20
107.594062
 30
0.0
 11
-55.649945
 21
107.594062
 31
0.0
  0
POINT
  5
7BC
330
7B8
100
AcDbEntity
  8
寸法
100
AcDbPoint
 10
-5.64995
 20
107.594062
 30
0.0
  0
POINT
  5
7BD
330
7B8
100
AcDbEntity
  8
寸法
100
AcDbPoint
 10
-55.649945
 20
107.594062
 30
0.0
  0
TEXT
  5
7BE
330
7B8
100
AcDbEntity
  8
寸法
  6
Continuous
100
AcDbText
 10
-32.775
 20
107.975
 30
0.0
 40
4.0
  1
50
  7
TextStyle03
 72
     5
 11
-28.525
 21
107.975
 31
0.0
100
AcDbText
  0
ENDBLK
  5
7BF
330
7B8
100
AcDbEntity
  8
0
100
AcDbBlockEnd
  0
BLOCK
  5
7C0
330
7C1
100
AcDbEntity
  8
0
100
AcDbBlockBegin
  2
*U37
 70
     1
 71
     0
 10
0.0
 20
0.0
 30
0.0
  3
*U37
  1

  0
LINE
  5
7C2
330
7C1
100
AcDbEntity
  8
寸法
  6
Continuous
100
AcDbLine
 10
-100.649945
 20
-56.354807
 30
0.0
 11
-100.649945
 21
107.594062
 31
0.0
  0
LINE
  5
7C3
330
7C1
100
AcDbEntity
  8
寸法
  6
Continuous
100
AcDbLine
 10
-55.649945
 20
107.594062
 30
0.0
 11
-100.649945
 21
107.594062
 31
0.0
  0
POINT
  5
7C4
330
7C1
100
AcDbEntity
  8
寸法
100
AcDbPoint
 10
-100.649945
 20
107.594062
 30
0.0
  0
TEXT
  5
7C5
330
7C1
100
AcDbEntity
  8
寸法
  6
Continuous
100
AcDbText
 10
-80.27500000000001
 20
107.975
 30
0.0
 40
4.0
  1
45
  7
TextStyle03
 72
     5
 11
-76.02500000000001
 21
107.975
 31
0.0
100
AcDbText
  0
ENDBLK
  5
7C6
330
7C1
100
AcDbEntity
  8
0
100
AcDbBlockEnd
  0
BLOCK
  5
7C7
330
7C8
100
AcDbEntity
  8
0
100
AcDbBlockBegin
  2
*U38
 70
     1
 71
     0
 10
0.0
 20
0.0
 30
0.0
  3
*U38
  1

  0
LINE
  5
7C9
330
7C8
100
AcDbEntity
  8
寸法
  6
Continuous
100
AcDbLine
 10
29.350052
 20
-18.354805
 30
0.0
 11
29.350052
 21
107.594062
 31
0.0
  0
LINE
  5
7CA
330
7C8
100
AcDbEntity
  8
寸法
  6
Continuous
100
AcDbLine
 10
-5.64995
 20
107.594062
 30
0.0
 11
29.350052
 21
107.594062
 31
0.0
  0
POINT
  5
7CB
330
7C8
100
AcDbEntity
  8
寸法
100
AcDbPoint
 10
-5.64995
 20
107.594062
 30
0.0
  0
POINT
  5
7CC
330
7C8
100
AcDbEntity
  8
寸法
100
AcDbPoint
 10
29.350052
 20
107.594062
 30
0.0
  0
TEXT
  5
7CD
330
7C8
100
AcDbEntity
  8
寸法
  6
Continuous
100
AcDbText
 10
9.725
 20
107.975
 30
0.0
 40
4.0
  1
35
  7
TextStyle03
 72
     5
 11
13.975
 21
107.975
 31
0.0
100
AcDbText
  0
ENDBLK
  5
7CE
330
7C8
100
AcDbEntity
  8
0
100
AcDbBlockEnd
  0
BLOCK
  5
7CF
330
7D0
100
AcDbEntity
  8
0
100
AcDbBlockBegin
  2
*U39
 70
     1
 71
     0
 10
0.0
 20
0.0
 30
0.0
  3
*U39
  1

  0
LINE
  5
7D1
330
7D0
100
AcDbEntity
  8
寸法
  6
Continuous
100
AcDbLine
 10
-5.64995
 20
43.652368
 30
0.0
 11
-5.64995
 21
99.219533
 31
0.0
  0
LINE
  5
7D2
330
7D0
100
AcDbEntity
  8
寸法
  6
Continuous
100
AcDbLine
 10
-25.649955
 20
48.652377
 30
0.0
 11
-25.649955
 21
99.219533
 31
0.0
  0
LINE
  5
7D3
330
7D0
100
AcDbEntity
  8
寸法
  6
Continuous
100
AcDbLine
 10
-5.64995
 20
99.219533
 30
0.0
 11
-25.649955
 21
99.219533
 31
0.0
  0
POINT
  5
7D4
330
7D0
100
AcDbEntity
  8
寸法
100
AcDbPoint
 10
-5.64995
 20
99.219533
 30
0.0
  0
POINT
  5
7D5
330
7D0
100
AcDbEntity
  8
寸法
100
AcDbPoint
 10
-25.649955
 20
99.219533
 30
0.0
  0
TEXT
  5
7D6
330
7D0
100
AcDbEntity
  8
寸法
  6
Continuous
100
AcDbText
 10
-17.775
 20
99.59999999999999
 30
0.0
 40
4.0
  1
20
  7
TextStyle03
 72
     5
 11
-13.525
 21
99.59999999999999
 31
0.0
100
AcDbText
  0
ENDBLK
  5
7D7
330
7D0
100
AcDbEntity
  8
0
100
AcDbBlockEnd
  0
BLOCK
  5
7D8
330
7D9
100
AcDbEntity
  8
0
100
AcDbBlockBegin
  2
*U40
 70
     1
 71
     0
 10
0.0
 20
0.0
 30
0.0
  3
*U40
  1

  0
LINE
  5
7DA
330
7D9
100
AcDbEntity
  8
寸法
  6
Continuous
100
AcDbLine
 10
-55.649945
 20
43.652368
 30
0.0
 11
-55.649945
 21
99.219533
 31
0.0
  0
LINE
  5
7DB
330
7D9
100
AcDbEntity
  8
寸法
  6
Continuous
100
AcDbLine
 10
-25.649955
 20
99.219533
 30
0.0
 11
-55.649945
 21
99.219533
 31
0.0
  0
POINT
  5
7DC
330
7D9
100
AcDbEntity
  8
寸法
100
AcDbPoint
 10
-55.649945
 20
99.219533
 30
0.0
  0
TEXT
  5
7DD
330
7D9
100
AcDbEntity
  8
寸法
  6
Continuous
100
AcDbText
 10
-42.775
 20
99.59999999999999
 30
0.0
 40
4.0
  1
30
  7
TextStyle03
 72
     5
 11
-38.525
 21
99.59999999999999
 31
0.0
100
AcDbText
  0
ENDBLK
  5
7DE
330
7D9
100
AcDbEntity
  8
0
100
AcDbBlockEnd
  0
BLOCK
  5
7DF
330
7E0
100
AcDbEntity
  8
0
100
AcDbBlockBegin
  2
*U41
 70
     1
 71
     0
 10
0.0
 20
0.0
 30
0.0
  3
*U41
  1

  0
LINE
  5
7E1
330
7E0
100
AcDbEntity
  8
寸法
  6
Continuous
100
AcDbLine
 10
-76.649947
 20
-82.354805
 30
0.0
 11
-160.459923
 21
-82.354805
 31
0.0
  0
LINE
  5
7E2
330
7E0
100
AcDbEntity
  8
寸法
  6
Continuous
100
AcDbLine
 10
-101.649945
 20
-72.35480699999999
 30
0.0
 11
-160.459923
 21
-72.35480699999999
 31
0.0
  0
LINE
  5
7E3
330
7E0
100
AcDbEntity
  8
寸法
  6
Continuous
100
AcDbLine
 10
-160.459923
 20
-82.354805
 30
0.0
 11
-160.459923
 21
-72.35480699999999
 31
0.0
  0
POINT
  5
7E4
330
7E0
100
AcDbEntity
  8
寸法
100
AcDbPoint
 10
-160.459923
 20
-82.354805
 30
0.0
  0
POINT
  5
7E5
330
7E0
100
AcDbEntity
  8
寸法
100
AcDbPoint
 10
-160.459923
 20
-72.35480699999999
 30
0.0
  0
TEXT
  5
7E6
330
7E0
100
AcDbEntity
  8
寸法
  6
Continuous
100
AcDbText
 10
-160.825
 20
-79.47499999999999
 30
0.0
 40
4.0
  1
10
 50
90.0
  7
TextStyle03
 72
     5
 11
-160.825
 21
-75.22499999999999
 31
0.0
100
AcDbText
  0
ENDBLK
  5
7E7
330
7E0
100
AcDbEntity
  8
0
100
AcDbBlockEnd
  0
BLOCK
  5
7E8
330
7E9
100
AcDbEntity
  8
0
100
AcDbBlockBegin
  2
*U42
 70
     1
 71
     0
 10
0.0
 20
0.0
 30
0.0
  3
*U42
  1

  0
LINE
  5
7EA
330
7E9
100
AcDbEntity
  8
寸法
  6
Continuous
100
AcDbLine
 10
-56.649945
 20
42.652368
 30
0.0
 11
-160.459923
 21
42.652368
 31
0.0
  0
LINE
  5
7EB
330
7E9
100
AcDbEntity
  8
寸法
  6
Continuous
100
AcDbLine
 10
-160.459923
 20
-72.35480699999999
 30
0.0
 11
-160.459923
 21
42.652368
 31
0.0
  0
POINT
  5
7EC
330
7E9
100
AcDbEntity
  8
寸法
100
AcDbPoint
 10
-160.459923
 20
42.652368
 30
0.0
  0
TEXT
  5
7ED
330
7E9
100
AcDbEntity
  8
寸法
  6
Continuous
100
AcDbText
 10
-160.825
 20
-18.1
 30
0.0
 40
4.0
  1
115
 50
90.0
  7
TextStyle03
 72
     5
 11
-160.825
 21
-11.6
 31
0.0
100
AcDbText
  0
ENDBLK
  5
7EE
330
7E9
100
AcDbEntity
  8
0
100
AcDbBlockEnd
  0
BLOCK
  5
7EF
330
7F0
100
AcDbEntity
  8
0
100
AcDbBlockBegin
  2
*U43
 70
     1
 71
     0
 10
0.0
 20
0.0
 30
0.0
  3
*U43
  1

  0
LINE
  5
7F1
330
7F0
100
AcDbEntity
  8
寸法
  6
Continuous
100
AcDbLine
 10
-56.649945
 20
42.652368
 30
0.0
 11
-152.224475
 21
42.652368
 31
0.0
  0
LINE
  5
7F2
330
7F0
100
AcDbEntity
  8
寸法
  6
Continuous
100
AcDbLine
 10
-68.649922
 20
12.652368
 30
0.0
 11
-152.224475
 21
12.652368
 31
0.0
  0
LINE
  5
7F3
330
7F0
100
AcDbEntity
  8
寸法
  6
Continuous
100
AcDbLine
 10
-152.224475
 20
42.652368
 30
0.0
 11
-152.224475
 21
12.652368
 31
0.0
  0
POINT
  5
7F4
330
7F0
100
AcDbEntity
  8
寸法
100
AcDbPoint
 10
-152.224475
 20
42.652368
 30
0.0
  0
POINT
  5
7F5
330
7F0
100
AcDbEntity
  8
寸法
100
AcDbPoint
 10
-152.224475
 20
12.652368
 30
0.0
  0
TEXT
  5
7F6
330
7F0
100
AcDbEntity
  8
寸法
  6
Continuous
100
AcDbText
 10
-152.6
 20
25.525
 30
0.0
 40
4.0
  1
30
 50
90.0
  7
TextStyle03
 72
     5
 11
-152.6
 21
29.775
 31
0.0
100
AcDbText
  0
ENDBLK
  5
7F7
330
7F0
100
AcDbEntity
  8
0
100
AcDbBlockEnd
  0
BLOCK
  5
7F8
330
7F9
100
AcDbEntity
  8
0
100
AcDbBlockBegin
  2
*U44
 70
     1
 71
     0
 10
0.0
 20
0.0
 30
0.0
  3
*U44
  1

  0
LINE
  5
7FA
330
7F9
100
AcDbEntity
  8
寸法
  6
Continuous
100
AcDbLine
 10
-101.649945
 20
-57.354807
 30
0.0
 11
-152.224475
 21
-57.354807
 31
0.0
  0
LINE
  5
7FB
330
7F9
100
AcDbEntity
  8
寸法
  6
Continuous
100
AcDbLine
 10
-152.224475
 20
12.652368
 30
0.0
 11
-152.224475
 21
-57.354807
 31
0.0
  0
POINT
  5
7FC
330
7F9
100
AcDbEntity
  8
寸法
100
AcDbPoint
 10
-152.224475
 20
-57.354807
 30
0.0
  0
TEXT
  5
7FD
330
7F9
100
AcDbEntity
  8
寸法
  6
Continuous
100
AcDbText
 10
-152.6
 20
-24.475
 30
0.0
 40
4.0
  1
70
 50
90.0
  7
TextStyle03
 72
     5
 11
-152.6
 21
-20.225
 31
0.0
100
AcDbText
  0
ENDBLK
  5
7FE
330
7F9
100
AcDbEntity
  8
0
100
AcDbBlockEnd
  0
BLOCK
  5
7FF
330
800
100
AcDbEntity
  8
0
100
AcDbBlockBegin
  2
*U45
 70
     1
 71
     0
 10
0.0
 20
0.0
 30
0.0
  3
*U45
  1

  0
LINE
  5
801
330
800
100
AcDbEntity
  8
寸法
  6
Continuous
100
AcDbLine
 10
-101.649945
 20
-72.35480699999999
 30
0.0
 11
-152.224475
 21
-72.35480699999999
 31
0.0
  0
LINE
  5
802
330
800
100
AcDbEntity
  8
寸法
  6
Continuous
100
AcDbLine
 10
-152.224475
 20
-57.354807
 30
0.0
 11
-152.224475
 21
-72.35480699999999
 31
0.0
  0
POINT
  5
803
330
800
100
AcDbEntity
  8
寸法
100
AcDbPoint
 10
-152.224475
 20
-72.35480699999999
 30
0.0
  0
TEXT
  5
804
330
800
100
AcDbEntity
  8
寸法
  6
Continuous
100
AcDbText
 10
-152.6
 20
-66.97499999999999
 30
0.0
 40
4.0
  1
15
 50
90.0
  7
TextStyle03
 72
     5
 11
-152.6
 21
-62.725
 31
0.0
100
AcDbText
  0
ENDBLK
  5
805
330
800
100
AcDbEntity
  8
0
100
AcDbBlockEnd
  0
BLOCK
  5
806
330
807
100
AcDbEntity
  8
0
100
AcDbBlockBegin
  2
*U46
 70
     1
 71
     0
 10
0.0
 20
0.0
 30
0.0
  3
*U46
  1

  0
LINE
  5
808
330
807
100
AcDbEntity
  8
寸法
  6
Continuous
100
AcDbLine
 10
-101.649945
 20
-57.354807
 30
0.0
 11
-144.871755
 21
-57.354807
 31
0.0
  0
LINE
  5
809
330
807
100
AcDbEntity
  8
寸法
  6
Continuous
100
AcDbLine
 10
-46.649947
 20
-52.354805
 30
0.0
 11
-144.871755
 21
-52.354805
 31
0.0
  0
LINE
  5
80A
330
807
100
AcDbEntity
  8
寸法
  6
Continuous
100
AcDbLine
 10
-144.871755
 20
-57.354807
 30
0.0
 11
-144.871755
 21
-52.354805
 31
0.0
  0
POINT
  5
80B
330
807
100
AcDbEntity
  8
寸法
100
AcDbPoint
 10
-144.871755
 20
-57.354807
 30
0.0
  0
POINT
  5
80C
330
807
100
AcDbEntity
  8
寸法
100
AcDbPoint
 10
-144.871755
 20
-52.354805
 30
0.0
  0
TEXT
  5
80D
330
807
100
AcDbEntity
  8
寸法
  6
Continuous
100
AcDbText
 10
-145.225
 20
-55.85
 30
0.0
 40
4.0
  1
5
 50
90.0
  7
TextStyle03
 72
     5
 11
-145.225
 21
-53.85
 31
0.0
100
AcDbText
  0
ENDBLK
  5
80E
330
807
100
AcDbEntity
  8
0
100
AcDbBlockEnd
  0
BLOCK
  5
80F
330
810
100
AcDbEntity
  8
0
100
AcDbBlockBegin
  2
*U47
 70
     1
 71
     0
 10
0.0
 20
0.0
 30
0.0
  3
*U47
  1

  0
LINE
  5
811
330
810
100
AcDbEntity
  8
寸法
  6
Continuous
100
AcDbLine
 10
-11.649947
 20
-72.654815
 30
0.0
 11
90.98696700000001
 21
-72.654815
 31
0.0
  0
LINE
  5
812
330
810
100
AcDbEntity
  8
寸法
  6
Continuous
100
AcDbLine
 10
30.350052
 20
-29.854805
 30
0.0
 11
90.98696700000001
 21
-29.854805
 31
0.0
  0
LINE
  5
813
330
810
100
AcDbEntity
  8
寸法
  6
Continuous
100
AcDbLine
 10
90.98696700000001
 20
-72.654815
 30
0.0
 11
90.98696700000001
 21
-29.854805
 31
0.0
  0
POINT
  5
814
330
810
100
AcDbEntity
  8
寸法
100
AcDbPoint
 10
90.98696700000001
 20
-72.654815
 30
0.0
  0
POINT
  5
815
330
810
100
AcDbEntity
  8
寸法
100
AcDbPoint
 10
90.98696700000001
 20
-29.854805
 30
0.0
  0
TEXT
  5
816
330
810
100
AcDbEntity
  8
寸法
  6
Continuous
100
AcDbText
 10
90.625
 20
-55.625
 30
0.0
 40
4.0
  1
42.8
 50
90.0
  7
TextStyle03
 72
     5
 11
90.625
 21
-46.875
 31
0.0
100
AcDbText
  0
ENDBLK
  5
817
330
810
100
AcDbEntity
  8
0
100
AcDbBlockEnd
  0
BLOCK
  5
818
330
819
100
AcDbEntity
  8
0
100
AcDbBlockBegin
  2
*U48
 70
     1
 71
     0
 10
0.0
 20
0.0
 30
0.0
  3
*U48
  1

  0
LINE
  5
81A
330
819
100
AcDbEntity
  8
寸法
  6
Continuous
100
AcDbLine
 10
30.350052
 20
-19.354805
 30
0.0
 11
90.98696700000001
 21
-19.354805
 31
0.0
  0
LINE
  5
81B
330
819
100
AcDbEntity
  8
寸法
  6
Continuous
100
AcDbLine
 10
90.98696700000001
 20
-29.854805
 30
0.0
 11
90.98696700000001
 21
-19.354805
 31
0.0
  0
POINT
  5
81C
330
819
100
AcDbEntity
  8
寸法
100
AcDbPoint
 10
90.98696700000001
 20
-19.354805
 30
0.0
  0
TEXT
  5
81D
330
819
100
AcDbEntity
  8
寸法
  6
Continuous
100
AcDbText
 10
90.625
 20
-28.975
 30
0.0
 40
4.0
  1
10.5
 50
90.0
  7
TextStyle03
 72
     5
 11
90.625
 21
-20.225
 31
0.0
100
AcDbText
  0
ENDBLK
  5
81E
330
819
100
AcDbEntity
  8
0
100
AcDbBlockEnd
  0
BLOCK
  5
81F
330
820
100
AcDbEntity
  8
0
100
AcDbBlockBegin
  2
*U49
 70
     1
 71
     0
 10
0.0
 20
0.0
 30
0.0
  3
*U49
  1

  0
LWPOLYLINE
  5
821
330
820
100
AcDbEntity
  8
寸法
  6
ByBlock
 62
     0
100
AcDbPolyline
 90
        3
 70
     0
 43
0.0
 10
3.916083
 20
56.178485
 10
13.684705
 20
46.409863
 10
25.363532
 20
46.409863
  0
ENDBLK
  5
826
330
820
100
AcDbEntity
  8
0
100
AcDbBlockEnd
  0
BLOCK
  5
827
330
828
100
AcDbEntity
  8
0
100
AcDbBlockBegin
  2
*U50
 70
     1
 71
     0
 10
0.0
 20
0.0
 30
0.0
  3
*U50
  1

  0
LINE
  5
829
330
828
100
AcDbEntity
  8
寸法
  6
Continuous
100
AcDbLine
 10
13.684705
 20
46.409863
 30
0.0
 11
5.198773
 21
48.526395
 31
0.0
  0
ENDBLK
  5
82A
330
828
100
AcDbEntity
  8
0
100
AcDbBlockEnd
  0
BLOCK
  5
82B
330
82C
100
AcDbEntity
  8
0
100
AcDbBlockBegin
  2
*U51
 70
     1
 71
     0
 10
0.0
 20
0.0
 30
0.0
  3
*U51
  1

  0
LWPOLYLINE
  5
82D
330
82C
100
AcDbEntity
  8
寸法
  6
ByBlock
 62
     0
100
AcDbPolyline
 90
        3
 70
     0
 43
0.0
 10
-33.980303
 20
39.123385
 10
-42.871645
 20
60.74705
 10
-58.594285
 20
60.74705
  0
ENDBLK
  5
832
330
82C
100
AcDbEntity
  8
0
100
AcDbBlockEnd
  0
BLOCK
  5
833
330
834
100
AcDbEntity
  8
0
100
AcDbBlockBegin
  2
*U52
 70
     1
 71
     0
 10
0.0
 20
0.0
 30
0.0
  3
*U52
  1

  0
LINE
  5
835
330
834
100
AcDbEntity
  8
寸法
  6
ByBlock
 62
     0
100
AcDbLine
 10
-36.36912
 20
33.645197
 30
0.0
 11
-42.871645
 21
60.74705
 31
0.0
  0
ENDBLK
  5
836
330
834
100
AcDbEntity
  8
0
100
AcDbBlockEnd
  0
BLOCK
  5
837
330
838
100
AcDbEntity
  8
0
100
AcDbBlockBegin
  2
*U53
 70
     1
 71
     0
 10
0.0
 20
0.0
 30
0.0
  3
*U53
  1

  0
LWPOLYLINE
  5
839
330
838
100
AcDbEntity
  8
寸法
  6
ByBlock
 62
     0
100
AcDbPolyline
 90
        3
 70
     0
 43
0.0
 10
-26.42346
 20
47.652377
 10
-35.26678
 20
68.419032
 10
-58.945457
 20
68.419032
  0
ENDBLK
  5
83E
330
838
100
AcDbEntity
  8
0
100
AcDbBlockEnd
  0
BLOCK
  5
83F
330
840
100
AcDbEntity
  8
0
100
AcDbBlockBegin
  2
*U54
 70
     1
 71
     0
 10
0.0
 20
0.0
 30
0.0
  3
*U54
  1

  0
LWPOLYLINE
  5
841
330
840
100
AcDbEntity
  8
寸法
  6
ByBlock
 62
     0
100
AcDbPolyline
 90
        3
 70
     0
 43
0.0
 10
-45.649947
 20
-48.054807
 10
-48.725575
 20
-44.97918
 10
-58.275015
 20
-44.97918
  0
ENDBLK
  5
846
330
840
100
AcDbEntity
  8
0
100
AcDbBlockEnd
  0
BLOCK
  5
847
330
848
100
AcDbEntity
  8
0
100
AcDbBlockBegin
  2
*U55
 70
     1
 71
     0
 10
0.0
 20
0.0
 30
0.0
  3
*U55
  1

  0
LWPOLYLINE
  5
849
330
848
100
AcDbEntity
  8
寸法
  6
ByBlock
 62
     0
100
AcDbPolyline
 90
        3
 70
     0
 43
0.0
 10
-37.851545
 20
23.456585
 10
-52.771953
 20
5.937708
 10
-56.476035
 20
5.937708
  0
ENDBLK
  5
84E
330
848
100
AcDbEntity
  8
0
100
AcDbBlockEnd
  0
BLOCK
  5
84F
330
850
100
AcDbEntity
  8
0
100
AcDbBlockBegin
  2
*U56
 70
     1
 71
     0
 10
0.0
 20
0.0
 30
0.0
  3
*U56
  1

  0
LWPOLYLINE
  5
851
330
850
100
AcDbEntity
  8
寸法
  6
ByBlock
 62
     0
100
AcDbPolyline
 90
        3
 70
     0
 43
0.0
 10
-3.679432
 20
-39.434785
 10
14.5368
 20
-57.651018
 10
28.937318
 20
-57.651018
  0
ENDBLK
  5
856
330
850
100
AcDbEntity
  8
0
100
AcDbBlockEnd
  0
BLOCK
  5
857
330
858
100
AcDbEntity
  8
0
100
AcDbBlockBegin
  2
*U57
 70
     1
 71
     0
 10
0.0
 20
0.0
 30
0.0
  3
*U57
  1

  0
LWPOLYLINE
  5
859
330
858
100
AcDbEntity
  8
寸法
  6
ByBlock
 62
     0
100
AcDbPolyline
 90
        3
 70
     0
 43
0.0
 10
34.554035
 20
7.22956
 10
40.302865
 20
12.97839
 10
42.570873
 20
12.97839
  0
ENDBLK
  5
85E
330
858
100
AcDbEntity
  8
0
100
AcDbBlockEnd
  0
BLOCK
  5
85F
330
860
100
AcDbEntity
  8
0
100
AcDbBlockBegin
  2
*U58
 70
     1
 71
     0
 10
0.0
 20
0.0
 30
0.0
  3
*U58
  1

  0
LINE
  5
861
330
860
100
AcDbEntity
  8
ゴム等
  6
Continuous
100
AcDbLine
 10
3.150078
 20
15.641403
 30
0.0
 11
13.150052
 21
15.641403
 31
0.0
  0
LINE
  5
862
330
860
100
AcDbEntity
  8
ゴム等
  6
Continuous
100
AcDbLine
 10
3.150078
 20
9.443747999999999
 30
0.0
 11
13.150052
 21
9.443747999999999
 31
0.0
  0
LINE
  5
863
330
860
100
AcDbEntity
  8
ゴム等
  6
Continuous
100
AcDbLine
 10
3.150078
 20
15.641403
 30
0.0
 11
3.150078
 21
9.443747999999999
 31
0.0
  0
LINE
  5
864
330
860
100
AcDbEntity
  8
ゴム等
  6
Continuous
100
AcDbLine
 10
13.150052
 20
15.641403
 30
0.0
 11
13.150052
 21
9.443747999999999
 31
0.0
  0
LINE
  5
865
330
860
100
AcDbEntity
  8
ゴム等
  6
Continuous
100
AcDbLine
 10
4.236828
 20
9.443747999999999
 30
0.0
 11
3.150078
 21
10.530528
 31
0.0
  0
LINE
  5
866
330
860
100
AcDbEntity
  8
ゴム等
  6
Continuous
100
AcDbLine
 10
5.65105
 20
9.443747999999999
 30
0.0
 11
3.150078
 21
11.944728
 31
0.0
  0
LINE
  5
867
330
860
100
AcDbEntity
  8
ゴム等
  6
Continuous
100
AcDbLine
 10
7.06525
 20
9.443747999999999
 30
0.0
 11
3.150078
 21
13.35895
 31
0.0
  0
LINE
  5
868
330
860
100
AcDbEntity
  8
ゴム等
  6
Continuous
100
AcDbLine
 10
8.479480000000001
 20
9.443747999999999
 30
0.0
 11
3.150078
 21
14.77315
 31
0.0
  0
LINE
  5
869
330
860
100
AcDbEntity
  8
ゴム等
  6
Continuous
100
AcDbLine
 10
9.893701999999999
 20
9.443747999999999
 30
0.0
 11
3.696055
 21
15.641403
 31
0.0
  0
LINE
  5
86A
330
860
100
AcDbEntity
  8
ゴム等
  6
Continuous
100
AcDbLine
 10
11.307902
 20
9.443747999999999
 30
0.0
 11
5.110255
 21
15.641403
 31
0.0
  0
LINE
  5
86B
330
860
100
AcDbEntity
  8
ゴム等
  6
Continuous
100
AcDbLine
 10
12.722103
 20
9.443747999999999
 30
0.0
 11
6.524477
 21
15.641403
 31
0.0
  0
LINE
  5
86C
330
860
100
AcDbEntity
  8
ゴム等
  6
Continuous
100
AcDbLine
 10
13.150052
 20
10.430027
 30
0.0
 11
7.938678
 21
15.641403
 31
0.0
  0
LINE
  5
86D
330
860
100
AcDbEntity
  8
ゴム等
  6
Continuous
100
AcDbLine
 10
13.150052
 20
11.844227
 30
0.0
 11
9.3529
 21
15.641403
 31
0.0
  0
LINE
  5
86E
330
860
100
AcDbEntity
  8
ゴム等
  6
Continuous
100
AcDbLine
 10
13.150052
 20
13.25845
 30
0.0
 11
10.7671
 21
15.641403
 31
0.0
  0
LINE
  5
86F
330
860
100
AcDbEntity
  8
ゴム等
  6
Continuous
100
AcDbLine
 10
12.18133
 20
15.641403
 30
0.0
 11
13.150052
 21
14.67265
 31
0.0
  0
ENDBLK
  5
870
330
860
100
AcDbEntity
  8
0
100
AcDbBlockEnd
  0
BLOCK
  5
871
330
872
100
AcDbEntity
  8
0
100
AcDbBlockBegin
  2
*U59
 70
     1
 71
     0
 10
0.0
 20
0.0
 30
0.0
  3
*U59
  1

  0
LINE
  5
873
330
872
100
AcDbEntity
  8
寸法
  6
Continuous
100
AcDbLine
 10
-100.649945
 20
-73.35480699999999
 30
0.0
 11
-100.649945
 21
-95.018288
 31
0.0
  0
LINE
  5
874
330
872
100
AcDbEntity
  8
寸法
  6
Continuous
100
AcDbLine
 10
-75.649947
 20
-83.354805
 30
0.0
 11
-75.649947
 21
-95.018288
 31
0.0
  0
LINE
  5
875
330
872
100
AcDbEntity
  8
寸法
  6
Continuous
100
AcDbLine
 10
-100.649945
 20
-95.018288
 30
0.0
 11
-75.649947
 21
-95.018288
 31
0.0
  0
POINT
  5
876
330
872
100
AcDbEntity
  8
寸法
100
AcDbPoint
 10
-100.649945
 20
-95.018288
 30
0.0
  0
POINT
  5
877
330
872
100
AcDbEntity
  8
寸法
100
AcDbPoint
 10
-75.649947
 20
-95.018288
 30
0.0
  0
TEXT
  5
878
330
872
100
AcDbEntity
  8
寸法
  6
Continuous
100
AcDbText
 10
-90.27500000000001
 20
-94.65000000000001
 30
0.0
 40
4.0
  1
25
  7
TextStyle03
 72
     5
 11
-86.02500000000001
 21
-94.65000000000001
 31
0.0
100
AcDbText
  0
ENDBLK
  5
879
330
872
100
AcDbEntity
  8
0
100
AcDbBlockEnd
  0
BLOCK
  5
87A
330
87B
100
AcDbEntity
  8
0
100
AcDbBlockBegin
  2
*U60
 70
     1
 71
     0
 10
0.0
 20
0.0
 30
0.0
  3
*U60
  1

  0
LWPOLYLINE
  5
87C
330
87B
100
AcDbEntity
  8
寸法
  6
Continuous
100
AcDbPolyline
 90
        3
 70
     0
 43
0.0
 10
3.125665
 20
-5.958583
 10
8.679322000000001
 20
-11.51224
 10
38.122365
 20
-11.51224
  0
ENDBLK
  5
881
330
87B
100
AcDbEntity
  8
0
100
AcDbBlockEnd
  0
BLOCK
  5
882
330
883
100
AcDbEntity
  8
0
100
AcDbBlockBegin
  2
*U61
 70
     1
 71
     0
 10
0.0
 20
0.0
 30
0.0
  3
*U61
  1

  0
LWPOLYLINE
  5
884
330
883
100
AcDbEntity
  8
寸法
  6
Continuous
100
AcDbPolyline
 90
        3
 70
     0
 43
0.0
 10
-0.5499500000000001
 20
-61.687622
 10
17.909238
 20
-80.146813
 10
28.133907
 20
-80.146813
  0
ENDBLK
  5
889
330
883
100
AcDbEntity
  8
0
100
AcDbBlockEnd
  0
BLOCK
  5
88A
330
88B
100
AcDbEntity
  8
0
100
AcDbBlockBegin
  2
*U62
 70
     1
 71
     0
 10
0.0
 20
0.0
 30
0.0
  3
*U62
  1

  0
LINE
  5
88C
330
88B
100
AcDbEntity
  8
型材断面
  6
Continuous
100
AcDbLine
 10
-3.649947
 20
-42.354807
 30
0.0
 11
-4.399947
 21
-42.354807
 31
0.0
  0
LINE
  5
88D
330
88B
100
AcDbEntity
  8
型材断面
  6
Continuous
100
AcDbLine
 10
-4.399947
 20
-42.354807
 30
0.0
 11
-4.199945
 21
-41.35481
 31
0.0
  0
LINE
  5
88E
330
88B
100
AcDbEntity
  8
型材断面
  6
Continuous
100
AcDbLine
 10
-4.199945
 20
-41.35481
 30
0.0
 11
0.850052
 21
-41.35481
 31
0.0
  0
LINE
  5
88F
330
88B
100
AcDbEntity
  8
型材断面
  6
Continuous
100
AcDbLine
 10
0.850052
 20
-41.35481
 30
0.0
 11
0.850052
 21
-45.85481
 31
0.0
  0
LINE
  5
890
330
88B
100
AcDbEntity
  8
型材断面
  6
Continuous
100
AcDbLine
 10
0.850052
 20
-45.85481
 30
0.0
 11
-0.349947
 21
-45.85481
 31
0.0
  0
LINE
  5
891
330
88B
100
AcDbEntity
  8
型材断面
  6
Continuous
100
AcDbLine
 10
-0.349947
 20
-45.85481
 30
0.0
 11
-0.349947
 21
-42.854803
 31
0.0
  0
LINE
  5
892
330
88B
100
AcDbEntity
  8
型材断面
  6
Continuous
100
AcDbLine
 10
-0.349947
 20
-42.854803
 30
0.0
 11
-2.149947
 21
-42.854803
 31
0.0
  0
LINE
  5
893
330
88B
100
AcDbEntity
  8
型材断面
  6
Continuous
100
AcDbLine
 10
-2.149947
 20
-42.854803
 30
0.0
 11
-2.149947
 21
-45.85481
 31
0.0
  0
LINE
  5
894
330
88B
100
AcDbEntity
  8
型材断面
  6
Continuous
100
AcDbLine
 10
-2.149947
 20
-45.85481
 30
0.0
 11
-6.84995
 21
-45.85481
 31
0.0
  0
LINE
  5
895
330
88B
100
AcDbEntity
  8
型材断面
  6
Continuous
100
AcDbLine
 10
-6.84995
 20
-45.85481
 30
0.0
 11
-7.14995
 21
-45.554803
 31
0.0
  0
LINE
  5
896
330
88B
100
AcDbEntity
  8
型材断面
  6
Continuous
100
AcDbLine
 10
-7.14995
 20
-45.554803
 30
0.0
 11
-7.449942
 21
-45.85481
 31
0.0
  0
LINE
  5
897
330
88B
100
AcDbEntity
  8
型材断面
  6
Continuous
100
AcDbLine
 10
-7.449942
 20
-45.85481
 30
0.0
 11
-12.649947
 21
-45.85481
 31
0.0
  0
LINE
  5
898
330
88B
100
AcDbEntity
  8
型材断面
  6
Continuous
100
AcDbLine
 10
-12.649947
 20
-45.85481
 30
0.0
 11
-12.649947
 21
-72.654815
 31
0.0
  0
LINE
  5
899
330
88B
100
AcDbEntity
  8
型材断面
  6
Continuous
100
AcDbLine
 10
-12.649947
 20
-72.654815
 30
0.0
 11
-17.349942
 21
-72.654815
 31
0.0
  0
LINE
  5
89A
330
88B
100
AcDbEntity
  8
型材断面
  6
Continuous
100
AcDbLine
 10
-17.349942
 20
-72.654815
 30
0.0
 11
-17.64995
 21
-72.35480699999999
 31
0.0
  0
LINE
  5
89B
330
88B
100
AcDbEntity
  8
型材断面
  6
Continuous
100
AcDbLine
 10
-17.64995
 20
-72.35480699999999
 30
0.0
 11
-17.94995
 21
-72.654815
 31
0.0
  0
LINE
  5
89C
330
88B
100
AcDbEntity
  8
型材断面
  6
Continuous
100
AcDbLine
 10
-17.94995
 20
-72.654815
 30
0.0
 11
-22.649945
 21
-72.654815
 31
0.0
  0
LINE
  5
89D
330
88B
100
AcDbEntity
  8
型材断面
  6
Continuous
100
AcDbLine
 10
-22.649945
 20
-72.654815
 30
0.0
 11
-22.649945
 21
-70.654805
 31
0.0
  0
LINE
  5
89E
330
88B
100
AcDbEntity
  8
型材断面
  6
Continuous
100
AcDbLine
 10
-22.649945
 20
-70.654805
 30
0.0
 11
-14.34995
 21
-70.654805
 31
0.0
  0
LINE
  5
89F
330
88B
100
AcDbEntity
  8
型材断面
  6
Continuous
100
AcDbLine
 10
-14.34995
 20
-70.654805
 30
0.0
 11
-14.34995
 21
-54.054807
 31
0.0
  0
LINE
  5
8A0
330
88B
100
AcDbEntity
  8
型材断面
  6
Continuous
100
AcDbLine
 10
-14.34995
 20
-54.054807
 30
0.0
 11
-45.57284
 21
-54.054807
 31
0.0
  0
LINE
  5
8A1
330
88B
100
AcDbEntity
  8
型材断面
  6
Continuous
100
AcDbLine
 10
-45.57284
 20
-54.054807
 30
0.0
 11
-98.94995
 21
-58.90727
 31
0.0
  0
LINE
  5
8A2
330
88B
100
AcDbEntity
  8
型材断面
  6
Continuous
100
AcDbLine
 10
-98.94995
 20
-58.90727
 30
0.0
 11
-98.94995
 21
-70.654805
 31
0.0
  0
LINE
  5
8A3
330
88B
100
AcDbEntity
  8
型材断面
  6
Continuous
100
AcDbLine
 10
-98.94995
 20
-70.654805
 30
0.0
 11
-64.14995
 21
-70.654805
 31
0.0
  0
LINE
  5
8A4
330
88B
100
AcDbEntity
  8
型材断面
  6
Continuous
100
AcDbLine
 10
-64.14995
 20
-70.654805
 30
0.0
 11
-64.14995
 21
-72.654815
 31
0.0
  0
LINE
  5
8A5
330
88B
100
AcDbEntity
  8
型材断面
  6
Continuous
100
AcDbLine
 10
-64.14995
 20
-72.654815
 30
0.0
 11
-68.84994500000001
 21
-72.654815
 31
0.0
  0
LINE
  5
8A6
330
88B
100
AcDbEntity
  8
型材断面
  6
Continuous
100
AcDbLine
 10
-68.84994500000001
 20
-72.654815
 30
0.0
 11
-69.149945
 21
-72.35480699999999
 31
0.0
  0
LINE
  5
8A7
330
88B
100
AcDbEntity
  8
型材断面
  6
Continuous
100
AcDbLine
 10
-69.149945
 20
-72.35480699999999
 30
0.0
 11
-69.44995299999999
 21
-72.654815
 31
0.0
  0
LINE
  5
8A8
330
88B
100
AcDbEntity
  8
型材断面
  6
Continuous
100
AcDbLine
 10
-69.44995299999999
 20
-72.654815
 30
0.0
 11
-74.149947
 21
-72.654815
 31
0.0
  0
LINE
  5
8A9
330
88B
100
AcDbEntity
  8
型材断面
  6
Continuous
100
AcDbLine
 10
-74.149947
 20
-72.654815
 30
0.0
 11
-74.149947
 21
-82.354805
 31
0.0
  0
LINE
  5
8AA
330
88B
100
AcDbEntity
  8
型材断面
  6
Continuous
100
AcDbLine
 10
-74.149947
 20
-82.354805
 30
0.0
 11
-75.649947
 21
-82.354805
 31
0.0
  0
LINE
  5
8AB
330
88B
100
AcDbEntity
  8
型材断面
  6
Continuous
100
AcDbLine
 10
-75.649947
 20
-82.354805
 30
0.0
 11
-75.649947
 21
-72.35480699999999
 31
0.0
  0
LINE
  5
8AC
330
88B
100
AcDbEntity
  8
型材断面
  6
Continuous
100
AcDbLine
 10
-75.649947
 20
-72.35480699999999
 30
0.0
 11
-100.649945
 21
-72.35480699999999
 31
0.0
  0
LINE
  5
8AD
330
88B
100
AcDbEntity
  8
型材断面
  6
Continuous
100
AcDbLine
 10
-100.649945
 20
-72.35480699999999
 30
0.0
 11
-100.649945
 21
-57.354807
 31
0.0
  0
LINE
  5
8AE
330
88B
100
AcDbEntity
  8
型材断面
  6
Continuous
100
AcDbLine
 10
-100.649945
 20
-57.354807
 30
0.0
 11
-45.649947
 21
-52.354805
 31
0.0
  0
LINE
  5
8AF
330
88B
100
AcDbEntity
  8
型材断面
  6
Continuous
100
AcDbLine
 10
-45.649947
 20
-52.354805
 30
0.0
 11
-45.649947
 21
-48.654807
 31
0.0
  0
LINE
  5
8B0
330
88B
100
AcDbEntity
  8
型材断面
  6
Continuous
100
AcDbLine
 10
-45.649947
 20
-48.654807
 30
0.0
 11
-45.349947
 21
-48.354815
 31
0.0
  0
LINE
  5
8B1
330
88B
100
AcDbEntity
  8
型材断面
  6
Continuous
100
AcDbLine
 10
-45.349947
 20
-48.354815
 30
0.0
 11
-45.649947
 21
-48.054807
 31
0.0
  0
LINE
  5
8B2
330
88B
100
AcDbEntity
  8
型材断面
  6
Continuous
100
AcDbLine
 10
-45.649947
 20
-48.054807
 30
0.0
 11
-45.649947
 21
-1.854792
 31
0.0
  0
LINE
  5
8B3
330
88B
100
AcDbEntity
  8
型材断面
  6
Continuous
100
AcDbLine
 10
-45.649947
 20
-1.854792
 30
0.0
 11
-41.649942
 21
2.145197
 31
0.0
  0
LINE
  5
8B4
330
88B
100
AcDbEntity
  8
型材断面
  6
Continuous
100
AcDbLine
 10
-41.649942
 20
2.145197
 30
0.0
 11
-41.649942
 21
26.845195
 31
0.0
  0
LINE
  5
8B5
330
88B
100
AcDbEntity
  8
型材断面
  6
Continuous
100
AcDbLine
 10
-41.649942
 20
26.845195
 30
0.0
 11
-41.34995
 21
27.145195
 31
0.0
  0
LINE
  5
8B6
330
88B
100
AcDbEntity
  8
型材断面
  6
Continuous
100
AcDbLine
 10
-41.34995
 20
27.145195
 30
0.0
 11
-41.649942
 21
27.445195
 31
0.0
  0
LINE
  5
8B7
330
88B
100
AcDbEntity
  8
型材断面
  6
Continuous
100
AcDbLine
 10
-41.649942
 20
27.445195
 30
0.0
 11
-41.649942
 21
32.145197
 31
0.0
  0
LINE
  5
8B8
330
88B
100
AcDbEntity
  8
型材断面
  6
Continuous
100
AcDbLine
 10
-41.649942
 20
32.145197
 30
0.0
 11
-39.949947
 21
32.145197
 31
0.0
  0
LINE
  5
8B9
330
88B
100
AcDbEntity
  8
型材断面
  6
Continuous
100
AcDbLine
 10
-39.949947
 20
32.145197
 30
0.0
 11
-39.949947
 21
1.441045
 31
0.0
  0
LINE
  5
8BA
330
88B
100
AcDbEntity
  8
型材断面
  6
Continuous
100
AcDbLine
 10
-39.949947
 20
1.441045
 30
0.0
 11
-43.949953
 21
-2.55896
 31
0.0
  0
LINE
  5
8BB
330
88B
100
AcDbEntity
  8
型材断面
  6
Continuous
100
AcDbLine
 10
-43.949953
 20
-2.55896
 30
0.0
 11
-43.949953
 21
-52.354805
 31
0.0
  0
LINE
  5
8BC
330
88B
100
AcDbEntity
  8
型材断面
  6
Continuous
100
AcDbLine
 10
-43.949953
 20
-52.354805
 30
0.0
 11
-14.34995
 21
-52.354805
 31
0.0
  0
LINE
  5
8BD
330
88B
100
AcDbEntity
  8
型材断面
  6
Continuous
100
AcDbLine
 10
-14.34995
 20
-52.354805
 30
0.0
 11
-14.34995
 21
-41.35481
 31
0.0
  0
LINE
  5
8BE
330
88B
100
AcDbEntity
  8
型材断面
  6
Continuous
100
AcDbLine
 10
-14.34995
 20
-41.35481
 30
0.0
 11
-10.099947
 21
-41.35481
 31
0.0
  0
LINE
  5
8BF
330
88B
100
AcDbEntity
  8
型材断面
  6
Continuous
100
AcDbLine
 10
-10.099947
 20
-41.35481
 30
0.0
 11
-9.899953
 21
-42.354807
 31
0.0
  0
LINE
  5
8C0
330
88B
100
AcDbEntity
  8
型材断面
  6
Continuous
100
AcDbLine
 10
-9.899953
 20
-42.354807
 30
0.0
 11
-12.649947
 21
-42.354807
 31
0.0
  0
LINE
  5
8C1
330
88B
100
AcDbEntity
  8
型材断面
  6
Continuous
100
AcDbLine
 10
-12.649947
 20
-42.354807
 30
0.0
 11
-12.649947
 21
-44.354803
 31
0.0
  0
LINE
  5
8C2
330
88B
100
AcDbEntity
  8
型材断面
  6
Continuous
100
AcDbLine
 10
-12.649947
 20
-44.354803
 30
0.0
 11
-3.649947
 21
-44.354803
 31
0.0
  0
LINE
  5
8C3
330
88B
100
AcDbEntity
  8
型材断面
  6
Continuous
100
AcDbLine
 10
-3.649947
 20
-44.354803
 30
0.0
 11
-3.649947
 21
-42.354807
 31
0.0
  0
ENDBLK
  5
8C4
330
88B
100
AcDbEntity
  8
0
100
AcDbBlockEnd
  0
BLOCK
  5
8C5
330
8C6
100
AcDbEntity
  8
0
100
AcDbBlockBegin
  2
*U63
 70
     1
 71
     0
 10
0.0
 20
0.0
 30
0.0
  3
*U63
  1

  0
LINE
  5
8C7
330
8C6
100
AcDbEntity
  8
型材断面
  6
Continuous
100
AcDbLine
 10
-3.649947
 20
-34.354805
 30
0.0
 11
-3.649947
 21
-29.854805
 31
0.0
  0
LINE
  5
8C8
330
8C6
100
AcDbEntity
  8
型材断面
  6
Continuous
100
AcDbLine
 10
-3.649947
 20
-29.854805
 30
0.0
 11
-32.94995
 21
-29.854805
 31
0.0
  0
LINE
  5
8C9
330
8C6
100
AcDbEntity
  8
型材断面
  6
Continuous
100
AcDbLine
 10
-32.94995
 20
-29.854805
 30
0.0
 11
-32.94995
 21
-36.3548
 31
0.0
  0
LINE
  5
8CA
330
8C6
100
AcDbEntity
  8
型材断面
  6
Continuous
100
AcDbLine
 10
-32.94995
 20
-36.3548
 30
0.0
 11
-36.449945
 21
-36.3548
 31
0.0
  0
LINE
  5
8CB
330
8C6
100
AcDbEntity
  8
型材断面
  6
Continuous
100
AcDbLine
 10
-36.449945
 20
-36.3548
 30
0.0
 11
-36.449945
 21
-34.854807
 31
0.0
  0
LINE
  5
8CC
330
8C6
100
AcDbEntity
  8
型材断面
  6
Continuous
100
AcDbLine
 10
-36.449945
 20
-34.854807
 30
0.0
 11
-34.949945
 21
-34.854807
 31
0.0
  0
LINE
  5
8CD
330
8C6
100
AcDbEntity
  8
型材断面
  6
Continuous
100
AcDbLine
 10
-34.949945
 20
-34.854807
 30
0.0
 11
-34.949945
 21
-24.154805
 31
0.0
  0
LINE
  5
8CE
330
8C6
100
AcDbEntity
  8
型材断面
  6
Continuous
100
AcDbLine
 10
-34.949945
 20
-24.154805
 30
0.0
 11
-34.649945
 21
-23.854805
 31
0.0
  0
LINE
  5
8CF
330
8C6
100
AcDbEntity
  8
型材断面
  6
Continuous
100
AcDbLine
 10
-34.649945
 20
-23.854805
 30
0.0
 11
-34.949945
 21
-23.554813
 31
0.0
  0
LINE
  5
8D0
330
8C6
100
AcDbEntity
  8
型材断面
  6
Continuous
100
AcDbLine
 10
-34.949945
 20
-23.554813
 30
0.0
 11
-34.949945
 21
15.14519
 31
0.0
  0
LINE
  5
8D1
330
8C6
100
AcDbEntity
  8
型材断面
  6
Continuous
100
AcDbLine
 10
-34.949945
 20
15.14519
 30
0.0
 11
-36.449945
 21
15.14519
 31
0.0
  0
LINE
  5
8D2
330
8C6
100
AcDbEntity
  8
型材断面
  6
Continuous
100
AcDbLine
 10
-36.449945
 20
15.14519
 30
0.0
 11
-36.449945
 21
16.645197
 31
0.0
  0
LINE
  5
8D3
330
8C6
100
AcDbEntity
  8
型材断面
  6
Continuous
100
AcDbLine
 10
-36.449945
 20
16.645197
 30
0.0
 11
-34.949945
 21
16.645197
 31
0.0
  0
LINE
  5
8D4
330
8C6
100
AcDbEntity
  8
型材断面
  6
Continuous
100
AcDbLine
 10
-34.949945
 20
16.645197
 30
0.0
 11
-34.949945
 21
26.845195
 31
0.0
  0
LINE
  5
8D5
330
8C6
100
AcDbEntity
  8
型材断面
  6
Continuous
100
AcDbLine
 10
-34.949945
 20
26.845195
 30
0.0
 11
-34.649945
 21
27.145195
 31
0.0
  0
LINE
  5
8D6
330
8C6
100
AcDbEntity
  8
型材断面
  6
Continuous
100
AcDbLine
 10
-34.649945
 20
27.145195
 30
0.0
 11
-34.949945
 21
27.445195
 31
0.0
  0
LINE
  5
8D7
330
8C6
100
AcDbEntity
  8
型材断面
  6
Continuous
100
AcDbLine
 10
-34.949945
 20
27.445195
 30
0.0
 11
-34.949945
 21
32.145197
 31
0.0
  0
LINE
  5
8D8
330
8C6
100
AcDbEntity
  8
型材断面
  6
Continuous
100
AcDbLine
 10
-34.949945
 20
32.145197
 30
0.0
 11
-25.949953
 21
32.145197
 31
0.0
  0
LINE
  5
8D9
330
8C6
100
AcDbEntity
  8
型材断面
  6
Continuous
100
AcDbLine
 10
-25.949953
 20
32.145197
 30
0.0
 11
-25.649953
 21
31.84519
 31
0.0
  0
LINE
  5
8DA
330
8C6
100
AcDbEntity
  8
型材断面
  6
Continuous
100
AcDbLine
 10
-25.649953
 20
31.84519
 30
0.0
 11
-25.349945
 21
32.145197
 31
0.0
  0
LINE
  5
8DB
330
8C6
100
AcDbEntity
  8
型材断面
  6
Continuous
100
AcDbLine
 10
-25.349945
 20
32.145197
 30
0.0
 11
-16.649945
 21
32.145197
 31
0.0
  0
LINE
  5
8DC
330
8C6
100
AcDbEntity
  8
型材断面
  6
Continuous
100
AcDbLine
 10
-16.649945
 20
32.145197
 30
0.0
 11
-16.649945
 21
-27.85481
 31
0.0
  0
LINE
  5
8DD
330
8C6
100
AcDbEntity
  8
型材断面
  6
Continuous
100
AcDbLine
 10
-16.649945
 20
-27.85481
 30
0.0
 11
27.850052
 21
-27.85481
 31
0.0
  0
LINE
  5
8DE
330
8C6
100
AcDbEntity
  8
型材断面
  6
Continuous
100
AcDbLine
 10
27.850052
 20
-27.85481
 30
0.0
 11
27.850052
 21
-19.354805
 31
0.0
  0
LINE
  5
8DF
330
8C6
100
AcDbEntity
  8
型材断面
  6
Continuous
100
AcDbLine
 10
27.850052
 20
-19.354805
 30
0.0
 11
29.350052
 21
-19.354805
 31
0.0
  0
LINE
  5
8E0
330
8C6
100
AcDbEntity
  8
型材断面
  6
Continuous
100
AcDbLine
 10
29.350052
 20
-19.354805
 30
0.0
 11
29.350052
 21
-29.854805
 31
0.0
  0
LINE
  5
8E1
330
8C6
100
AcDbEntity
  8
型材断面
  6
Continuous
100
AcDbLine
 10
29.350052
 20
-29.854805
 30
0.0
 11
-2.149947
 21
-29.854805
 31
0.0
  0
LINE
  5
8E2
330
8C6
100
AcDbEntity
  8
型材断面
  6
Continuous
100
AcDbLine
 10
-2.149947
 20
-29.854805
 30
0.0
 11
-2.149947
 21
-34.854807
 31
0.0
  0
LINE
  5
8E3
330
8C6
100
AcDbEntity
  8
型材断面
  6
Continuous
100
AcDbLine
 10
-2.149947
 20
-34.854807
 30
0.0
 11
0.850052
 21
-34.854807
 31
0.0
  0
LINE
  5
8E4
330
8C6
100
AcDbEntity
  8
型材断面
  6
Continuous
100
AcDbLine
 10
0.850052
 20
-34.854807
 30
0.0
 11
0.850052
 21
-36.3548
 31
0.0
  0
LINE
  5
8E5
330
8C6
100
AcDbEntity
  8
型材断面
  6
Continuous
100
AcDbLine
 10
0.850052
 20
-36.3548
 30
0.0
 11
-6.84995
 21
-36.3548
 31
0.0
  0
LINE
  5
8E6
330
8C6
100
AcDbEntity
  8
型材断面
  6
Continuous
100
AcDbLine
 10
-6.84995
 20
-36.3548
 30
0.0
 11
-7.14995
 21
-36.054807
 31
0.0
  0
LINE
  5
8E7
330
8C6
100
AcDbEntity
  8
型材断面
  6
Continuous
100
AcDbLine
 10
-7.14995
 20
-36.054807
 30
0.0
 11
-7.449942
 21
-36.3548
 31
0.0
  0
LINE
  5
8E8
330
8C6
100
AcDbEntity
  8
型材断面
  6
Continuous
100
AcDbLine
 10
-7.449942
 20
-36.3548
 30
0.0
 11
-14.34995
 21
-36.3548
 31
0.0
  0
LINE
  5
8E9
330
8C6
100
AcDbEntity
  8
型材断面
  6
Continuous
100
AcDbLine
 10
-14.34995
 20
-36.3548
 30
0.0
 11
-14.34995
 21
-34.354805
 31
0.0
  0
LINE
  5
8EA
330
8C6
100
AcDbEntity
  8
型材断面
  6
Continuous
100
AcDbLine
 10
-14.34995
 20
-34.354805
 30
0.0
 11
-3.649947
 21
-34.354805
 31
0.0
  0
LINE
  5
8EB
330
8C6
100
AcDbEntity
  8
型材断面
  6
Continuous
100
AcDbLine
 10
-30.149945
 20
30.645197
 30
0.0
 11
-29.149947
 21
28.1452
 31
0.0
  0
LINE
  5
8EC
330
8C6
100
AcDbEntity
  8
型材断面
  6
Continuous
100
AcDbLine
 10
-29.149947
 20
28.1452
 30
0.0
 11
-22.149942
 21
28.1452
 31
0.0
  0
LINE
  5
8ED
330
8C6
100
AcDbEntity
  8
型材断面
  6
Continuous
100
AcDbLine
 10
-22.149942
 20
28.1452
 30
0.0
 11
-21.149953
 21
30.645197
 31
0.0
  0
LINE
  5
8EE
330
8C6
100
AcDbEntity
  8
型材断面
  6
Continuous
100
AcDbLine
 10
-21.149953
 20
30.645197
 30
0.0
 11
-18.149945
 21
30.645197
 31
0.0
  0
LINE
  5
8EF
330
8C6
100
AcDbEntity
  8
型材断面
  6
Continuous
100
AcDbLine
 10
-18.149945
 20
30.645197
 30
0.0
 11
-18.149945
 21
-27.85481
 31
0.0
  0
LINE
  5
8F0
330
8C6
100
AcDbEntity
  8
型材断面
  6
Continuous
100
AcDbLine
 10
-18.149945
 20
-27.85481
 30
0.0
 11
-32.94995
 21
-27.85481
 31
0.0
  0
LINE
  5
8F1
330
8C6
100
AcDbEntity
  8
型材断面
  6
Continuous
100
AcDbLine
 10
-32.94995
 20
-27.85481
 30
0.0
 11
-32.94995
 21
30.645197
 31
0.0
  0
LINE
  5
8F2
330
8C6
100
AcDbEntity
  8
型材断面
  6
Continuous
100
AcDbLine
 10
-32.94995
 20
30.645197
 30
0.0
 11
-30.149945
 21
30.645197
 31
0.0
  0
ENDBLK
  5
8F3
330
8C6
100
AcDbEntity
  8
0
100
AcDbBlockEnd
  0
ENDSEC
  0
SECTION
  2
ENTITIES
  0
LWPOLYLINE
  5
8F4
330
1D
100
AcDbEntity
  8
通り芯
  6
Continuous
100
AcDbPolyline
 90
        4
 70
     1
 43
0.0
 10
-210.0
 20
-148.5
 10
210.0
 20
-148.5
 10
210.0
 20
148.5
 10
-210.0
 20
148.5
  0
INSERT
  5
8FA
330
1D
100
AcDbEntity
  8
補助線
  6
Continuous
100
AcDbBlockReference
  2
*U1
 10
0.0
 20
0.0
 30
0.0
  0
INSERT
  5
8FB
330
1D
100
AcDbEntity
  8
補助線
  6
Continuous
100
AcDbBlockReference
  2
*U2
 10
0.0
 20
0.0
 30
0.0
  0
INSERT
  5
8FC
330
1D
100
AcDbEntity
  8
型材断面
  6
Continuous
100
AcDbBlockReference
  2
*U0
 10
0.0
 20
0.0
 30
0.0
  0
LINE
  5
8FD
330
1D
100
AcDbEntity
  8
型材断面
  6
DOT
100
AcDbLine
 10
-43.949953
 20
-52.354805
 30
0.0
 11
-45.649947
 21
-52.354805
 31
0.0
  0
LINE
  5
8FE
330
1D
100
AcDbEntity
  8
型材断面
  6
DOT
100
AcDbLine
 10
-43.949953
 20
-44.354803
 30
0.0
 11
-45.649947
 21
-44.354803
 31
0.0
  0
LINE
  5
8FF
330
1D
100
AcDbEntity
  8
型材断面
  6
DOT
100
AcDbLine
 10
-45.224945
 20
-52.354805
 30
0.0
 11
-45.224945
 21
-44.354803
 31
0.0
  0
LINE
  5
900
330
1D
100
AcDbEntity
  8
型材断面
  6
DOT
100
AcDbLine
 10
-44.79995
 20
-52.354805
 30
0.0
 11
-44.79995
 21
-44.354803
 31
0.0
  0
LINE
  5
901
330
1D
100
AcDbEntity
  8
型材断面
  6
DOT
100
AcDbLine
 10
-44.374947
 20
-52.354805
 30
0.0
 11
-44.374947
 21
-44.354803
 31
0.0
  0
LINE
  5
902
330
1D
100
AcDbEntity
  8
型材断面
  6
DOT
100
AcDbLine
 10
-16.649945
 20
-19.854807
 30
0.0
 11
-18.149945
 21
-19.854807
 31
0.0
  0
LINE
  5
903
330
1D
100
AcDbEntity
  8
型材断面
  6
DOT
100
AcDbLine
 10
-16.649945
 20
-27.85481
 30
0.0
 11
-18.149945
 21
-27.85481
 31
0.0
  0
LINE
  5
904
330
1D
100
AcDbEntity
  8
型材断面
  6
DOT
100
AcDbLine
 10
-17.774945
 20
-27.85481
 30
0.0
 11
-17.774945
 21
-19.854807
 31
0.0
  0
LINE
  5
905
330
1D
100
AcDbEntity
  8
型材断面
  6
DOT
100
AcDbLine
 10
-17.399945
 20
-27.85481
 30
0.0
 11
-17.399945
 21
-19.854807
 31
0.0
  0
LINE
  5
906
330
1D
100
AcDbEntity
  8
型材断面
  6
DOT
100
AcDbLine
 10
-17.024945
 20
-27.85481
 30
0.0
 11
-17.024945
 21
-19.854807
 31
0.0
  0
LINE
  5
907
330
1D
100
AcDbEntity
  8
型材断面
  6
DOT
100
AcDbLine
 10
-32.94995
 20
-27.85481
 30
0.0
 11
-34.949945
 21
-27.85481
 31
0.0
  0
LINE
  5
908
330
1D
100
AcDbEntity
  8
型材断面
  6
DOT
100
AcDbLine
 10
-34.449942
 20
-27.85481
 30
0.0
 11
-34.449942
 21
-19.854807
 31
0.0
  0
LINE
  5
909
330
1D
100
AcDbEntity
  8
型材断面
  6
DOT
100
AcDbLine
 10
-33.949947
 20
-27.85481
 30
0.0
 11
-33.949947
 21
-19.854807
 31
0.0
  0
LINE
  5
90A
330
1D
100
AcDbEntity
  8
型材断面
  6
DOT
100
AcDbLine
 10
-33.449945
 20
-27.85481
 30
0.0
 11
-33.449945
 21
-19.854807
 31
0.0
  0
LINE
  5
90B
330
1D
100
AcDbEntity
  8
型材断面
  6
DOT
100
AcDbLine
 10
-32.94995
 20
-19.854807
 30
0.0
 11
-34.949945
 21
-19.854807
 31
0.0
  0
INSERT
  5
90C
330
1D
100
AcDbEntity
  8
型材断面
  6
Continuous
100
AcDbBlockReference
  2
*U3
 10
0.0
 20
0.0
 30
0.0
  0
INSERT
  5
90D
330
1D
100
AcDbEntity
  8
型材断面
  6
Continuous
100
AcDbBlockReference
  2
*U4
 10
0.0
 20
0.0
 30
0.0
  0
INSERT
  5
90E
330
1D
100
AcDbEntity
  8
型材断面
  6
DOT
100
AcDbBlockReference
  2
*U62
 10
0.0
 20
0.0
 30
0.0
  0
INSERT
  5
90F
330
1D
100
AcDbEntity
  8
型材断面
  6
DOT
100
AcDbBlockReference
  2
*U63
 10
0.0
 20
0.0
 30
0.0
  0
INSERT
  5
910
330
1D
100
AcDbEntity
  8
ガラス
  6
DOT
100
AcDbBlockReference
  2
*U5
 10
0.0
 20
0.0
 30
0.0
  0
INSERT
  5
911
330
1D
100
AcDbEntity
  8
ガラス
  6
DOT
100
AcDbBlockReference
  2
*U6
 10
0.0
 20
0.0
 30
0.0
  0
INSERT
  5
912
330
1D
100
AcDbEntity
  8
ガラス
  6
DOT
100
AcDbBlockReference
  2
*U7
 10
0.0
 20
0.0
 30
0.0
  0
INSERT
  5
913
330
1D
100
AcDbEntity
  8
ガラス
  6
DOT
100
AcDbBlockReference
  2
*U8
 10
0.0
 20
0.0
 30
0.0
  0
INSERT
  5
914
330
1D
100
AcDbEntity
  8
ガラス
  6
DOT
100
AcDbBlockReference
  2
*U9
 10
0.0
 20
0.0
 30
0.0
  0
INSERT
  5
915
330
1D
100
AcDbEntity
  8
ガラス
  6
DOT
100
AcDbBlockReference
  2
*U10
 10
0.0
 20
0.0
 30
0.0
  0
INSERT
  5
916
330
1D
100
AcDbEntity
  8
ガラス
  6
DOT
100
AcDbBlockReference
  2
*U11
 10
0.0
 20
0.0
 30
0.0
  0
INSERT
  5
917
330
1D
100
AcDbEntity
  8
ガラス
  6
DOT
100
AcDbBlockReference
  2
*U12
 10
0.0
 20
0.0
 30
0.0
  0
INSERT
  5
918
330
1D
100
AcDbEntity
  8
ガラス
  6
DOT
100
AcDbBlockReference
  2
*U13
 10
0.0
 20
0.0
 30
0.0
  0
INSERT
  5
919
330
1D
100
AcDbEntity
  8
ガラス
  6
DOT
100
AcDbBlockReference
  2
*U14
 10
0.0
 20
0.0
 30
0.0
  0
INSERT
  5
91A
330
1D
100
AcDbEntity
  8
ガラス
  6
DOT
100
AcDbBlockReference
  2
*U15
 10
0.0
 20
0.0
 30
0.0
  0
INSERT
  5
91B
330
1D
100
AcDbEntity
  8
ガラス
  6
DOT
100
AcDbBlockReference
  2
*U16
 10
0.0
 20
0.0
 30
0.0
  0
INSERT
  5
91C
330
1D
100
AcDbEntity
  8
ガラス
  6
DOT
100
AcDbBlockReference
  2
*U17
 10
0.0
 20
0.0
 30
0.0
  0
INSERT
  5
91D
330
1D
100
AcDbEntity
  8
ガラス
  6
DOT
100
AcDbBlockReference
  2
*U18
 10
0.0
 20
0.0
 30
0.0
  0
INSERT
  5
91E
330
1D
100
AcDbEntity
  8
ガラス
  6
DOT
100
AcDbBlockReference
  2
*U19
 10
0.0
 20
0.0
 30
0.0
  0
INSERT
  5
91F
330
1D
100
AcDbEntity
  8
ガラス
  6
DOT
100
AcDbBlockReference
  2
*U20
 10
0.0
 20
0.0
 30
0.0
  0
LINE
  5
920
330
1D
100
AcDbEntity
  8
ガラス
  6
Continuous
100
AcDbLine
 10
-0.6499470000000001
 20
9.443747999999999
 30
0.0
 11
-0.6499470000000001
 21
2.643745
 31
0.0
  0
LINE
  5
921
330
1D
100
AcDbEntity
  8
ガラス
  6
Continuous
100
AcDbLine
 10
-0.6499470000000001
 20
2.643745
 30
0.0
 11
71.594763
 21
2.643745
 31
0.0
  0
LINE
  5
922
330
1D
100
AcDbEntity
  8
ガラス
  6
Continuous
100
AcDbLine
 10
-0.6499470000000001
 20
3.143748
 30
0.0
 11
71.594763
 21
3.143748
 31
0.0
  0
LINE
  5
923
330
1D
100
AcDbEntity
  8
ガラス
  6
Continuous
100
AcDbLine
 10
-0.6499470000000001
 20
8.943745
 30
0.0
 11
71.594763
 21
8.943745
 31
0.0
  0
LINE
  5
924
330
1D
100
AcDbEntity
  8
ガラス
  6
Continuous
100
AcDbLine
 10
-0.6499470000000001
 20
9.443747999999999
 30
0.0
 11
71.594763
 21
9.443747999999999
 31
0.0
  0
INSERT
  5
925
330
1D
100
AcDbEntity
  8
ゴム等
  6
DOT
100
AcDbBlockReference
  2
*U21
 10
0.0
 20
0.0
 30
0.0
  0
INSERT
  5
926
330
1D
100
AcDbEntity
  8
ゴム等
  6
Continuous
100
AcDbBlockReference
  2
*U22
 10
0.0
 20
0.0
 30
0.0
  0
INSERT
  5
927
330
1D
100
AcDbEntity
  8
ゴム等
  6
Continuous
100
AcDbBlockReference
  2
*U23
 10
0.0
 20
0.0
 30
0.0
  0
INSERT
  5
928
330
1D
100
AcDbEntity
  8
ゴム等
  6
Continuous
100
AcDbBlockReference
  2
*U24
 10
0.0
 20
0.0
 30
0.0
  0
INSERT
  5
929
330
1D
100
AcDbEntity
  8
ゴム等
  6
Continuous
100
AcDbBlockReference
  2
*U25
 10
0.0
 20
0.0
 30
0.0
  0
INSERT
  5
92A
330
1D
100
AcDbEntity
  8
ゴム等
  6
Continuous
100
AcDbBlockReference
  2
*U26
 10
0.0
 20
0.0
 30
0.0
  0
INSERT
  5
92B
330
1D
100
AcDbEntity
  8
ボルト／ビス
  6
Continuous
100
AcDbBlockReference
  2
*U27
 10
0.0
 20
0.0
 30
0.0
  0
INSERT
  5
92C
330
1D
100
AcDbEntity
  8
ボルト／ビス
  6
Continuous
100
AcDbBlockReference
  2
*U28
 10
0.0
 20
0.0
 30
0.0
  0
INSERT
  5
92D
330
1D
100
AcDbEntity
  8
ボルト／ビス
  6
Continuous
 62
    64
100
AcDbBlockReference
  2
*U29
 10
0.0
 20
0.0
 30
0.0
  0
INSERT
  5
92E
330
1D
100
AcDbEntity
  8
ボルト／ビス
  6
Continuous
 62
    64
100
AcDbBlockReference
  2
*U30
 10
0.0
 20
0.0
 30
0.0
  0
INSERT
  5
92F
330
1D
100
AcDbEntity
  8
ボルト／ビス
  6
Continuous
 62
    64
100
AcDbBlockReference
  2
*U31
 10
0.0
 20
0.0
 30
0.0
  0
INSERT
  5
930
330
1D
100
AcDbEntity
  8
ボルト／ビス
  6
Continuous
 62
    64
100
AcDbBlockReference
  2
*U32
 10
0.0
 20
0.0
 30
0.0
  0
INSERT
  5
931
330
1D
100
AcDbEntity
  8
ボルト／ビス
  6
Continuous
100
AcDbBlockReference
  2
*U33
 10
0.0
 20
0.0
 30
0.0
  0
TEXT
  5
932
330
1D
100
AcDbEntity
  8
文字
  6
Continuous
100
AcDbText
 10
75.75
 20
101.45
 30
0.0
 40
5.0
  1
ＮＳコード：ＮＳＫ
  7
TextStyle03
 72
     5
 11
125.75
 21
101.45
 31
0.0
100
AcDbText
  0
TEXT
  5
933
330
1D
100
AcDbEntity
  8
文字
  6
Continuous
100
AcDbText
 10
75.825
 20
123.9
 30
0.0
 40
5.0
  1
シリーズ：ＴＤ１Ｋ
  7
TextStyle03
 72
     5
 11
125.825
 21
123.9
 31
0.0
100
AcDbText
  0
TEXT
  5
934
330
1D
100
AcDbEntity
  8
文字
  6
Continuous
100
AcDbText
 10
75.825
 20
118.275
 30
0.0
 40
5.0
  1
　　　　　（固定）
  7
TextStyle03
 72
     5
 11
125.825
 21
118.275
 31
0.0
100
AcDbText
  0
TEXT
  5
935
330
1D
100
AcDbEntity
  8
文字
  6
Continuous
100
AcDbText
 10
75.825
 20
112.65
 30
0.0
 40
5.0
  1
図面名　：下枠断面詳細図
  7
TextStyle03
 72
     5
 11
142.7
 21
112.65
 31
0.0
100
AcDbText
  0
INSERT
  5
936
330
1D
100
AcDbEntity
  8
文字
  6
Continuous
100
AcDbBlockReference
  2
*U34
 10
0.0
 20
0.0
 30
0.0
  0
TEXT
  5
937
330
1D
100
AcDbEntity
  8
文字
  6
Continuous
100
AcDbText
 10
10.075
 20
115.95
 30
0.0
 40
4.0
  1
ドーム呼称寸法
  7
TextStyle03
 72
     5
 11
41.075
 21
115.95
 31
0.0
100
AcDbText
  0
TEXT
  5
938
330
1D
100
AcDbEntity
  8
文字
  6
Continuous
100
AcDbText
 10
26.375
 20
44.425
 30
0.0
 40
4.0
  1
ｱｸﾘﾙ　or　ﾎﾟﾘｶ
  7
TextStyle03
 72
     5
 11
57.625
 21
44.425
 31
0.0
100
AcDbText
  0
TEXT
  5
939
330
1D
100
AcDbEntity
  8
文字
  6
Continuous
100
AcDbText
 10
-77.675
 20
59.0
 30
0.0
 40
4.0
  1
ｴﾌﾟﾄｼｰﾗｰ
  7
TextStyle03
 72
     5
 11
-59.925
 21
59.0
 31
0.0
100
AcDbText
  0
TEXT
  5
93A
330
1D
100
AcDbEntity
  8
文字
  6
Continuous
100
AcDbText
 10
-97.22499999999999
 20
66.575
 30
0.0
 40
4.0
  1
M6×30(Wｺﾞﾑﾊﾟｯｷﾝ)
  7
TextStyle03
 72
     5
 11
-59.225
 21
66.575
 31
0.0
100
AcDbText
  0
TEXT
  5
93B
330
1D
100
AcDbEntity
  8
文字
  6
Continuous
100
AcDbText
 10
-103.85
 20
-46.575
 30
0.0
 40
4.0
  1
φ8排水穴(ﾊﾞｯﾌﾙ材付)
  7
TextStyle03
 72
     5
 11
-59.1
 21
-46.575
 31
0.0
100
AcDbText
  0
TEXT
  5
93C
330
1D
100
AcDbEntity
  8
文字
  6
Continuous
100
AcDbText
 10
-81.77500000000001
 20
4.225
 30
0.0
 40
4.0
  1
断熱材(PVC)
  7
TextStyle03
 72
     5
 11
-57.275
 21
4.225
 31
0.0
100
AcDbText
  0
TEXT
  5
93D
330
1D
100
AcDbEntity
  8
文字
  6
Continuous
100
AcDbText
 10
30.1
 20
-59.6
 30
0.0
 40
4.0
  1
断熱材(PVC)
  7
TextStyle03
 72
     5
 11
54.6
 21
-59.6
 31
0.0
100
AcDbText
  0
TEXT
  5
93E
330
1D
100
AcDbEntity
  8
文字
  6
Continuous
100
AcDbText
 10
43.825
 20
11.5
 30
0.0
 40
4.0
  1
網入りガラス6.8t
  7
TextStyle03
 72
     5
 11
79.575
 21
11.5
 31
0.0
100
AcDbText
  0
TEXT
  5
93F
330
1D
100
AcDbEntity
  8
文字
  6
Continuous
100
AcDbText
 10
39.325
 20
-8.875
 30
0.0
 40
4.0
  1
耐火材：
  7
TextStyle03
 72
     5
 11
56.825
 21
-8.875
 31
0.0
100
AcDbText
  0
TEXT
  5
940
330
1D
100
AcDbEntity
  8
文字
  6
Continuous
100
AcDbText
 10
39.325
 20
-13.375
 30
0.0
 40
4.0
  1
St-1.6t(ｶﾞﾙﾊﾞﾘｳﾑ鋼板)
  7
TextStyle03
 72
     5
 11
86.325
 21
-13.375
 31
0.0
100
AcDbText
  0
TEXT
  5
941
330
1D
100
AcDbEntity
  8
文字
  6
Continuous
100
AcDbText
 10
30.425
 20
-79.325
 30
0.0
 40
4.0
  1
耐火材：
  7
TextStyle03
 72
     5
 11
47.925
 21
-79.325
 31
0.0
100
AcDbText
  0
TEXT
  5
942
330
1D
100
AcDbEntity
  8
文字
  6
Continuous
100
AcDbText
 10
30.425
 20
-83.825
 30
0.0
 40
4.0
  1
St-1.6t(アロイ鋼板)
  7
TextStyle03
 72
     5
 11
72.925
 21
-83.825
 31
0.0
100
AcDbText
  0
TEXT
  5
943
330
1D
100
AcDbEntity
  8
文字
  6
Continuous
100
AcDbText
 10
26.125
 20
-115.175
 30
0.0
 40
4.0
  1
※型材コーナーは工場溶接
  7
TextStyle03
 72
     5
 11
79.625
 21
-115.175
 31
0.0
100
AcDbText
  0
TEXT
  5
944
330
1D
100
AcDbEntity
  8
文字
  6
Continuous
100
AcDbText
 10
-178.825
 20
124.975
 30
0.0
 40
4.0
  1
※Wドームは□1300までとなります
  7
TextStyle03
 72
     5
 11
-109.575
 21
124.975
 31
0.0
100
AcDbText
  0
INSERT
  5
945
330
1D
100
AcDbEntity
  8
寸法
  6
Continuous
100
AcDbBlockReference
  2
*U35
 10
0.0
 20
0.0
 30
0.0
  0
LINE
  5
946
330
1D
100
AcDbEntity
  8
寸法
  6
Continuous
100
AcDbLine
 10
61.298658
 20
115.95727
 30
0.0
 11
-5.64995
 21
115.95727
 31
0.0
  0
INSERT
  5
947
330
1D
100
AcDbEntity
  8
寸法
  6
Continuous
100
AcDbBlockReference
  2
*U36
 10
0.0
 20
0.0
 30
0.0
  0
INSERT
  5
948
330
1D
100
AcDbEntity
  8
寸法
  6
Continuous
100
AcDbBlockReference
  2
*U37
 10
0.0
 20
0.0
 30
0.0
  0
INSERT
  5
949
330
1D
100
AcDbEntity
  8
寸法
  6
Continuous
100
AcDbBlockReference
  2
*U38
 10
0.0
 20
0.0
 30
0.0
  0
INSERT
  5
94A
330
1D
100
AcDbEntity
  8
寸法
  6
Continuous
100
AcDbBlockReference
  2
*U39
 10
0.0
 20
0.0
 30
0.0
  0
INSERT
  5
94B
330
1D
100
AcDbEntity
  8
寸法
  6
Continuous
100
AcDbBlockReference
  2
*U40
 10
0.0
 20
0.0
 30
0.0
  0
INSERT
  5
94C
330
1D
100
AcDbEntity
  8
寸法
  6
Continuous
100
AcDbBlockReference
  2
*U41
 10
0.0
 20
0.0
 30
0.0
  0
INSERT
  5
94D
330
1D
100
AcDbEntity
  8
寸法
  6
Continuous
100
AcDbBlockReference
  2
*U42
 10
0.0
 20
0.0
 30
0.0
  0
INSERT
  5
94E
330
1D
100
AcDbEntity
  8
寸法
  6
Continuous
100
AcDbBlockReference
  2
*U43
 10
0.0
 20
0.0
 30
0.0
  0
INSERT
  5
94F
330
1D
100
AcDbEntity
  8
寸法
  6
Continuous
100
AcDbBlockReference
  2
*U44
 10
0.0
 20
0.0
 30
0.0
  0
INSERT
  5
950
330
1D
100
AcDbEntity
  8
寸法
  6
Continuous
100
AcDbBlockReference
  2
*U45
 10
0.0
 20
0.0
 30
0.0
  0
INSERT
  5
951
330
1D
100
AcDbEntity
  8
寸法
  6
Continuous
100
AcDbBlockReference
  2
*U46
 10
0.0
 20
0.0
 30
0.0
  0
INSERT
  5
952
330
1D
100
AcDbEntity
  8
寸法
  6
Continuous
100
AcDbBlockReference
  2
*U47
 10
0.0
 20
0.0
 30
0.0
  0
INSERT
  5
953
330
1D
100
AcDbEntity
  8
寸法
  6
Continuous
100
AcDbBlockReference
  2
*U48
 10
0.0
 20
0.0
 30
0.0
  0
INSERT
  5
954
330
1D
100
AcDbEntity
  8
寸法
  6
Continuous
100
AcDbBlockReference
  2
*U49
 10
0.0
 20
0.0
 30
0.0
  0
INSERT
  5
955
330
1D
100
AcDbEntity
  8
寸法
  6
Continuous
100
AcDbBlockReference
  2
*U50
 10
0.0
 20
0.0
 30
0.0
  0
INSERT
  5
956
330
1D
100
AcDbEntity
  8
寸法
  6
Continuous
100
AcDbBlockReference
  2
*U51
 10
0.0
 20
0.0
 30
0.0
  0
INSERT
  5
957
330
1D
100
AcDbEntity
  8
寸法
  6
Continuous
100
AcDbBlockReference
  2
*U52
 10
0.0
 20
0.0
 30
0.0
  0
INSERT
  5
958
330
1D
100
AcDbEntity
  8
寸法
  6
Continuous
100
AcDbBlockReference
  2
*U53
 10
0.0
 20
0.0
 30
0.0
  0
INSERT
  5
959
330
1D
100
AcDbEntity
  8
寸法
  6
Continuous
100
AcDbBlockReference
  2
*U54
 10
0.0
 20
0.0
 30
0.0
  0
INSERT
  5
95A
330
1D
100
AcDbEntity
  8
寸法
  6
Continuous
100
AcDbBlockReference
  2
*U55
 10
0.0
 20
0.0
 30
0.0
  0
INSERT
  5
95B
330
1D
100
AcDbEntity
  8
寸法
  6
Continuous
100
AcDbBlockReference
  2
*U56
 10
0.0
 20
0.0
 30
0.0
  0
INSERT
  5
95C
330
1D
100
AcDbEntity
  8
寸法
  6
Continuous
100
AcDbBlockReference
  2
*U57
 10
0.0
 20
0.0
 30
0.0
  0
INSERT
  5
95D
330
1D
100
AcDbEntity
  8
寸法
  6
Continuous
100
AcDbBlockReference
  2
*U59
 10
0.0
 20
0.0
 30
0.0
  0
INSERT
  5
95E
330
1D
100
AcDbEntity
  8
寸法
  6
Continuous
100
AcDbBlockReference
  2
*U60
 10
0.0
 20
0.0
 30
0.0
  0
INSERT
  5
95F
330
1D
100
AcDbEntity
  8
寸法
  6
Continuous
100
AcDbBlockReference
  2
*U61
 10
0.0
 20
0.0
 30
0.0
  0
ARC
  5
960
330
1D
100
AcDbEntity
  8
別途部材
  6
Continuous
 62
    96
100
AcDbCircle
 10
-50.227188
 20
34.642838
 30
0.0
 40
5.005952
100
AcDbArc
 50
90.00137300000002
 51
158.200992
  0
LINE
  5
961
330
1D
100
AcDbEntity
  8
別途部材
  6
Continuous
 62
    96
100
AcDbLine
 10
-55.649945
 20
42.652368
 30
0.0
 11
-5.64995
 21
42.652368
 31
0.0
  0
LINE
  5
962
330
1D
100
AcDbEntity
  8
別途部材
  6
Continuous
 62
    96
100
AcDbLine
 10
-50.22719
 20
39.648783
 30
0.0
 11
-3.985385
 21
39.648783
 31
0.0
  0
LINE
  5
963
330
1D
100
AcDbEntity
  8
別途部材
  6
Continuous
100
AcDbLine
 10
-67.649922
 20
12.652368
 30
0.0
 11
-64.41497699999999
 21
12.652368
 31
0.0
  0
LINE
  5
964
330
1D
100
AcDbEntity
  8
別途部材
  6
Continuous
 62
    96
100
AcDbLine
 10
-55.649945
 20
42.652368
 30
0.0
 11
-67.649922
 21
12.652368
 31
0.0
  0
LINE
  5
965
330
1D
100
AcDbEntity
  8
別途部材
  6
Continuous
 62
    96
100
AcDbLine
 10
-54.875135
 20
36.501985
 30
0.0
 11
-64.41497699999999
 21
12.652368
 31
0.0
  0
LINE
  5
966
330
1D
100
AcDbEntity
  8
別途部材
  6
Continuous
 62
   111
100
AcDbLine
 10
-5.649942
 20
36.648783
 30
0.0
 11
-49.349982
 21
36.648783
 31
0.0
  0
LINE
  5
967
330
1D
100
AcDbEntity
  8
別途部材
  6
Continuous
 62
   111
100
AcDbLine
 10
-5.025035
 20
35.145197
 30
0.0
 11
-49.349982
 21
35.145197
 31
0.0
  0
INSERT
  5
968
330
1D
100
AcDbEntity
  8
別途部材
  6
DASHDOT
100
AcDbBlockReference
  2
*U58
 10
0.0
 20
0.0
 30
0.0
  0
ARC
  5
969
330
1D
100
AcDbEntity
  8
別途部材
  6
Continuous
100
AcDbCircle
 10
186.105837
 20
-57.285459
 30
0.0
 40
216.235628
100
AcDbArc
 50
133.13237
 51
152.472719
  0
ARC
  5
96A
330
1D
100
AcDbEntity
  8
別途部材
  6
Continuous
100
AcDbCircle
 10
186.105837
 20
-57.285459
 30
0.0
 40
213.379747
100
AcDbArc
 50
133.242497
 51
152.981359
  0
LINE
  5
96B
330
1D
100
AcDbEntity
  8
曲げ物
  6
Continuous
100
AcDbLine
 10
-49.349982
 20
36.648783
 30
0.0
 11
-49.349982
 21
35.145197
 31
0.0
  0
ARC
  5
96C
330
1D
100
AcDbEntity
  8
曲げ物
  6
Continuous
100
AcDbCircle
 10
186.105837
 20
-110.920284
 30
0.0
 40
241.964678
100
AcDbArc
 50
124.961166
 51
142.419282
  0
ARC
  5
96D
330
1D
100
AcDbEntity
  8
曲げ物
  6
Continuous
100
AcDbCircle
 10
186.105837
 20
-110.920284
 30
0.0
 40
240.5538
100
AcDbArc
 50
124.961166
 51
142.612321
  0
LINE
  5
96E
330
1D
100
AcDbEntity
  8
St
  6
Continuous
100
AcDbLine
 10
-8.19317
 20
-77.454688
 30
0.0
 11
-6.593173
 21
-75.85469000000001
 31
0.0
  0
LINE
  5
96F
330
1D
100
AcDbEntity
  8
St
  6
Continuous
100
AcDbLine
 10
-7.48607
 20
-77.454688
 30
0.0
 11
-5.886072
 21
-75.85469000000001
 31
0.0
  0
ARC
  5
970
330
1D
100
AcDbEntity
  8
St
  6
Continuous
100
AcDbCircle
 10
-2.149952
 20
-75.85468299999999
 30
0.0
 40
1.6
100
AcDbArc
 50
270.0
 51
0.0
  0
LINE
  5
971
330
1D
100
AcDbEntity
  8
St
  6
Continuous
100
AcDbLine
 10
-2.149947
 20
-69.411545
 30
0.0
 11
-0.5499500000000001
 21
-67.811547
 31
0.0
  0
LINE
  5
972
330
1D
100
AcDbEntity
  8
St
  6
Continuous
100
AcDbLine
 10
-2.149947
 20
-70.118645
 30
0.0
 11
-0.5499500000000001
 21
-68.518648
 31
0.0
  0
LINE
  5
973
330
1D
100
AcDbEntity
  8
St
  6
Continuous
100
AcDbLine
 10
-2.149947
 20
-51.423793
 30
0.0
 11
-0.5499500000000001
 21
-49.823795
 31
0.0
  0
LINE
  5
974
330
1D
100
AcDbEntity
  8
St
  6
Continuous
100
AcDbLine
 10
-2.149947
 20
-52.130893
 30
0.0
 11
-0.5499500000000001
 21
-50.530895
 31
0.0
  0
LINE
  5
975
330
1D
100
AcDbEntity
  8
St
  6
Continuous
100
AcDbLine
 10
-2.149947
 20
-43.354805
 30
0.0
 11
-0.5499500000000001
 21
-43.354805
 31
0.0
  0
LINE
  5
976
330
1D
100
AcDbEntity
  8
St
  6
Continuous
100
AcDbLine
 10
-0.5499500000000001
 20
-75.85469000000001
 30
0.0
 11
-0.5499500000000001
 21
-43.354805
 31
0.0
  0
LINE
  5
977
330
1D
100
AcDbEntity
  8
St
  6
Continuous
100
AcDbLine
 10
-2.149947
 20
-43.354805
 30
0.0
 11
-2.149947
 21
-75.85469000000001
 31
0.0
  0
LINE
  5
978
330
1D
100
AcDbEntity
  8
St
  6
Continuous
100
AcDbLine
 10
-21.649903
 20
-77.454688
 30
0.0
 11
-21.649903
 21
-75.85469000000001
 31
0.0
  0
LINE
  5
979
330
1D
100
AcDbEntity
  8
St
  6
Continuous
100
AcDbLine
 10
-21.649903
 20
-75.85469000000001
 30
0.0
 11
-2.149947
 21
-75.85469000000001
 31
0.0
  0
LINE
  5
97A
330
1D
100
AcDbEntity
  8
St
  6
Continuous
100
AcDbLine
 10
-21.649903
 20
-77.454688
 30
0.0
 11
-2.149955
 21
-77.454688
 31
0.0
  0
LINE
  5
97B
330
1D
100
AcDbEntity
  8
St
  6
Continuous
100
AcDbLine
 10
-16.649945
 20
-19.854695
 30
0.0
 11
-15.049947
 21
-19.854695
 31
0.0
  0
ARC
  5
97C
330
1D
100
AcDbEntity
  8
St
  6
Continuous
100
AcDbCircle
 10
-15.049947
 20
-5.958595
 30
0.0
 40
1.6
100
AcDbArc
 50
90.0
 51
180.0
  0
LINE
  5
97D
330
1D
100
AcDbEntity
  8
St
  6
Continuous
100
AcDbLine
 10
-1.80902
 20
-4.3586
 30
0.0
 11
-3.409018
 21
-5.958597
 31
0.0
  0
LINE
  5
97E
330
1D
100
AcDbEntity
  8
St
  6
Continuous
100
AcDbLine
 10
-1.10192
 20
-4.3586
 30
0.0
 11
-2.701918
 21
-5.958597
 31
0.0
  0
LINE
  5
97F
330
1D
100
AcDbEntity
  8
St
  6
Continuous
100
AcDbLine
 10
12.65005
 20
-5.958575
 30
0.0
 11
-15.049947
 21
-5.958597
 31
0.0
  0
LINE
  5
980
330
1D
100
AcDbEntity
  8
St
  6
Continuous
100
AcDbLine
 10
12.65005
 20
-4.358577
 30
0.0
 11
12.65005
 21
-5.958575
 31
0.0
  0
LINE
  5
981
330
1D
100
AcDbEntity
  8
St
  6
Continuous
100
AcDbLine
 10
12.65005
 20
-4.358577
 30
0.0
 11
-15.049947
 21
-4.3586
 31
0.0
  0
LINE
  5
982
330
1D
100
AcDbEntity
  8
St
  6
Continuous
100
AcDbLine
 10
-15.049947
 20
-19.854695
 30
0.0
 11
-15.049947
 21
-5.958597
 31
0.0
  0
LINE
  5
983
330
1D
100
AcDbEntity
  8
St
  6
Continuous
100
AcDbLine
 10
-16.649945
 20
-19.854695
 30
0.0
 11
-16.649945
 21
-5.958597
 31
0.0
  0
LINE
  5
984
330
1D
100
AcDbEntity
  8
St
  6
Continuous
100
AcDbLine
 10
-15.049947
 20
-14.292665
 30
0.0
 11
-16.649945
 21
-15.892663
 31
0.0
  0
LINE
  5
985
330
1D
100
AcDbEntity
  8
St
  6
Continuous
100
AcDbLine
 10
-15.049947
 20
-14.999765
 30
0.0
 11
-16.649945
 21
-16.599762
 31
0.0
  0
LWPOLYLINE
  5
986
330
1D
100
AcDbEntity
  8
St
  6
Continuous
 62
    47
100
AcDbPolyline
 90
        3
 70
     0
 43
0.0
 10
61.298658
 20
115.95727
 10
55.958
 20
117.32095
 10
55.957527
 20
115.95727
  0
LWPOLYLINE
  5
98B
330
1D
100
AcDbEntity
  8
St
  6
Continuous
 62
    47
100
AcDbPolyline
 90
        3
 70
     0
 43
0.0
 10
59.404133
 20
115.95727
 10
54.063475
 20
117.32095
 10
54.063003
 20
115.95727
  0
ENDSEC
  0
SECTION
  2
OBJECTS
  0
DICTIONARY
  5
C
330
0
100
AcDbDictionary
281
     1
  3
ACAD_GROUP
350
D
  3
ACAD_LAYOUT
350
1A
  3
ACAD_MLINESTYLE
350
17
  3
ACAD_PLOTSETTINGS
350
19
  3
ACAD_PLOTSTYLENAME
350
E
  0
DICTIONARY
  5
D
102
{ACAD_REACTORS
330
C
102
}
330
C
100
AcDbDictionary
281
     1
  0
DICTIONARY
  5
1A
102
{ACAD_REACTORS
330
C
102
}
330
C
100
AcDbDictionary
281
     1
  3
Layout1
350
1C
  3
Model
350
1E
  0
DICTIONARY
  5
17
102
{ACAD_REACTORS
330
C
102
}
330
C
100
AcDbDictionary
281
     1
  3
Standard
350
18
  0
DICTIONARY
  5
19
102
{ACAD_REACTORS
330
C
102
}
330
C
100
AcDbDictionary
281
     1
  0
ACDBDICTIONARYWDFLT
  5
E
102
{ACAD_REACTORS
330
C
102
}
330
C
100
AcDbDictionary
281
     1
  3
Normal
350
F
100
AcDbDictionaryWithDefault
340
F
  0
LAYOUT
  5
1C
102
{ACAD_REACTORS
330
1A
102
}
330
1A
100
AcDbPlotSettings
  1

  2

  4

  6

 40
0.0
 41
0.0
 42
0.0
 43
0.0
 44
0.0
 45
0.0
 46
0.0
 47
0.0
 48
0.0
 49
0.0
140
0.0
141
0.0
142
1.0
143
1.0
 70
   688
 72
     0
 73
     0
 74
     5
  7

 75
    16
 76
     0
 77
     2
 78
   300
147
1.0
148
0.0
149
0.0
100
AcDbLayout
  1
Layout1
 70
     1
 71
     1
 10
0.0
 20
0.0
 11
12.0
 21
9.0
 12
0.0
 22
0.0
 32
0.0
 14
1.000000000000000E+20
 24
1.000000000000000E+20
 34
1.000000000000000E+20
 15
-1.000000000000000E+20
 25
-1.000000000000000E+20
 35
-1.000000000000000E+20
146
0.0
 13
0.0
 23
0.0
 33
0.0
 16
1.0
 26
0.0
 36
0.0
 17
0.0
 27
1.0
 37
0.0
 76
     0
330
1B
  0
LAYOUT
  5
1E
102
{ACAD_REACTORS
330
1A
102
}
330
1A
100
AcDbPlotSettings
  1

  2

  4

  6

 40
0.0
 41
0.0
 42
0.0
 43
0.0
 44
0.0
 45
0.0
 46
0.0
 47
0.0
 48
0.0
 49
0.0
140
0.0
141
0.0
142
1.0
143
1.0
 70
  1712
 72
     0
 73
     0
 74
     0
  7

 75
     0
 76
     0
 77
     2
 78
   300
147
1.0
148
0.0
149
0.0
100
AcDbLayout
  1
Model
 70
     1
 71
     0
 10
0.0
 20
0.0
 11
0.0
 21
0.0
 12
0.0
 22
0.0
 32
0.0
 14
-210.0
 24
-148.5
 34
0.0
 15
210.0
 25
148.5
 35
0.0
146
0.0
 13
0.0
 23
0.0
 33
0.0
 16
1.0
 26
0.0
 36
0.0
 17
0.0
 27
1.0
 37
0.0
 76
     0
330
1D
  0
MLINESTYLE
  5
18
102
{ACAD_REACTORS
330
17
102
}
330
17
100
AcDbMlineStyle
  2
Standard
 70
     0
  3

 62
   256
 51
90.0
 52
90.0
 71
     2
 49
0.5
 62
   256
  6
BYLAYER
 49
-0.5
 62
   256
  6
BYLAYER
  0
ACDBPLACEHOLDER
  5
F
102
{ACAD_REACTORS
330
E
102
}
330
E
  0
ENDSEC
  0
EOF
