  0
SECTION
  2
HEADER
  9
$ACADVER
  1
AC1018
  9
$ACADMAINTVER
 70
     0
  9
$DWGCODEPAGE
  3
ANSI_932
  9
$INSBASE
 10
0.0
 20
0.0
 30
0.0
  9
$EXTMIN
 10
-210.0
 20
-148.5
 30
0.0
  9
$EXTMAX
 10
210.0
 20
148.5
 30
0.0
  9
$LIMMIN
 10
0.0
 20
0.0
  9
$LIMMAX
 10
12.0
 20
9.0
  9
$ORTHOMODE
 70
     0
  9
$REGENMODE
 70
     1
  9
$FILLMODE
 70
     1
  9
$QTEXTMODE
 70
     0
  9
$MIRRTEXT
 70
     1
  9
$LTSCALE
 40
10.0
  9
$ATTMODE
 70
     1
  9
$TEXTSIZE
 40
0.2
  9
$TRACEWID
 40
0.05
  9
$TEXTSTYLE
  7
STANDARD
  9
$CLAYER
  8
0
  9
$CELTYPE
  6
ByBlock
  9
$CECOLOR
 62
   256
  9
$CELTSCALE
 40
1.0
  9
$DISPSILH
 70
     0
  9
$DIMSCALE
 40
1.0
  9
$DIMASZ
 40
0.18
  9
$DIMEXO
 40
0.0625
  9
$DIMDLI
 40
0.38
  9
$DIMRND
 40
0.0
  9
$DIMDLE
 40
0.0
  9
$DIMEXE
 40
0.18
  9
$DIMTP
 40
0.0
  9
$DIMTM
 40
0.0
  9
$DIMTXT
 40
0.18
  9
$DIMCEN
 40
0.09
  9
$DIMTSZ
 40
0.0
  9
$DIMTOL
 70
     0
  9
$DIMLIM
 70
     0
  9
$DIMTIH
 70
     1
  9
$DIMTOH
 70
     1
  9
$DIMSE1
 70
     0
  9
$DIMSE2
 70
     0
  9
$DIMTAD
 70
     0
  9
$DIMZIN
 70
     0
  9
$DIMBLK
  1

  9
$DIMASO
 70
     1
  9
$DIMSHO
 70
     1
  9
$DIMPOST
  1

  9
$DIMAPOST
  1

  9
$DIMALT
 70
     0
  9
$DIMALTD
 70
     2
  9
$DIMALTF
 40
25.4
  9
$DIMLFAC
 40
1.0
  9
$DIMTOFL
 70
     0
  9
$DIMTVP
 40
0.0
  9
$DIMTIX
 70
     0
  9
$DIMSOXD
 70
     0
  9
$DIMSAH
 70
     0
  9
$DIMBLK1
  1

  9
$DIMBLK2
  1

  9
$DIMSTYLE
  2
Standard
  9
$DIMCLRD
 70
     0
  9
$DIMCLRE
 70
     0
  9
$DIMCLRT
 70
     0
  9
$DIMTFAC
 40
1.0
  9
$DIMGAP
 40
0.09
  9
$DIMJUST
 70
     0
  9
$DIMSD1
 70
     0
  9
$DIMSD2
 70
     0
  9
$DIMTOLJ
 70
     1
  9
$DIMTZIN
 70
     0
  9
$DIMALTZ
 70
     0
  9
$DIMALTTZ
 70
     0
  9
$DIMUPT
 70
     0
  9
$DIMDEC
 70
     4
  9
$DIMTDEC
 70
     4
  9
$DIMALTU
 70
     2
  9
$DIMALTTD
 70
     2
  9
$DIMTXSTY
  7
STANDARD
  9
$DIMAUNIT
 70
     0
  9
$DIMADEC
 70
     0
  9
$DIMALTRND
 40
0.0
  9
$DIMAZIN
 70
     0
  9
$DIMDSEP
 70
    46
  9
$DIMATFIT
 70
     3
  9
$DIMFRAC
 70
     0
  9
$DIMLDRBLK
  1

  9
$DIMLUNIT
 70
     2
  9
$DIMLWD
 70
    -2
  9
$DIMLWE
 70
    -2
  9
$DIMTMOVE
 70
     0
  9
$LUNITS
 70
     2
  9
$LUPREC
 70
     4
  9
$SKETCHINC
 40
0.1
  9
$FILLETRAD
 40
0.5
  9
$AUNITS
 70
     0
  9
$AUPREC
 70
     0
  9
$MENU
  1
.
  9
$ELEVATION
 40
0.0
  9
$PELEVATION
 40
0.0
  9
$THICKNESS
 40
0.0
  9
$LIMCHECK
 70
     0
  9
$CHAMFERA
 40
0.5
  9
$CHAMFERB
 40
0.5
  9
$CHAMFERC
 40
1.0
  9
$CHAMFERD
 40
0.0
  9
$SKPOLY
 70
     0
  9
$TDCREATE
 40
2460242.402584167
  9
$TDUCREATE
 40
2460242.027584167
  9
$TDUPDATE
 40
2460242.402584178
  9
$TDUUPDATE
 40
2460242.027584178
  9
$TDINDWG
 40
0.0000000116
  9
$TDUSRTIMER
 40
0.0000000116
  9
$USRTIMER
 70
     1
  9
$ANGBASE
 50
0.0
  9
$ANGDIR
 70
     0
  9
$PDMODE
 70
    32
  9
$PDSIZE
 40
1.5
  9
$PLINEWID
 40
0.0
  9
$SPLFRAME
 70
     0
  9
$SPLINETYPE
 70
     6
  9
$SPLINESEGS
 70
     8
  9
$HANDSEED
  5
1F2
  9
$SURFTAB1
 70
     6
  9
$SURFTAB2
 70
     6
  9
$SURFTYPE
 70
     6
  9
$SURFU
 70
     6
  9
$SURFV
 70
     6
  9
$UCSBASE
  2

  9
$UCSNAME
  2

  9
$UCSORG
 10
0.0
 20
0.0
 30
0.0
  9
$UCSXDIR
 10
1.0
 20
0.0
 30
0.0
  9
$UCSYDIR
 10
0.0
 20
1.0
 30
0.0
  9
$UCSORTHOREF
  2

  9
$UCSORTHOVIEW
 70
     0
  9
$UCSORGTOP
 10
0.0
 20
0.0
 30
0.0
  9
$UCSORGBOTTOM
 10
0.0
 20
0.0
 30
0.0
  9
$UCSORGLEFT
 10
0.0
 20
0.0
 30
0.0
  9
$UCSORGRIGHT
 10
0.0
 20
0.0
 30
0.0
  9
$UCSORGFRONT
 10
0.0
 20
0.0
 30
0.0
  9
$UCSORGBACK
 10
0.0
 20
0.0
 30
0.0
  9
$PUCSBASE
  2

  9
$PUCSNAME
  2

  9
$PUCSORG
 10
0.0
 20
0.0
 30
0.0
  9
$PUCSXDIR
 10
1.0
 20
0.0
 30
0.0
  9
$PUCSYDIR
 10
0.0
 20
1.0
 30
0.0
  9
$PUCSORTHOREF
  2

  9
$PUCSORTHOVIEW
 70
     0
  9
$PUCSORGTOP
 10
0.0
 20
0.0
 30
0.0
  9
$PUCSORGBOTTOM
 10
0.0
 20
0.0
 30
0.0
  9
$PUCSORGLEFT
 10
0.0
 20
0.0
 30
0.0
  9
$PUCSORGRIGHT
 10
0.0
 20
0.0
 30
0.0
  9
$PUCSORGFRONT
 10
0.0
 20
0.0
 30
0.0
  9
$PUCSORGBACK
 10
0.0
 20
0.0
 30
0.0
  9
$USERI1
 70
     0
  9
$USERI2
 70
     0
  9
$USERI3
 70
     0
  9
$USERI4
 70
     0
  9
$USERI5
 70
     0
  9
$USERR1
 40
0.0
  9
$USERR2
 40
0.0
  9
$USERR3
 40
0.0
  9
$USERR4
 40
0.0
  9
$USERR5
 40
0.0
  9
$WORLDVIEW
 70
     1
  9
$SHADEDGE
 70
     3
  9
$SHADEDIF
 70
    70
  9
$TILEMODE
 70
     1
  9
$MAXACTVP
 70
    64
  9
$PINSBASE
 10
0.0
 20
0.0
 30
0.0
  9
$PLIMCHECK
 70
     0
  9
$PEXTMIN
 10
1.000000000000000E+20
 20
1.000000000000000E+20
 30
1.000000000000000E+20
  9
$PEXTMAX
 10
-1.000000000000000E+20
 20
-1.000000000000000E+20
 30
-1.000000000000000E+20
  9
$PLIMMIN
 10
0.0
 20
0.0
  9
$PLIMMAX
 10
12.0
 20
9.0
  9
$UNITMODE
 70
     0
  9
$VISRETAIN
 70
     1
  9
$PLINEGEN
 70
     0
  9
$PSLTSCALE
 70
     1
  9
$TREEDEPTH
 70
  3020
  9
$CMLSTYLE
  2
Standard
  9
$CMLJUST
 70
     0
  9
$CMLSCALE
 40
1.0
  9
$PROXYGRAPHICS
 70
     1
  9
$MEASUREMENT
 70
     0
  9
$CELWEIGHT
370
    -1
  9
$ENDCAPS
280
     0
  9
$JOINSTYLE
280
     0
  9
$LWDISPLAY
290
     0
  9
$INSUNITS
 70
     0
  9
$HYPERLINKBASE
  1

  9
$STYLESHEET
  1

  9
$XEDIT
290
     1
  9
$CEPSNTYPE
380
     0
  9
$PSTYLEMODE
290
     1
  9
$FINGERPRINTGUID
  2
{E6744FF0-8A5A-49D6-84FB-577B97F99F0F}
  9
$VERSIONGUID
  2
{FAEB1C32-E019-11D5-929B-00C0DF256EC4}
  9
$EXTNAMES
290
     1
  9
$PSVPSCALE
 40
0.0
  9
$OLESTARTUP
290
     0
  9
$SORTENTS
280
   127
  9
$INDEXCTL
280
     0
  9
$HIDETEXT
280
     1
  9
$XCLIPFRAME
290
     0
  9
$HALOGAP
280
     0
  9
$OBSCOLOR
 70
   257
  9
$OBSLTYPE
280
     0
  9
$INTERSECTIONDISPLAY
280
     0
  9
$INTERSECTIONCOLOR
 70
   257
  9
$DIMASSOC
280
     2
  9
$PROJECTNAME
  1

  0
ENDSEC
  0
SECTION
  2
CLASSES
  0
CLASS
  1
ACDBDICTIONARYWDFLT
  2
AcDbDictionaryWithDefault
  3
ObjectDBX Classes
 90
        0
 91
        3
280
     0
281
     0
  0
ENDSEC
  0
SECTION
  2
TABLES
  0
TABLE
  2
VPORT
  5
8
330
0
100
AcDbSymbolTable
 70
     1
  0
VPORT
  5
1ED
330
8
100
AcDbSymbolTableRecord
100
AcDbViewportTableRecord
  2
*Active
 70
     0
 10
0.0
 20
0.0
 11
1.0
 21
1.0
 12
10.42990654205607
 22
4.5
 13
0.0
 23
0.0
 14
0.5
 24
0.5
 15
0.5
 25
0.5
 16
0.0
 26
0.0
 36
1.0
 17
0.0
 27
0.0
 37
0.0
 40
9.0
 41
1.972972972850329
 42
50.0
 43
0.0
 44
0.0
 50
0.0
 51
0.0
 71
     0
 72
   100
 73
     1
 74
     3
 75
     0
 76
     0
 77
     0
 78
     0
281
     0
 65
     1
110
0.0
120
0.0
130
0.0
111
1.0
121
0.0
131
0.0
112
0.0
122
1.0
132
0.0
 79
     0
146
0.0
  0
ENDTAB
  0
TABLE
  2
LTYPE
  5
5
330
0
100
AcDbSymbolTable
 70
     9
  0
LTYPE
  5
14
330
5
100
AcDbSymbolTableRecord
100
AcDbLinetypeTableRecord
  2
ByBlock
 70
     0
  3

 72
    65
 73
     0
 40
0.0
  0
LTYPE
  5
15
330
5
100
AcDbSymbolTableRecord
100
AcDbLinetypeTableRecord
  2
ByLayer
 70
     0
  3

 72
    65
 73
     0
 40
0.0
  0
LTYPE
  5
16
330
5
100
AcDbSymbolTableRecord
100
AcDbLinetypeTableRecord
  2
CONTINUOUS
 70
     0
  3
実線
 72
    65
 73
     0
 40
0.0
  0
LTYPE
  5
21
330
5
100
AcDbSymbolTableRecord
100
AcDbLinetypeTableRecord
  2
DASHED
 70
     0
  3
破線A
 72
    65
 73
     2
 40
0.6000000000000001
 49
0.4
 74
     0
 49
-0.2
 74
     0
  0
LTYPE
  5
22
330
5
100
AcDbSymbolTableRecord
100
AcDbLinetypeTableRecord
  2
DASHEDX2
 70
     0
  3
破線B
 72
    65
 73
     2
 40
1.3
 49
0.9
 74
     0
 49
-0.4
 74
     0
  0
LTYPE
  5
23
330
5
100
AcDbSymbolTableRecord
100
AcDbLinetypeTableRecord
  2
DASHDOT
 70
     0
  3
１点鎖線A
 72
    65
 73
     4
 40
0.5375
 49
0.375
 74
     0
 49
-0.05
 74
     0
 49
0.0625
 74
     0
 49
-0.05
 74
     0
  0
LTYPE
  5
24
330
5
100
AcDbSymbolTableRecord
100
AcDbLinetypeTableRecord
  2
DASHDOTX2
 70
     0
  3
１点鎖線B
 72
    65
 73
     4
 40
1.075
 49
0.75
 74
     0
 49
-0.1
 74
     0
 49
0.125
 74
     0
 49
-0.1
 74
     0
  0
LTYPE
  5
25
330
5
100
AcDbSymbolTableRecord
100
AcDbLinetypeTableRecord
  2
DIVIDE2
 70
     0
  3
２点鎖線A
 72
    65
 73
     6
 40
0.5125
 49
0.3
 74
     0
 49
-0.0375
 74
     0
 49
0.05
 74
     0
 49
-0.0375
 74
     0
 49
0.05
 74
     0
 49
-0.0375
 74
     0
  0
LTYPE
  5
26
330
5
100
AcDbSymbolTableRecord
100
AcDbLinetypeTableRecord
  2
DIVIDE
 70
     0
  3
２点鎖線B
 72
    65
 73
     6
 40
1.05
 49
0.55
 74
     0
 49
-0.1
 74
     0
 49
0.1
 74
     0
 49
-0.1
 74
     0
 49
0.1
 74
     0
 49
-0.1
 74
     0
  0
LTYPE
  5
27
330
5
100
AcDbSymbolTableRecord
100
AcDbLinetypeTableRecord
  2
DOT
 70
     0
  3
点線A
 72
    65
 73
     2
 40
0.1125
 49
0.0625
 74
     0
 49
-0.05
 74
     0
  0
LTYPE
  5
28
330
5
100
AcDbSymbolTableRecord
100
AcDbLinetypeTableRecord
  2
DOTX2
 70
     0
  3
点線B
 72
    65
 73
     2
 40
0.275
 49
0.15
 74
     0
 49
-0.125
 74
     0
  0
ENDTAB
  0
TABLE
  2
LAYER
  5
2
330
0
100
AcDbSymbolTable
 70
    34
  0
LAYER
  5
10
330
2
100
AcDbSymbolTableRecord
100
AcDbLayerTableRecord
  2
0
 70
     0
 62
    17
  6
CONTINUOUS
370
    -3
390
F
  0
LAYER
  5
2F
330
2
100
AcDbSymbolTableRecord
100
AcDbLayerTableRecord
  2
通り芯
 70
     0
 62
    15
  6
CONTINUOUS
370
    -3
390
F
  0
LAYER
  5
30
330
2
100
AcDbSymbolTableRecord
100
AcDbLayerTableRecord
  2
補助線
 70
     0
 62
    16
  6
DOT
370
    -3
390
F
  0
LAYER
  5
31
330
2
100
AcDbSymbolTableRecord
100
AcDbLayerTableRecord
  2
躯体
 70
     0
 62
    31
  6
CONTINUOUS
370
    -3
390
F
  0
LAYER
  5
32
330
2
100
AcDbSymbolTableRecord
100
AcDbLayerTableRecord
  2
型材
 70
     0
 62
    32
  6
CONTINUOUS
370
    -3
390
F
  0
LAYER
  5
33
330
2
100
AcDbSymbolTableRecord
100
AcDbLayerTableRecord
  2
型材断面
 70
     0
 62
    47
  6
CONTINUOUS
370
    -3
390
F
  0
LAYER
  5
34
330
2
100
AcDbSymbolTableRecord
100
AcDbLayerTableRecord
  2
ガラス
 70
     0
 62
    48
  6
CONTINUOUS
370
    -3
390
F
  0
LAYER
  5
35
330
2
100
AcDbSymbolTableRecord
100
AcDbLayerTableRecord
  2
ゴム等
 70
     0
 62
    63
  6
CONTINUOUS
370
    -3
390
F
  0
LAYER
  5
36
330
2
100
AcDbSymbolTableRecord
100
AcDbLayerTableRecord
  2
ボルト／ビス
 70
     0
 62
    64
  6
CONTINUOUS
370
    -3
390
F
  0
LAYER
  5
37
330
2
100
AcDbSymbolTableRecord
100
AcDbLayerTableRecord
  2
文字
 70
     0
 62
    79
  6
CONTINUOUS
370
    -3
390
F
  0
LAYER
  5
38
330
2
100
AcDbSymbolTableRecord
100
AcDbLayerTableRecord
  2
寸法
 70
     0
 62
    80
  6
CONTINUOUS
370
    -3
390
F
  0
LAYER
  5
39
330
2
100
AcDbSymbolTableRecord
100
AcDbLayerTableRecord
  2
ﾊｯﾁﾝｸﾞ
 70
     0
 62
    95
  6
CONTINUOUS
370
    -3
390
F
  0
LAYER
  5
3A
330
2
100
AcDbSymbolTableRecord
100
AcDbLayerTableRecord
  2
別途部材
 70
     0
 62
    96
  6
CONTINUOUS
370
    -3
390
F
  0
LAYER
  5
3B
330
2
100
AcDbSymbolTableRecord
100
AcDbLayerTableRecord
  2
曲げ物
 70
     0
 62
   111
  6
CONTINUOUS
370
    -3
390
F
  0
LAYER
  5
3C
330
2
100
AcDbSymbolTableRecord
100
AcDbLayerTableRecord
  2
鉄骨等
 70
     0
 62
   112
  6
CONTINUOUS
370
    -3
390
F
  0
LAYER
  5
3D
330
2
100
AcDbSymbolTableRecord
100
AcDbLayerTableRecord
  2
St
 70
     0
 62
   127
  6
CONTINUOUS
370
    -3
390
F
  0
LAYER
  5
3E
330
2
100
AcDbSymbolTableRecord
100
AcDbLayerTableRecord
  2
その他部品等
 70
     0
 62
   128
  6
CONTINUOUS
370
    -3
390
F
  0
LAYER
  5
3F
330
2
100
AcDbSymbolTableRecord
100
AcDbLayerTableRecord
  2
ｶﾞｽｹｯﾄ
 70
     0
 62
   143
  6
CONTINUOUS
370
    -3
390
F
  0
LAYER
  5
40
330
2
100
AcDbSymbolTableRecord
100
AcDbLayerTableRecord
  2
ｽｹｯﾁ
 70
     0
 62
    14
  6
CONTINUOUS
370
    -3
390
F
  0
LAYER
  5
42
330
2
100
AcDbSymbolTableRecord
100
AcDbLayerTableRecord
  2
1
 70
     0
 62
    30
  6
CONTINUOUS
370
    -3
390
F
  0
LAYER
  5
43
330
2
100
AcDbSymbolTableRecord
100
AcDbLayerTableRecord
  2
4
 70
     0
 62
    33
  6
CONTINUOUS
370
    -3
390
F
  0
LAYER
  5
44
330
2
100
AcDbSymbolTableRecord
100
AcDbLayerTableRecord
  2
ﾚｲﾔ3
 70
     0
 62
    46
  6
CONTINUOUS
370
    -3
390
F
  0
LAYER
  5
45
330
2
100
AcDbSymbolTableRecord
100
AcDbLayerTableRecord
  2
外形線
 70
     0
 62
    49
  6
CONTINUOUS
370
    -3
390
F
  0
LAYER
  5
46
330
2
100
AcDbSymbolTableRecord
100
AcDbLayerTableRecord
  2
部品
 70
     0
 62
    14
  6
CONTINUOUS
370
    -3
390
F
  0
LAYER
  5
47
330
2
100
AcDbSymbolTableRecord
100
AcDbLayerTableRecord
  2
サッシ芯
 70
     0
 62
    17
  6
DASHDOTX2
370
    -3
390
F
  0
LAYER
  5
48
330
2
100
AcDbSymbolTableRecord
100
AcDbLayerTableRecord
  2
寸法線
 70
     0
 62
    62
  6
CONTINUOUS
370
    -3
390
F
  0
LAYER
  5
49
330
2
100
AcDbSymbolTableRecord
100
AcDbLayerTableRecord
  2
姿図外形線
 70
     0
 62
    65
  6
CONTINUOUS
370
    -3
390
F
  0
LAYER
  5
4A
330
2
100
AcDbSymbolTableRecord
100
AcDbLayerTableRecord
  2
姿補助線
 70
     0
 62
    30
  6
CONTINUOUS
370
    -3
390
F
  0
LAYER
  5
4B
330
2
100
AcDbSymbolTableRecord
100
AcDbLayerTableRecord
  2
透視線
 70
     0
 62
    78
  6
DOT
370
    -3
390
F
  0
LAYER
  5
4C
330
2
100
AcDbSymbolTableRecord
100
AcDbLayerTableRecord
  2
用紙
 70
     0
 62
    81
  6
CONTINUOUS
370
    -3
390
F
  0
LAYER
  5
4D
330
2
100
AcDbSymbolTableRecord
100
AcDbLayerTableRecord
  2
実線図枠
 70
     0
 62
    94
  6
CONTINUOUS
370
    -3
390
F
  0
LAYER
  5
4E
330
2
100
AcDbSymbolTableRecord
100
AcDbLayerTableRecord
  2
補助図枠
 70
     0
 62
    97
  6
CONTINUOUS
370
    -3
390
F
  0
LAYER
  5
4F
330
2
100
AcDbSymbolTableRecord
100
AcDbLayerTableRecord
  2
建具記号
 70
     0
 62
   110
  6
CONTINUOUS
370
    -3
390
F
  0
LAYER
  5
50
330
2
100
AcDbSymbolTableRecord
100
AcDbLayerTableRecord
  2
補助文字
 70
     0
 62
   113
  6
CONTINUOUS
370
    -3
390
F
  0
ENDTAB
  0
TABLE
  2
STYLE
  5
3
330
0
100
AcDbSymbolTable
 70
    10
  0
STYLE
  5
11
330
3
100
AcDbSymbolTableRecord
100
AcDbTextStyleTableRecord
  2
STANDARD
 70
     0
 40
1.0
 41
1.0
 50
0.0
 71
     0
 42
1.0
  3
TXT
  4
BIGFONT
  0
STYLE
  5
52
330
3
100
AcDbSymbolTableRecord
100
AcDbTextStyleTableRecord
  2
TATE
 70
     4
 40
1.0
 41
1.0
 50
0.0
 71
     0
 42
1.0
  3
TXT
  4
BIGFONT
  0
STYLE
  5
53
330
3
100
AcDbSymbolTableRecord
100
AcDbTextStyleTableRecord
  2
TextStyle03
 70
     0
 40
1.0
 41
1.0
 50
0.0
 71
     0
 42
1.0
  3
MONOTXT
  4
BIGFONT
  0
STYLE
  5
54
330
3
100
AcDbSymbolTableRecord
100
AcDbTextStyleTableRecord
  2
TextStyle04
 70
     0
 40
1.0
 41
1.0
 50
0.0
 71
     0
 42
1.0
  3
MONOTXT
  4
BIGFONT
  0
STYLE
  5
55
330
3
100
AcDbSymbolTableRecord
100
AcDbTextStyleTableRecord
  2
TextStyle05
 70
     0
 40
1.0
 41
1.0
 50
0.0
 71
     0
 42
1.0
  3
MONOTXT
  4
BIGFONT
  0
STYLE
  5
56
330
3
100
AcDbSymbolTableRecord
100
AcDbTextStyleTableRecord
  2
TextStyle06
 70
     0
 40
1.0
 41
1.0
 50
0.0
 71
     0
 42
1.0
  3
MONOTXT
  4
BIGFONT
  0
STYLE
  5
57
330
3
100
AcDbSymbolTableRecord
100
AcDbTextStyleTableRecord
  2
TextStyle07
 70
     0
 40
1.0
 41
1.0
 50
0.0
 71
     0
 42
1.0
  3
MONOTXT
  4
BIGFONT
  0
STYLE
  5
58
330
3
100
AcDbSymbolTableRecord
100
AcDbTextStyleTableRecord
  2
TextStyle08
 70
     0
 40
1.0
 41
1.0
 50
0.0
 71
     0
 42
1.0
  3
MONOTXT
  4
BIGFONT
  0
STYLE
  5
59
330
3
100
AcDbSymbolTableRecord
100
AcDbTextStyleTableRecord
  2
TextStyle09
 70
     0
 40
1.0
 41
1.0
 50
0.0
 71
     0
 42
1.0
  3
MONOTXT
  4
BIGFONT
  0
STYLE
  5
5A
330
3
100
AcDbSymbolTableRecord
100
AcDbTextStyleTableRecord
  2
TextStyle10
 70
     0
 40
1.0
 41
1.0
 50
0.0
 71
     0
 42
1.0
  3
MONOTXT
  4
BIGFONT
  0
ENDTAB
  0
TABLE
  2
VIEW
  5
6
330
0
100
AcDbSymbolTable
 70
     0
  0
ENDTAB
  0
TABLE
  2
UCS
  5
7
330
0
100
AcDbSymbolTable
 70
     0
  0
ENDTAB
  0
TABLE
  2
APPID
  5
9
330
0
100
AcDbSymbolTable
 70
     1
  0
APPID
  5
12
330
9
100
AcDbSymbolTableRecord
100
AcDbRegAppTableRecord
  2
ACAD
 70
     0
  0
ENDTAB
  0
TABLE
  2
DIMSTYLE
  5
A
330
0
100
AcDbSymbolTable
 70
     1
100
AcDbDimStyleTable
  0
DIMSTYLE
105
5B
330
A
100
AcDbSymbolTableRecord
100
AcDbDimStyleTableRecord
  2
Standard
 70
     0
340
11
  0
ENDTAB
  0
TABLE
  2
BLOCK_RECORD
  5
1
330
0
100
AcDbSymbolTable
 70
    27
  0
BLOCK_RECORD
  5
1D
330
1
100
AcDbSymbolTableRecord
100
AcDbBlockTableRecord
  2
*Model_Space
340
1E
  0
BLOCK_RECORD
  5
1B
330
1
100
AcDbSymbolTableRecord
100
AcDbBlockTableRecord
  2
*Paper_Space
340
1C
  0
BLOCK_RECORD
  5
5D
330
1
100
AcDbSymbolTableRecord
100
AcDbBlockTableRecord
  2
*U0
340
0
102
{BLKREFS
331
160
102
}
  0
BLOCK_RECORD
  5
66
330
1
100
AcDbSymbolTableRecord
100
AcDbBlockTableRecord
  2
*U1
340
0
102
{BLKREFS
331
1B2
102
}
  0
BLOCK_RECORD
  5
71
330
1
100
AcDbSymbolTableRecord
100
AcDbBlockTableRecord
  2
*U2
340
0
102
{BLKREFS
331
1B3
102
}
  0
BLOCK_RECORD
  5
7C
330
1
100
AcDbSymbolTableRecord
100
AcDbBlockTableRecord
  2
*U3
340
0
102
{BLKREFS
331
1B4
102
}
  0
BLOCK_RECORD
  5
87
330
1
100
AcDbSymbolTableRecord
100
AcDbBlockTableRecord
  2
*U4
340
0
102
{BLKREFS
331
1B5
102
}
  0
BLOCK_RECORD
  5
92
330
1
100
AcDbSymbolTableRecord
100
AcDbBlockTableRecord
  2
*U5
340
0
102
{BLKREFS
331
1B6
102
}
  0
BLOCK_RECORD
  5
9D
330
1
100
AcDbSymbolTableRecord
100
AcDbBlockTableRecord
  2
*U6
340
0
102
{BLKREFS
331
1B7
102
}
  0
BLOCK_RECORD
  5
A8
330
1
100
AcDbSymbolTableRecord
100
AcDbBlockTableRecord
  2
*U7
340
0
102
{BLKREFS
331
1B8
102
}
  0
BLOCK_RECORD
  5
B3
330
1
100
AcDbSymbolTableRecord
100
AcDbBlockTableRecord
  2
*U8
340
0
102
{BLKREFS
331
1B9
102
}
  0
BLOCK_RECORD
  5
BE
330
1
100
AcDbSymbolTableRecord
100
AcDbBlockTableRecord
  2
*U9
340
0
102
{BLKREFS
331
1C4
102
}
  0
BLOCK_RECORD
  5
C6
330
1
100
AcDbSymbolTableRecord
100
AcDbBlockTableRecord
  2
*U10
340
0
102
{BLKREFS
331
1C5
102
}
  0
BLOCK_RECORD
  5
CD
330
1
100
AcDbSymbolTableRecord
100
AcDbBlockTableRecord
  2
*U11
340
0
102
{BLKREFS
331
67
102
}
  0
BLOCK_RECORD
  5
D2
330
1
100
AcDbSymbolTableRecord
100
AcDbBlockTableRecord
  2
*U12
340
0
102
{BLKREFS
331
72
102
}
  0
BLOCK_RECORD
  5
D7
330
1
100
AcDbSymbolTableRecord
100
AcDbBlockTableRecord
  2
*U13
340
0
102
{BLKREFS
331
7D
102
}
  0
BLOCK_RECORD
  5
DC
330
1
100
AcDbSymbolTableRecord
100
AcDbBlockTableRecord
  2
*U14
340
0
102
{BLKREFS
331
88
102
}
  0
BLOCK_RECORD
  5
E1
330
1
100
AcDbSymbolTableRecord
100
AcDbBlockTableRecord
  2
*U15
340
0
102
{BLKREFS
331
93
102
}
  0
BLOCK_RECORD
  5
E6
330
1
100
AcDbSymbolTableRecord
100
AcDbBlockTableRecord
  2
*U16
340
0
102
{BLKREFS
331
9E
102
}
  0
BLOCK_RECORD
  5
EB
330
1
100
AcDbSymbolTableRecord
100
AcDbBlockTableRecord
  2
*U17
340
0
102
{BLKREFS
331
A9
102
}
  0
BLOCK_RECORD
  5
F0
330
1
100
AcDbSymbolTableRecord
100
AcDbBlockTableRecord
  2
*U18
340
0
102
{BLKREFS
331
B4
102
}
  0
BLOCK_RECORD
  5
F5
330
1
100
AcDbSymbolTableRecord
100
AcDbBlockTableRecord
  2
*U19
340
0
102
{BLKREFS
331
1C6
102
}
  0
BLOCK_RECORD
  5
FE
330
1
100
AcDbSymbolTableRecord
100
AcDbBlockTableRecord
  2
*U20
340
0
102
{BLKREFS
331
1C7
102
}
  0
BLOCK_RECORD
  5
107
330
1
100
AcDbSymbolTableRecord
100
AcDbBlockTableRecord
  2
*U21
340
0
102
{BLKREFS
331
1C8
102
}
  0
BLOCK_RECORD
  5
10F
330
1
100
AcDbSymbolTableRecord
100
AcDbBlockTableRecord
  2
*U22
340
0
102
{BLKREFS
331
1C9
102
}
  0
BLOCK_RECORD
  5
117
330
1
100
AcDbSymbolTableRecord
100
AcDbBlockTableRecord
  2
*U23
340
0
102
{BLKREFS
331
1CA
102
}
  0
BLOCK_RECORD
  5
120
330
1
100
AcDbSymbolTableRecord
100
AcDbBlockTableRecord
  2
*U24
340
0
102
{BLKREFS
331
1CB
102
}
  0
BLOCK_RECORD
  5
129
330
1
100
AcDbSymbolTableRecord
100
AcDbBlockTableRecord
  2
*U25
340
0
102
{BLKREFS
331
1EB
102
}
  0
BLOCK_RECORD
  5
142
330
1
100
AcDbSymbolTableRecord
100
AcDbBlockTableRecord
  2
*U26
340
0
102
{BLKREFS
331
1EC
102
}
  0
ENDTAB
  0
ENDSEC
  0
SECTION
  2
BLOCKS
  0
BLOCK
  5
1EE
330
1D
100
AcDbEntity
  8
0
100
AcDbBlockBegin
  2
*Model_Space
 70
     0
 71
     0
 10
0.0
 20
0.0
 30
0.0
  3
*Model_Space
  1

  0
ENDBLK
  5
1EF
330
1D
100
AcDbEntity
  8
0
100
AcDbBlockEnd
  0
BLOCK
  5
1F0
330
1B
100
AcDbEntity
 67
     1
  8
0
100
AcDbBlockBegin
  2
*Paper_Space
 70
     0
 71
     0
 10
0.0
 20
0.0
 30
0.0
  3
*Paper_Space
  1

  0
ENDBLK
  5
1F1
330
1B
100
AcDbEntity
 67
     1
  8
0
100
AcDbBlockEnd
  0
BLOCK
  5
5C
330
5D
100
AcDbEntity
  8
0
100
AcDbBlockBegin
  2
*U0
 70
     1
 71
     0
 10
0.0
 20
0.0
 30
0.0
  3
*U0
  1

  0
LINE
  5
5E
330
5D
100
AcDbEntity
  8
型材断面
  6
Continuous
100
AcDbLine
 10
195.0
 20
133.5
 30
0.0
 11
195.0
 21
-133.5
 31
0.0
  0
LINE
  5
5F
330
5D
100
AcDbEntity
  8
型材断面
  6
Continuous
100
AcDbLine
 10
195.0
 20
-133.5
 30
0.0
 11
-185.0
 21
-133.5
 31
0.0
  0
LINE
  5
60
330
5D
100
AcDbEntity
  8
型材断面
  6
Continuous
100
AcDbLine
 10
-185.0
 20
-133.5
 30
0.0
 11
-185.0
 21
133.5
 31
0.0
  0
LINE
  5
61
330
5D
100
AcDbEntity
  8
型材断面
  6
Continuous
100
AcDbLine
 10
195.0
 20
133.5
 30
0.0
 11
-185.0
 21
133.5
 31
0.0
  0
LINE
  5
62
330
5D
100
AcDbEntity
  8
型材断面
  6
Continuous
100
AcDbLine
 10
145.0
 20
-133.5
 30
0.0
 11
145.0
 21
-118.5
 31
0.0
  0
LINE
  5
63
330
5D
100
AcDbEntity
  8
型材断面
  6
Continuous
100
AcDbLine
 10
195.0
 20
-118.5
 30
0.0
 11
145.0
 21
-118.5
 31
0.0
  0
ENDBLK
  5
64
330
5D
100
AcDbEntity
  8
0
100
AcDbBlockEnd
  0
BLOCK
  5
65
330
66
100
AcDbEntity
  8
0
100
AcDbBlockBegin
  2
*U1
 70
     1
 71
     0
 10
0.0
 20
0.0
 30
0.0
  3
*U1
  1

  0
INSERT
  5
67
330
66
100
AcDbEntity
  8
補助線
  6
Continuous
100
AcDbBlockReference
  2
*U11
 10
0.0
 20
0.0
 30
0.0
  0
LINE
  5
68
330
66
100
AcDbEntity
  8
ボルト／ビス
  6
Continuous
100
AcDbLine
 10
-84.935405
 20
0.403315
 30
0.0
 11
-84.685405
 21
0.547653
 31
0.0
  0
LINE
  5
69
330
66
100
AcDbEntity
  8
ボルト／ビス
  6
Continuous
100
AcDbLine
 10
-84.935405
 20
0.403315
 30
0.0
 11
-85.185405
 21
0.547653
 31
0.0
  0
LINE
  5
6A
330
66
100
AcDbEntity
  8
ボルト／ビス
  6
Continuous
100
AcDbLine
 10
-84.685405
 20
0.836327
 30
0.0
 11
-84.935405
 21
0.980665
 31
0.0
  0
LINE
  5
6B
330
66
100
AcDbEntity
  8
ボルト／ビス
  6
Continuous
100
AcDbLine
 10
-85.185405
 20
0.836327
 30
0.0
 11
-84.935405
 21
0.980665
 31
0.0
  0
CIRCLE
  5
6C
330
66
100
AcDbEntity
  8
ボルト／ビス
  6
Continuous
100
AcDbCircle
 10
-84.935405
 20
0.69199
 30
0.0
 40
0.25
  0
LINE
  5
6D
330
66
100
AcDbEntity
  8
ボルト／ビス
  6
Continuous
100
AcDbLine
 10
-85.185405
 20
0.547653
 30
0.0
 11
-85.185405
 21
0.836327
 31
0.0
  0
LINE
  5
6E
330
66
100
AcDbEntity
  8
ボルト／ビス
  6
Continuous
100
AcDbLine
 10
-84.685405
 20
0.836327
 30
0.0
 11
-84.685405
 21
0.547653
 31
0.0
  0
ENDBLK
  5
6F
330
66
100
AcDbEntity
  8
0
100
AcDbBlockEnd
  0
BLOCK
  5
70
330
71
100
AcDbEntity
  8
0
100
AcDbBlockBegin
  2
*U2
 70
     1
 71
     0
 10
0.0
 20
0.0
 30
0.0
  3
*U2
  1

  0
INSERT
  5
72
330
71
100
AcDbEntity
  8
補助線
  6
Continuous
100
AcDbBlockReference
  2
*U12
 10
0.0
 20
0.0
 30
0.0
  0
LINE
  5
73
330
71
100
AcDbEntity
  8
ボルト／ビス
  6
Continuous
100
AcDbLine
 10
-93.72408
 20
9.191990000000001
 30
0.0
 11
-93.579742
 21
9.441990000000001
 31
0.0
  0
LINE
  5
74
330
71
100
AcDbEntity
  8
ボルト／ビス
  6
Continuous
100
AcDbLine
 10
-93.72408
 20
9.191990000000001
 30
0.0
 11
-93.579742
 21
8.941990000000001
 31
0.0
  0
LINE
  5
75
330
71
100
AcDbEntity
  8
ボルト／ビス
  6
Continuous
100
AcDbLine
 10
-93.291068
 20
9.441990000000001
 30
0.0
 11
-93.14673000000001
 21
9.191990000000001
 31
0.0
  0
LINE
  5
76
330
71
100
AcDbEntity
  8
ボルト／ビス
  6
Continuous
100
AcDbLine
 10
-93.291068
 20
8.941990000000001
 30
0.0
 11
-93.14673000000001
 21
9.191990000000001
 31
0.0
  0
CIRCLE
  5
77
330
71
100
AcDbEntity
  8
ボルト／ビス
  6
Continuous
100
AcDbCircle
 10
-93.435405
 20
9.191990000000001
 30
0.0
 40
0.25
  0
LINE
  5
78
330
71
100
AcDbEntity
  8
ボルト／ビス
  6
Continuous
100
AcDbLine
 10
-93.579742
 20
8.941990000000001
 30
0.0
 11
-93.291068
 21
8.941990000000001
 31
0.0
  0
LINE
  5
79
330
71
100
AcDbEntity
  8
ボルト／ビス
  6
Continuous
100
AcDbLine
 10
-93.291068
 20
9.441990000000001
 30
0.0
 11
-93.579742
 21
9.441990000000001
 31
0.0
  0
ENDBLK
  5
7A
330
71
100
AcDbEntity
  8
0
100
AcDbBlockEnd
  0
BLOCK
  5
7B
330
7C
100
AcDbEntity
  8
0
100
AcDbBlockBegin
  2
*U3
 70
     1
 71
     0
 10
0.0
 20
0.0
 30
0.0
  3
*U3
  1

  0
INSERT
  5
7D
330
7C
100
AcDbEntity
  8
補助線
  6
Continuous
100
AcDbBlockReference
  2
*U13
 10
0.0
 20
0.0
 30
0.0
  0
LINE
  5
7E
330
7C
100
AcDbEntity
  8
ボルト／ビス
  6
Continuous
100
AcDbLine
 10
-69.935405
 20
0.403315
 30
0.0
 11
-70.185405
 21
0.547653
 31
0.0
  0
LINE
  5
7F
330
7C
100
AcDbEntity
  8
ボルト／ビス
  6
Continuous
100
AcDbLine
 10
-69.935405
 20
0.403315
 30
0.0
 11
-69.685405
 21
0.547653
 31
0.0
  0
LINE
  5
80
330
7C
100
AcDbEntity
  8
ボルト／ビス
  6
Continuous
100
AcDbLine
 10
-70.185405
 20
0.836327
 30
0.0
 11
-69.935405
 21
0.980665
 31
0.0
  0
LINE
  5
81
330
7C
100
AcDbEntity
  8
ボルト／ビス
  6
Continuous
100
AcDbLine
 10
-69.685405
 20
0.836327
 30
0.0
 11
-69.935405
 21
0.980665
 31
0.0
  0
CIRCLE
  5
82
330
7C
100
AcDbEntity
  8
ボルト／ビス
  6
Continuous
100
AcDbCircle
 10
-69.935405
 20
0.69199
 30
0.0
 40
0.25
  0
LINE
  5
83
330
7C
100
AcDbEntity
  8
ボルト／ビス
  6
Continuous
100
AcDbLine
 10
-69.685405
 20
0.547653
 30
0.0
 11
-69.685405
 21
0.836327
 31
0.0
  0
LINE
  5
84
330
7C
100
AcDbEntity
  8
ボルト／ビス
  6
Continuous
100
AcDbLine
 10
-70.185405
 20
0.836327
 30
0.0
 11
-70.185405
 21
0.547653
 31
0.0
  0
ENDBLK
  5
85
330
7C
100
AcDbEntity
  8
0
100
AcDbBlockEnd
  0
BLOCK
  5
86
330
87
100
AcDbEntity
  8
0
100
AcDbBlockBegin
  2
*U4
 70
     1
 71
     0
 10
0.0
 20
0.0
 30
0.0
  3
*U4
  1

  0
INSERT
  5
88
330
87
100
AcDbEntity
  8
補助線
  6
Continuous
100
AcDbBlockReference
  2
*U14
 10
0.0
 20
0.0
 30
0.0
  0
LINE
  5
89
330
87
100
AcDbEntity
  8
ボルト／ビス
  6
Continuous
100
AcDbLine
 10
-61.14673
 20
9.191990000000001
 30
0.0
 11
-61.291068
 21
9.441990000000001
 31
0.0
  0
LINE
  5
8A
330
87
100
AcDbEntity
  8
ボルト／ビス
  6
Continuous
100
AcDbLine
 10
-61.14673
 20
9.191990000000001
 30
0.0
 11
-61.291068
 21
8.941990000000001
 31
0.0
  0
LINE
  5
8B
330
87
100
AcDbEntity
  8
ボルト／ビス
  6
Continuous
100
AcDbLine
 10
-61.579742
 20
9.441990000000001
 30
0.0
 11
-61.72408
 21
9.191990000000001
 31
0.0
  0
LINE
  5
8C
330
87
100
AcDbEntity
  8
ボルト／ビス
  6
Continuous
100
AcDbLine
 10
-61.579742
 20
8.941990000000001
 30
0.0
 11
-61.72408
 21
9.191990000000001
 31
0.0
  0
CIRCLE
  5
8D
330
87
100
AcDbEntity
  8
ボルト／ビス
  6
Continuous
100
AcDbCircle
 10
-61.435405
 20
9.191990000000001
 30
0.0
 40
0.25
  0
LINE
  5
8E
330
87
100
AcDbEntity
  8
ボルト／ビス
  6
Continuous
100
AcDbLine
 10
-61.291068
 20
8.941990000000001
 30
0.0
 11
-61.579742
 21
8.941990000000001
 31
0.0
  0
LINE
  5
8F
330
87
100
AcDbEntity
  8
ボルト／ビス
  6
Continuous
100
AcDbLine
 10
-61.579742
 20
9.441990000000001
 30
0.0
 11
-61.291068
 21
9.441990000000001
 31
0.0
  0
ENDBLK
  5
90
330
87
100
AcDbEntity
  8
0
100
AcDbBlockEnd
  0
BLOCK
  5
91
330
92
100
AcDbEntity
  8
0
100
AcDbBlockBegin
  2
*U5
 70
     1
 71
     0
 10
0.0
 20
0.0
 30
0.0
  3
*U5
  1

  0
INSERT
  5
93
330
92
100
AcDbEntity
  8
補助線
  6
Continuous
100
AcDbBlockReference
  2
*U15
 10
0.0
 20
0.0
 30
0.0
  0
LINE
  5
94
330
92
100
AcDbEntity
  8
ボルト／ビス
  6
Continuous
100
AcDbLine
 10
-69.935405
 20
32.980665
 30
0.0
 11
-70.185405
 21
32.836327
 31
0.0
  0
LINE
  5
95
330
92
100
AcDbEntity
  8
ボルト／ビス
  6
Continuous
100
AcDbLine
 10
-69.935405
 20
32.980665
 30
0.0
 11
-69.685405
 21
32.836327
 31
0.0
  0
LINE
  5
96
330
92
100
AcDbEntity
  8
ボルト／ビス
  6
Continuous
100
AcDbLine
 10
-70.185405
 20
32.547653
 30
0.0
 11
-69.935405
 21
32.403315
 31
0.0
  0
LINE
  5
97
330
92
100
AcDbEntity
  8
ボルト／ビス
  6
Continuous
100
AcDbLine
 10
-69.685405
 20
32.547653
 30
0.0
 11
-69.935405
 21
32.403315
 31
0.0
  0
CIRCLE
  5
98
330
92
100
AcDbEntity
  8
ボルト／ビス
  6
Continuous
100
AcDbCircle
 10
-69.935405
 20
32.69199
 30
0.0
 40
0.25
  0
LINE
  5
99
330
92
100
AcDbEntity
  8
ボルト／ビス
  6
Continuous
100
AcDbLine
 10
-69.685405
 20
32.836327
 30
0.0
 11
-69.685405
 21
32.547653
 31
0.0
  0
LINE
  5
9A
330
92
100
AcDbEntity
  8
ボルト／ビス
  6
Continuous
100
AcDbLine
 10
-70.185405
 20
32.547653
 30
0.0
 11
-70.185405
 21
32.836327
 31
0.0
  0
ENDBLK
  5
9B
330
92
100
AcDbEntity
  8
0
100
AcDbBlockEnd
  0
BLOCK
  5
9C
330
9D
100
AcDbEntity
  8
0
100
AcDbBlockBegin
  2
*U6
 70
     1
 71
     0
 10
0.0
 20
0.0
 30
0.0
  3
*U6
  1

  0
INSERT
  5
9E
330
9D
100
AcDbEntity
  8
補助線
  6
Continuous
100
AcDbBlockReference
  2
*U16
 10
0.0
 20
0.0
 30
0.0
  0
LINE
  5
9F
330
9D
100
AcDbEntity
  8
ボルト／ビス
  6
Continuous
100
AcDbLine
 10
-61.14673
 20
24.19199
 30
0.0
 11
-61.291068
 21
23.94199
 31
0.0
  0
LINE
  5
A0
330
9D
100
AcDbEntity
  8
ボルト／ビス
  6
Continuous
100
AcDbLine
 10
-61.14673
 20
24.19199
 30
0.0
 11
-61.291068
 21
24.44199
 31
0.0
  0
LINE
  5
A1
330
9D
100
AcDbEntity
  8
ボルト／ビス
  6
Continuous
100
AcDbLine
 10
-61.579742
 20
23.94199
 30
0.0
 11
-61.72408
 21
24.19199
 31
0.0
  0
LINE
  5
A2
330
9D
100
AcDbEntity
  8
ボルト／ビス
  6
Continuous
100
AcDbLine
 10
-61.579742
 20
24.44199
 30
0.0
 11
-61.72408
 21
24.19199
 31
0.0
  0
CIRCLE
  5
A3
330
9D
100
AcDbEntity
  8
ボルト／ビス
  6
Continuous
100
AcDbCircle
 10
-61.435405
 20
24.19199
 30
0.0
 40
0.25
  0
LINE
  5
A4
330
9D
100
AcDbEntity
  8
ボルト／ビス
  6
Continuous
100
AcDbLine
 10
-61.291068
 20
24.44199
 30
0.0
 11
-61.579742
 21
24.44199
 31
0.0
  0
LINE
  5
A5
330
9D
100
AcDbEntity
  8
ボルト／ビス
  6
Continuous
100
AcDbLine
 10
-61.579742
 20
23.94199
 30
0.0
 11
-61.291068
 21
23.94199
 31
0.0
  0
ENDBLK
  5
A6
330
9D
100
AcDbEntity
  8
0
100
AcDbBlockEnd
  0
BLOCK
  5
A7
330
A8
100
AcDbEntity
  8
0
100
AcDbBlockBegin
  2
*U7
 70
     1
 71
     0
 10
0.0
 20
0.0
 30
0.0
  3
*U7
  1

  0
INSERT
  5
A9
330
A8
100
AcDbEntity
  8
補助線
  6
Continuous
100
AcDbBlockReference
  2
*U17
 10
0.0
 20
0.0
 30
0.0
  0
LINE
  5
AA
330
A8
100
AcDbEntity
  8
ボルト／ビス
  6
Continuous
100
AcDbLine
 10
-84.935405
 20
32.980665
 30
0.0
 11
-84.685405
 21
32.836327
 31
0.0
  0
LINE
  5
AB
330
A8
100
AcDbEntity
  8
ボルト／ビス
  6
Continuous
100
AcDbLine
 10
-84.935405
 20
32.980665
 30
0.0
 11
-85.185405
 21
32.836327
 31
0.0
  0
LINE
  5
AC
330
A8
100
AcDbEntity
  8
ボルト／ビス
  6
Continuous
100
AcDbLine
 10
-84.685405
 20
32.547653
 30
0.0
 11
-84.935405
 21
32.403315
 31
0.0
  0
LINE
  5
AD
330
A8
100
AcDbEntity
  8
ボルト／ビス
  6
Continuous
100
AcDbLine
 10
-85.185405
 20
32.547653
 30
0.0
 11
-84.935405
 21
32.403315
 31
0.0
  0
CIRCLE
  5
AE
330
A8
100
AcDbEntity
  8
ボルト／ビス
  6
Continuous
100
AcDbCircle
 10
-84.935405
 20
32.69199
 30
0.0
 40
0.25
  0
LINE
  5
AF
330
A8
100
AcDbEntity
  8
ボルト／ビス
  6
Continuous
100
AcDbLine
 10
-85.185405
 20
32.836327
 30
0.0
 11
-85.185405
 21
32.547653
 31
0.0
  0
LINE
  5
B0
330
A8
100
AcDbEntity
  8
ボルト／ビス
  6
Continuous
100
AcDbLine
 10
-84.685405
 20
32.547653
 30
0.0
 11
-84.685405
 21
32.836327
 31
0.0
  0
ENDBLK
  5
B1
330
A8
100
AcDbEntity
  8
0
100
AcDbBlockEnd
  0
BLOCK
  5
B2
330
B3
100
AcDbEntity
  8
0
100
AcDbBlockBegin
  2
*U8
 70
     1
 71
     0
 10
0.0
 20
0.0
 30
0.0
  3
*U8
  1

  0
INSERT
  5
B4
330
B3
100
AcDbEntity
  8
補助線
  6
Continuous
100
AcDbBlockReference
  2
*U18
 10
0.0
 20
0.0
 30
0.0
  0
LINE
  5
B5
330
B3
100
AcDbEntity
  8
ボルト／ビス
  6
Continuous
100
AcDbLine
 10
-93.72408
 20
24.19199
 30
0.0
 11
-93.579742
 21
23.94199
 31
0.0
  0
LINE
  5
B6
330
B3
100
AcDbEntity
  8
ボルト／ビス
  6
Continuous
100
AcDbLine
 10
-93.72408
 20
24.19199
 30
0.0
 11
-93.579742
 21
24.44199
 31
0.0
  0
LINE
  5
B7
330
B3
100
AcDbEntity
  8
ボルト／ビス
  6
Continuous
100
AcDbLine
 10
-93.291068
 20
23.94199
 30
0.0
 11
-93.14673000000001
 21
24.19199
 31
0.0
  0
LINE
  5
B8
330
B3
100
AcDbEntity
  8
ボルト／ビス
  6
Continuous
100
AcDbLine
 10
-93.291068
 20
24.44199
 30
0.0
 11
-93.14673000000001
 21
24.19199
 31
0.0
  0
CIRCLE
  5
B9
330
B3
100
AcDbEntity
  8
ボルト／ビス
  6
Continuous
100
AcDbCircle
 10
-93.435405
 20
24.19199
 30
0.0
 40
0.25
  0
LINE
  5
BA
330
B3
100
AcDbEntity
  8
ボルト／ビス
  6
Continuous
100
AcDbLine
 10
-93.579742
 20
24.44199
 30
0.0
 11
-93.291068
 21
24.44199
 31
0.0
  0
LINE
  5
BB
330
B3
100
AcDbEntity
  8
ボルト／ビス
  6
Continuous
100
AcDbLine
 10
-93.291068
 20
23.94199
 30
0.0
 11
-93.579742
 21
23.94199
 31
0.0
  0
ENDBLK
  5
BC
330
B3
100
AcDbEntity
  8
0
100
AcDbBlockEnd
  0
BLOCK
  5
BD
330
BE
100
AcDbEntity
  8
0
100
AcDbBlockBegin
  2
*U9
 70
     1
 71
     0
 10
0.0
 20
0.0
 30
0.0
  3
*U9
  1

  0
LINE
  5
BF
330
BE
100
AcDbEntity
  8
寸法
  6
ByBlock
 62
     0
100
AcDbLine
 10
-76.435405
 20
-54.248265
 30
0.0
 11
-41.30588
 21
-54.248265
 31
0.0
  0
LINE
  5
C0
330
BE
100
AcDbEntity
  8
寸法
  6
ByBlock
 62
     0
100
AcDbLine
 10
-41.30588
 20
-62.248265
 30
0.0
 11
-41.30588
 21
-54.248265
 31
0.0
  0
POINT
  5
C1
330
BE
100
AcDbEntity
  8
寸法
 62
     0
100
AcDbPoint
 10
-41.30588
 20
-62.248265
 30
0.0
  0
POINT
  5
C2
330
BE
100
AcDbEntity
  8
寸法
 62
     0
100
AcDbPoint
 10
-41.30588
 20
-54.248265
 30
0.0
  0
TEXT
  5
C3
330
BE
100
AcDbEntity
  8
寸法
  6
Continuous
 62
     0
100
AcDbText
 10
-41.7
 20
-60.6875
 30
0.0
 40
3.0
  1
160
 50
90.0
  7
TextStyle03
 72
     5
 11
-41.7
 21
-55.8125
 31
0.0
100
AcDbText
  0
ENDBLK
  5
C4
330
BE
100
AcDbEntity
  8
0
100
AcDbBlockEnd
  0
BLOCK
  5
C5
330
C6
100
AcDbEntity
  8
0
100
AcDbBlockBegin
  2
*U10
 70
     1
 71
     0
 10
0.0
 20
0.0
 30
0.0
  3
*U10
  1

  0
LINE
  5
C7
330
C6
100
AcDbEntity
  8
寸法
  6
ByBlock
 62
     0
100
AcDbLine
 10
-92.435405
 20
-26.094458
 30
0.0
 11
-62.435405
 21
-26.094458
 31
0.0
  0
POINT
  5
C8
330
C6
100
AcDbEntity
  8
寸法
 62
     0
100
AcDbPoint
 10
-92.435405
 20
-26.094458
 30
0.0
  0
POINT
  5
C9
330
C6
100
AcDbEntity
  8
寸法
 62
     0
100
AcDbPoint
 10
-62.435405
 20
-26.094458
 30
0.0
  0
TEXT
  5
CA
330
C6
100
AcDbEntity
  8
寸法
  6
Continuous
 62
     0
100
AcDbText
 10
-88.325
 20
-25.725
 30
0.0
 40
3.0
  1
呼称寸法　600
  7
TextStyle03
 72
     5
 11
-66.575
 21
-25.725
 31
0.0
100
AcDbText
  0
ENDBLK
  5
CB
330
C6
100
AcDbEntity
  8
0
100
AcDbBlockEnd
  0
BLOCK
  5
CC
330
CD
100
AcDbEntity
  8
0
100
AcDbBlockBegin
  2
*U11
 70
     1
 71
     0
 10
0.0
 20
0.0
 30
0.0
  3
*U11
  1

  0
LINE
  5
CE
330
CD
100
AcDbEntity
  8
補助線
  6
ByBlock
 62
     0
100
AcDbLine
 10
-85.060405
 20
0.69199
 30
0.0
 11
-84.810405
 21
0.69199
 31
0.0
  0
LINE
  5
CF
330
CD
100
AcDbEntity
  8
補助線
  6
ByBlock
 62
     0
100
AcDbLine
 10
-84.935405
 20
0.56699
 30
0.0
 11
-84.935405
 21
0.81699
 31
0.0
  0
ENDBLK
  5
D0
330
CD
100
AcDbEntity
  8
0
100
AcDbBlockEnd
  0
BLOCK
  5
D1
330
D2
100
AcDbEntity
  8
0
100
AcDbBlockBegin
  2
*U12
 70
     1
 71
     0
 10
0.0
 20
0.0
 30
0.0
  3
*U12
  1

  0
LINE
  5
D3
330
D2
100
AcDbEntity
  8
補助線
  6
ByBlock
 62
     0
100
AcDbLine
 10
-93.435405
 20
9.066990000000001
 30
0.0
 11
-93.435405
 21
9.316990000000001
 31
0.0
  0
LINE
  5
D4
330
D2
100
AcDbEntity
  8
補助線
  6
ByBlock
 62
     0
100
AcDbLine
 10
-93.560405
 20
9.191990000000001
 30
0.0
 11
-93.310405
 21
9.191990000000001
 31
0.0
  0
ENDBLK
  5
D5
330
D2
100
AcDbEntity
  8
0
100
AcDbBlockEnd
  0
BLOCK
  5
D6
330
D7
100
AcDbEntity
  8
0
100
AcDbBlockBegin
  2
*U13
 70
     1
 71
     0
 10
0.0
 20
0.0
 30
0.0
  3
*U13
  1

  0
LINE
  5
D8
330
D7
100
AcDbEntity
  8
補助線
  6
ByBlock
 62
     0
100
AcDbLine
 10
-69.810405
 20
0.69199
 30
0.0
 11
-70.060405
 21
0.69199
 31
0.0
  0
LINE
  5
D9
330
D7
100
AcDbEntity
  8
補助線
  6
ByBlock
 62
     0
100
AcDbLine
 10
-69.935405
 20
0.56699
 30
0.0
 11
-69.935405
 21
0.81699
 31
0.0
  0
ENDBLK
  5
DA
330
D7
100
AcDbEntity
  8
0
100
AcDbBlockEnd
  0
BLOCK
  5
DB
330
DC
100
AcDbEntity
  8
0
100
AcDbBlockBegin
  2
*U14
 70
     1
 71
     0
 10
0.0
 20
0.0
 30
0.0
  3
*U14
  1

  0
LINE
  5
DD
330
DC
100
AcDbEntity
  8
補助線
  6
ByBlock
 62
     0
100
AcDbLine
 10
-61.435405
 20
9.066990000000001
 30
0.0
 11
-61.435405
 21
9.316990000000001
 31
0.0
  0
LINE
  5
DE
330
DC
100
AcDbEntity
  8
補助線
  6
ByBlock
 62
     0
100
AcDbLine
 10
-61.310405
 20
9.191990000000001
 30
0.0
 11
-61.560405
 21
9.191990000000001
 31
0.0
  0
ENDBLK
  5
DF
330
DC
100
AcDbEntity
  8
0
100
AcDbBlockEnd
  0
BLOCK
  5
E0
330
E1
100
AcDbEntity
  8
0
100
AcDbBlockBegin
  2
*U15
 70
     1
 71
     0
 10
0.0
 20
0.0
 30
0.0
  3
*U15
  1

  0
LINE
  5
E2
330
E1
100
AcDbEntity
  8
補助線
  6
ByBlock
 62
     0
100
AcDbLine
 10
-69.810405
 20
32.69199
 30
0.0
 11
-70.060405
 21
32.69199
 31
0.0
  0
LINE
  5
E3
330
E1
100
AcDbEntity
  8
補助線
  6
ByBlock
 62
     0
100
AcDbLine
 10
-69.935405
 20
32.81699
 30
0.0
 11
-69.935405
 21
32.56699
 31
0.0
  0
ENDBLK
  5
E4
330
E1
100
AcDbEntity
  8
0
100
AcDbBlockEnd
  0
BLOCK
  5
E5
330
E6
100
AcDbEntity
  8
0
100
AcDbBlockBegin
  2
*U16
 70
     1
 71
     0
 10
0.0
 20
0.0
 30
0.0
  3
*U16
  1

  0
LINE
  5
E7
330
E6
100
AcDbEntity
  8
補助線
  6
ByBlock
 62
     0
100
AcDbLine
 10
-61.435405
 20
24.31699
 30
0.0
 11
-61.435405
 21
24.06699
 31
0.0
  0
LINE
  5
E8
330
E6
100
AcDbEntity
  8
補助線
  6
ByBlock
 62
     0
100
AcDbLine
 10
-61.310405
 20
24.19199
 30
0.0
 11
-61.560405
 21
24.19199
 31
0.0
  0
ENDBLK
  5
E9
330
E6
100
AcDbEntity
  8
0
100
AcDbBlockEnd
  0
BLOCK
  5
EA
330
EB
100
AcDbEntity
  8
0
100
AcDbBlockBegin
  2
*U17
 70
     1
 71
     0
 10
0.0
 20
0.0
 30
0.0
  3
*U17
  1

  0
LINE
  5
EC
330
EB
100
AcDbEntity
  8
補助線
  6
ByBlock
 62
     0
100
AcDbLine
 10
-85.060405
 20
32.69199
 30
0.0
 11
-84.810405
 21
32.69199
 31
0.0
  0
LINE
  5
ED
330
EB
100
AcDbEntity
  8
補助線
  6
ByBlock
 62
     0
100
AcDbLine
 10
-84.935405
 20
32.81699
 30
0.0
 11
-84.935405
 21
32.56699
 31
0.0
  0
ENDBLK
  5
EE
330
EB
100
AcDbEntity
  8
0
100
AcDbBlockEnd
  0
BLOCK
  5
EF
330
F0
100
AcDbEntity
  8
0
100
AcDbBlockBegin
  2
*U18
 70
     1
 71
     0
 10
0.0
 20
0.0
 30
0.0
  3
*U18
  1

  0
LINE
  5
F1
330
F0
100
AcDbEntity
  8
補助線
  6
ByBlock
 62
     0
100
AcDbLine
 10
-93.435405
 20
24.31699
 30
0.0
 11
-93.435405
 21
24.06699
 31
0.0
  0
LINE
  5
F2
330
F0
100
AcDbEntity
  8
補助線
  6
ByBlock
 62
     0
100
AcDbLine
 10
-93.560405
 20
24.19199
 30
0.0
 11
-93.310405
 21
24.19199
 31
0.0
  0
ENDBLK
  5
F3
330
F0
100
AcDbEntity
  8
0
100
AcDbBlockEnd
  0
BLOCK
  5
F4
330
F5
100
AcDbEntity
  8
0
100
AcDbBlockBegin
  2
*U19
 70
     1
 71
     0
 10
0.0
 20
0.0
 30
0.0
  3
*U19
  1

  0
LINE
  5
F6
330
F5
100
AcDbEntity
  8
寸法
  6
ByBlock
 62
     0
100
AcDbLine
 10
-87.435402
 20
32.691993
 30
0.0
 11
-87.435402
 21
52.281172
 31
0.0
  0
LINE
  5
F7
330
F5
100
AcDbEntity
  8
寸法
  6
ByBlock
 62
     0
100
AcDbLine
 10
-67.435402
 20
32.691993
 30
0.0
 11
-67.435402
 21
52.281172
 31
0.0
  0
LINE
  5
F8
330
F5
100
AcDbEntity
  8
寸法
  6
ByBlock
 62
     0
100
AcDbLine
 10
-87.435402
 20
52.281172
 30
0.0
 11
-67.435402
 21
52.281172
 31
0.0
  0
POINT
  5
F9
330
F5
100
AcDbEntity
  8
寸法
 62
     0
100
AcDbPoint
 10
-87.435402
 20
52.281172
 30
0.0
  0
POINT
  5
FA
330
F5
100
AcDbEntity
  8
寸法
 62
     0
100
AcDbPoint
 10
-67.435402
 20
52.281172
 30
0.0
  0
TEXT
  5
FB
330
F5
100
AcDbEntity
  8
寸法
  6
Continuous
 62
     0
100
AcDbText
 10
-79.8875
 20
52.675
 30
0.0
 40
3.0
  1
400
  7
TextStyle03
 72
     5
 11
-75.0125
 21
52.675
 31
0.0
100
AcDbText
  0
ENDBLK
  5
FC
330
F5
100
AcDbEntity
  8
0
100
AcDbBlockEnd
  0
BLOCK
  5
FD
330
FE
100
AcDbEntity
  8
0
100
AcDbBlockBegin
  2
*U20
 70
     1
 71
     0
 10
0.0
 20
0.0
 30
0.0
  3
*U20
  1

  0
LINE
  5
FF
330
FE
100
AcDbEntity
  8
寸法
  6
ByBlock
 62
     0
100
AcDbLine
 10
-56.935405
 20
-62.248265
 30
0.0
 11
-41.30588
 21
-62.248265
 31
0.0
  0
LINE
  5
100
330
FE
100
AcDbEntity
  8
寸法
  6
ByBlock
 62
     0
100
AcDbLine
 10
-54.435402
 20
-67.998622
 30
0.0
 11
-41.30588
 21
-67.998622
 31
0.0
  0
LINE
  5
101
330
FE
100
AcDbEntity
  8
寸法
  6
ByBlock
 62
     0
100
AcDbLine
 10
-41.30588
 20
-62.248265
 30
0.0
 11
-41.30588
 21
-67.998622
 31
0.0
  0
POINT
  5
102
330
FE
100
AcDbEntity
  8
寸法
 62
     0
100
AcDbPoint
 10
-41.30588
 20
-62.248265
 30
0.0
  0
POINT
  5
103
330
FE
100
AcDbEntity
  8
寸法
 62
     0
100
AcDbPoint
 10
-41.30588
 20
-67.998622
 30
0.0
  0
TEXT
  5
104
330
FE
100
AcDbEntity
  8
寸法
  6
Continuous
 62
     0
100
AcDbText
 10
-41.7
 20
-67.5625
 30
0.0
 40
3.0
  1
115
 50
90.0
  7
TextStyle03
 72
     5
 11
-41.7
 21
-62.6875
 31
0.0
100
AcDbText
  0
ENDBLK
  5
105
330
FE
100
AcDbEntity
  8
0
100
AcDbBlockEnd
  0
BLOCK
  5
106
330
107
100
AcDbEntity
  8
0
100
AcDbBlockBegin
  2
*U21
 70
     1
 71
     0
 10
0.0
 20
0.0
 30
0.0
  3
*U21
  1

  0
LINE
  5
108
330
107
100
AcDbEntity
  8
寸法
  6
ByBlock
 62
     0
100
AcDbLine
 10
-57.685402
 20
-64.998622
 30
0.0
 11
-57.685402
 21
-26.094458
 31
0.0
  0
LINE
  5
109
330
107
100
AcDbEntity
  8
寸法
  6
ByBlock
 62
     0
100
AcDbLine
 10
-62.435405
 20
-26.094458
 30
0.0
 11
-57.685402
 21
-26.094458
 31
0.0
  0
POINT
  5
10A
330
107
100
AcDbEntity
  8
寸法
 62
     0
100
AcDbPoint
 10
-62.435405
 20
-26.094458
 30
0.0
  0
POINT
  5
10B
330
107
100
AcDbEntity
  8
寸法
 62
     0
100
AcDbPoint
 10
-57.685402
 20
-26.094458
 30
0.0
  0
TEXT
  5
10C
330
107
100
AcDbEntity
  8
寸法
  6
Continuous
 62
     0
100
AcDbText
 10
-61.66875
 20
-25.725
 30
0.0
 40
3.0
  1
95
  7
TextStyle03
 72
     5
 11
-58.48125
 21
-25.725
 31
0.0
100
AcDbText
  0
ENDBLK
  5
10D
330
107
100
AcDbEntity
  8
0
100
AcDbBlockEnd
  0
BLOCK
  5
10E
330
10F
100
AcDbEntity
  8
0
100
AcDbBlockBegin
  2
*U22
 70
     1
 71
     0
 10
0.0
 20
0.0
 30
0.0
  3
*U22
  1

  0
LINE
  5
110
330
10F
100
AcDbEntity
  8
寸法
  6
ByBlock
 62
     0
100
AcDbLine
 10
-97.185408
 20
-64.248622
 30
0.0
 11
-97.185408
 21
-26.094458
 31
0.0
  0
LINE
  5
111
330
10F
100
AcDbEntity
  8
寸法
  6
ByBlock
 62
     0
100
AcDbLine
 10
-92.435405
 20
-26.094458
 30
0.0
 11
-97.185408
 21
-26.094458
 31
0.0
  0
POINT
  5
112
330
10F
100
AcDbEntity
  8
寸法
 62
     0
100
AcDbPoint
 10
-92.435405
 20
-26.094458
 30
0.0
  0
POINT
  5
113
330
10F
100
AcDbEntity
  8
寸法
 62
     0
100
AcDbPoint
 10
-97.185408
 20
-26.094458
 30
0.0
  0
TEXT
  5
114
330
10F
100
AcDbEntity
  8
寸法
  6
Continuous
 62
     0
100
AcDbText
 10
-96.41875
 20
-25.725
 30
0.0
 40
3.0
  1
95
  7
TextStyle03
 72
     5
 11
-93.23125
 21
-25.725
 31
0.0
100
AcDbText
  0
ENDBLK
  5
115
330
10F
100
AcDbEntity
  8
0
100
AcDbBlockEnd
  0
BLOCK
  5
116
330
117
100
AcDbEntity
  8
0
100
AcDbBlockBegin
  2
*U23
 70
     1
 71
     0
 10
0.0
 20
0.0
 30
0.0
  3
*U23
  1

  0
LINE
  5
118
330
117
100
AcDbEntity
  8
寸法
  6
ByBlock
 62
     0
100
AcDbLine
 10
170.054785
 20
74.30747700000001
 30
0.0
 11
177.972725
 21
74.30747700000001
 31
0.0
  0
LINE
  5
119
330
117
100
AcDbEntity
  8
寸法
  6
ByBlock
 62
     0
100
AcDbLine
 10
170.054785
 20
44.807477
 30
0.0
 11
177.972725
 21
44.807477
 31
0.0
  0
LINE
  5
11A
330
117
100
AcDbEntity
  8
寸法
  6
ByBlock
 62
     0
100
AcDbLine
 10
177.972725
 20
74.30747700000001
 30
0.0
 11
177.972725
 21
44.807477
 31
0.0
  0
POINT
  5
11B
330
117
100
AcDbEntity
  8
寸法
 62
     0
100
AcDbPoint
 10
177.972725
 20
74.30747700000001
 30
0.0
  0
POINT
  5
11C
330
117
100
AcDbEntity
  8
寸法
 62
     0
100
AcDbPoint
 10
177.972725
 20
44.807477
 30
0.0
  0
TEXT
  5
11D
330
117
100
AcDbEntity
  8
寸法
  6
Continuous
 62
     0
100
AcDbText
 10
177.575
 20
57.1125
 30
0.0
 40
3.0
  1
590
 50
90.0
  7
TextStyle03
 72
     5
 11
177.575
 21
61.9875
 31
0.0
100
AcDbText
  0
ENDBLK
  5
11E
330
117
100
AcDbEntity
  8
0
100
AcDbBlockEnd
  0
BLOCK
  5
11F
330
120
100
AcDbEntity
  8
0
100
AcDbBlockBegin
  2
*U24
 70
     1
 71
     0
 10
0.0
 20
0.0
 30
0.0
  3
*U24
  1

  0
LINE
  5
121
330
120
100
AcDbEntity
  8
寸法
  6
ByBlock
 62
     0
100
AcDbLine
 10
137.554785
 20
77.30747700000001
 30
0.0
 11
137.554785
 21
85.22541800000001
 31
0.0
  0
LINE
  5
122
330
120
100
AcDbEntity
  8
寸法
  6
ByBlock
 62
     0
100
AcDbLine
 10
167.054785
 20
77.30747700000001
 30
0.0
 11
167.054785
 21
85.22541800000001
 31
0.0
  0
LINE
  5
123
330
120
100
AcDbEntity
  8
寸法
  6
ByBlock
 62
     0
100
AcDbLine
 10
137.554785
 20
85.22541800000001
 30
0.0
 11
167.054785
 21
85.22541800000001
 31
0.0
  0
POINT
  5
124
330
120
100
AcDbEntity
  8
寸法
 62
     0
100
AcDbPoint
 10
137.554785
 20
85.22541800000001
 30
0.0
  0
POINT
  5
125
330
120
100
AcDbEntity
  8
寸法
 62
     0
100
AcDbPoint
 10
167.054785
 20
85.22541800000001
 30
0.0
  0
TEXT
  5
126
330
120
100
AcDbEntity
  8
寸法
  6
Continuous
 62
     0
100
AcDbText
 10
149.8625
 20
85.59999999999999
 30
0.0
 40
3.0
  1
590
  7
TextStyle03
 72
     5
 11
154.7375
 21
85.59999999999999
 31
0.0
100
AcDbText
  0
ENDBLK
  5
127
330
120
100
AcDbEntity
  8
0
100
AcDbBlockEnd
  0
BLOCK
  5
128
330
129
100
AcDbEntity
  8
0
100
AcDbBlockBegin
  2
*U25
 70
     1
 71
     0
 10
0.0
 20
0.0
 30
0.0
  3
*U25
  1

  0
LINE
  5
12A
330
129
100
AcDbEntity
  8
ボルト／ビス
  6
Continuous
100
AcDbLine
 10
-93.435405
 20
-62.248268
 30
0.0
 11
-93.435405
 21
-61.548268
 31
0.0
  0
LINE
  5
12B
330
129
100
AcDbEntity
  8
ボルト／ビス
  6
Continuous
100
AcDbLine
 10
-93.985405
 20
-62.248268
 30
0.0
 11
-93.985405
 21
-62.148268
 31
0.0
  0
LINE
  5
12C
330
129
100
AcDbEntity
  8
ボルト／ビス
  6
Continuous
100
AcDbLine
 10
-93.985405
 20
-62.148268
 30
0.0
 11
-92.88540500000001
 21
-62.148268
 31
0.0
  0
LINE
  5
12D
330
129
100
AcDbEntity
  8
ボルト／ビス
  6
Continuous
100
AcDbLine
 10
-92.88540500000001
 20
-62.148268
 30
0.0
 11
-92.88540500000001
 21
-62.248268
 31
0.0
  0
LINE
  5
12E
330
129
100
AcDbEntity
  8
ボルト／ビス
  6
Continuous
100
AcDbLine
 10
-93.985405
 20
-62.248268
 30
0.0
 11
-92.88540500000001
 21
-62.248268
 31
0.0
  0
LINE
  5
12F
330
129
100
AcDbEntity
  8
ボルト／ビス
  6
Continuous
100
AcDbLine
 10
-93.88540500000001
 20
-62.098268
 30
0.0
 11
-93.88540500000001
 21
-62.148268
 31
0.0
  0
LINE
  5
130
330
129
100
AcDbEntity
  8
ボルト／ビス
  6
Continuous
100
AcDbLine
 10
-93.88540500000001
 20
-62.098268
 30
0.0
 11
-92.985405
 21
-62.098268
 31
0.0
  0
LINE
  5
131
330
129
100
AcDbEntity
  8
ボルト／ビス
  6
Continuous
100
AcDbLine
 10
-92.985405
 20
-62.098268
 30
0.0
 11
-92.985405
 21
-62.148268
 31
0.0
  0
LINE
  5
132
330
129
100
AcDbEntity
  8
ボルト／ビス
  6
Continuous
 62
    64
100
AcDbLine
 10
-93.675968
 20
-61.798268
 30
0.0
 11
-93.72408
 21
-61.81578
 31
0.0
  0
ARC
  5
133
330
129
100
AcDbEntity
  8
ボルト／ビス
  6
Continuous
 62
    64
100
AcDbCircle
 10
-93.651911
 20
-61.955737
 30
0.0
 40
0.157468
100
AcDbArc
 50
62.721967
 51
90.0
  0
ARC
  5
134
330
129
100
AcDbEntity
  8
ボルト／ビス
  6
Continuous
 62
    64
100
AcDbCircle
 10
-93.43540400000001
 20
-62.401873
 30
0.0
 40
0.603603
100
AcDbArc
 50
76.165002
 51
103.834985
  0
LINE
  5
135
330
129
100
AcDbEntity
  8
ボルト／ビス
  6
Continuous
 62
    64
100
AcDbLine
 10
-93.19484199999999
 20
-61.798268
 30
0.0
 11
-93.14673000000001
 21
-61.81578
 31
0.0
  0
ARC
  5
136
330
129
100
AcDbEntity
  8
ボルト／ビス
  6
Continuous
 62
    64
100
AcDbCircle
 10
-93.218898
 20
-61.955737
 30
0.0
 40
0.157468
100
AcDbArc
 50
90.0
 51
117.278033
  0
LINE
  5
137
330
129
100
AcDbEntity
  8
ボルト／ビス
  6
Continuous
 62
    64
100
AcDbLine
 10
-93.675968
 20
-61.798268
 30
0.0
 11
-93.19484199999999
 21
-61.798268
 31
0.0
  0
LINE
  5
138
330
129
100
AcDbEntity
  8
ボルト／ビス
  6
Continuous
 62
    64
100
AcDbLine
 10
-93.14673000000001
 20
-61.81578
 30
0.0
 11
-93.14673000000001
 21
-61.998268
 31
0.0
  0
LINE
  5
139
330
129
100
AcDbEntity
  8
ボルト／ビス
  6
Continuous
 62
    64
100
AcDbLine
 10
-93.291068
 20
-61.81578
 30
0.0
 11
-93.291068
 21
-61.998268
 31
0.0
  0
LINE
  5
13A
330
129
100
AcDbEntity
  8
ボルト／ビス
  6
Continuous
 62
    64
100
AcDbLine
 10
-93.72408
 20
-61.81578
 30
0.0
 11
-93.72408
 21
-61.998268
 31
0.0
  0
LINE
  5
13B
330
129
100
AcDbEntity
  8
ボルト／ビス
  6
Continuous
 62
    64
100
AcDbLine
 10
-93.579742
 20
-61.81578
 30
0.0
 11
-93.579742
 21
-61.998268
 31
0.0
  0
LINE
  5
13C
330
129
100
AcDbEntity
  8
ボルト／ビス
  6
Continuous
100
AcDbLine
 10
-93.72408
 20
-61.998268
 30
0.0
 11
-93.14673000000001
 21
-61.998268
 31
0.0
  0
LINE
  5
13D
330
129
100
AcDbEntity
  8
ボルト／ビス
  6
Continuous
100
AcDbLine
 10
-93.735405
 20
-61.998268
 30
0.0
 11
-93.735405
 21
-62.098268
 31
0.0
  0
LINE
  5
13E
330
129
100
AcDbEntity
  8
ボルト／ビス
  6
Continuous
100
AcDbLine
 10
-93.735405
 20
-61.998268
 30
0.0
 11
-93.13540500000001
 21
-61.998268
 31
0.0
  0
LINE
  5
13F
330
129
100
AcDbEntity
  8
ボルト／ビス
  6
Continuous
100
AcDbLine
 10
-93.13540500000001
 20
-61.998268
 30
0.0
 11
-93.13540500000001
 21
-62.098268
 31
0.0
  0
ENDBLK
  5
140
330
129
100
AcDbEntity
  8
0
100
AcDbBlockEnd
  0
BLOCK
  5
141
330
142
100
AcDbEntity
  8
0
100
AcDbBlockBegin
  2
*U26
 70
     1
 71
     0
 10
0.0
 20
0.0
 30
0.0
  3
*U26
  1

  0
LINE
  5
143
330
142
100
AcDbEntity
  8
ボルト／ビス
  6
Continuous
100
AcDbLine
 10
-61.435405
 20
-62.248268
 30
0.0
 11
-61.435405
 21
-61.548268
 31
0.0
  0
LINE
  5
144
330
142
100
AcDbEntity
  8
ボルト／ビス
  6
Continuous
100
AcDbLine
 10
-60.885405
 20
-62.248268
 30
0.0
 11
-60.885405
 21
-62.148268
 31
0.0
  0
LINE
  5
145
330
142
100
AcDbEntity
  8
ボルト／ビス
  6
Continuous
100
AcDbLine
 10
-60.885405
 20
-62.148268
 30
0.0
 11
-61.985405
 21
-62.148268
 31
0.0
  0
LINE
  5
146
330
142
100
AcDbEntity
  8
ボルト／ビス
  6
Continuous
100
AcDbLine
 10
-61.985405
 20
-62.148268
 30
0.0
 11
-61.985405
 21
-62.248268
 31
0.0
  0
LINE
  5
147
330
142
100
AcDbEntity
  8
ボルト／ビス
  6
Continuous
100
AcDbLine
 10
-60.885405
 20
-62.248268
 30
0.0
 11
-61.985405
 21
-62.248268
 31
0.0
  0
LINE
  5
148
330
142
100
AcDbEntity
  8
ボルト／ビス
  6
Continuous
100
AcDbLine
 10
-60.985405
 20
-62.098268
 30
0.0
 11
-60.985405
 21
-62.148268
 31
0.0
  0
LINE
  5
149
330
142
100
AcDbEntity
  8
ボルト／ビス
  6
Continuous
100
AcDbLine
 10
-60.985405
 20
-62.098268
 30
0.0
 11
-61.885405
 21
-62.098268
 31
0.0
  0
LINE
  5
14A
330
142
100
AcDbEntity
  8
ボルト／ビス
  6
Continuous
100
AcDbLine
 10
-61.885405
 20
-62.098268
 30
0.0
 11
-61.885405
 21
-62.148268
 31
0.0
  0
LINE
  5
14B
330
142
100
AcDbEntity
  8
ボルト／ビス
  6
Continuous
 62
    64
100
AcDbLine
 10
-61.194842
 20
-61.798268
 30
0.0
 11
-61.14673
 21
-61.81578
 31
0.0
  0
ARC
  5
14C
330
142
100
AcDbEntity
  8
ボルト／ビス
  6
Continuous
 62
    64
100
AcDbCircle
 10
-61.218899
 20
-61.955737
 30
0.0
 40
0.157468
100
AcDbArc
 50
90.0
 51
117.278033
  0
ARC
  5
14D
330
142
100
AcDbEntity
  8
ボルト／ビス
  6
Continuous
 62
    64
100
AcDbCircle
 10
-61.435406
 20
-62.401873
 30
0.0
 40
0.603603
100
AcDbArc
 50
76.165015
 51
103.834998
  0
LINE
  5
14E
330
142
100
AcDbEntity
  8
ボルト／ビス
  6
Continuous
 62
    64
100
AcDbLine
 10
-61.675968
 20
-61.798268
 30
0.0
 11
-61.72408
 21
-61.81578
 31
0.0
  0
ARC
  5
14F
330
142
100
AcDbEntity
  8
ボルト／ビス
  6
Continuous
 62
    64
100
AcDbCircle
 10
-61.651912
 20
-61.955737
 30
0.0
 40
0.157468
100
AcDbArc
 50
62.721967
 51
90.0
  0
LINE
  5
150
330
142
100
AcDbEntity
  8
ボルト／ビス
  6
Continuous
 62
    64
100
AcDbLine
 10
-61.194842
 20
-61.798268
 30
0.0
 11
-61.675968
 21
-61.798268
 31
0.0
  0
LINE
  5
151
330
142
100
AcDbEntity
  8
ボルト／ビス
  6
Continuous
 62
    64
100
AcDbLine
 10
-61.72408
 20
-61.81578
 30
0.0
 11
-61.72408
 21
-61.998268
 31
0.0
  0
LINE
  5
152
330
142
100
AcDbEntity
  8
ボルト／ビス
  6
Continuous
 62
    64
100
AcDbLine
 10
-61.579742
 20
-61.81578
 30
0.0
 11
-61.579742
 21
-61.998268
 31
0.0
  0
LINE
  5
153
330
142
100
AcDbEntity
  8
ボルト／ビス
  6
Continuous
 62
    64
100
AcDbLine
 10
-61.14673
 20
-61.81578
 30
0.0
 11
-61.14673
 21
-61.998268
 31
0.0
  0
LINE
  5
154
330
142
100
AcDbEntity
  8
ボルト／ビス
  6
Continuous
 62
    64
100
AcDbLine
 10
-61.291068
 20
-61.81578
 30
0.0
 11
-61.291068
 21
-61.998268
 31
0.0
  0
LINE
  5
155
330
142
100
AcDbEntity
  8
ボルト／ビス
  6
Continuous
100
AcDbLine
 10
-61.14673
 20
-61.998268
 30
0.0
 11
-61.72408
 21
-61.998268
 31
0.0
  0
LINE
  5
156
330
142
100
AcDbEntity
  8
ボルト／ビス
  6
Continuous
100
AcDbLine
 10
-61.135405
 20
-61.998268
 30
0.0
 11
-61.135405
 21
-62.098268
 31
0.0
  0
LINE
  5
157
330
142
100
AcDbEntity
  8
ボルト／ビス
  6
Continuous
100
AcDbLine
 10
-61.135405
 20
-61.998268
 30
0.0
 11
-61.735405
 21
-61.998268
 31
0.0
  0
LINE
  5
158
330
142
100
AcDbEntity
  8
ボルト／ビス
  6
Continuous
100
AcDbLine
 10
-61.735405
 20
-61.998268
 30
0.0
 11
-61.735405
 21
-62.098268
 31
0.0
  0
ENDBLK
  5
159
330
142
100
AcDbEntity
  8
0
100
AcDbBlockEnd
  0
ENDSEC
  0
SECTION
  2
ENTITIES
  0
LWPOLYLINE
  5
15A
330
1D
100
AcDbEntity
  8
通り芯
  6
Continuous
100
AcDbPolyline
 90
        4
 70
     1
 43
0.0
 10
-210.0
 20
-148.5
 10
210.0
 20
-148.5
 10
210.0
 20
148.5
 10
-210.0
 20
148.5
  0
INSERT
  5
160
330
1D
100
AcDbEntity
  8
型材断面
  6
Continuous
100
AcDbBlockReference
  2
*U0
 10
0.0
 20
0.0
 30
0.0
  0
LINE
  5
161
330
1D
100
AcDbEntity
  8
型材断面
  6
DASHDOT
100
AcDbLine
 10
-92.435405
 20
1.69199
 30
0.0
 11
-62.435405
 21
1.69199
 31
0.0
  0
LINE
  5
162
330
1D
100
AcDbEntity
  8
型材断面
  6
DASHDOT
100
AcDbLine
 10
-92.435405
 20
-77.76228
 30
0.0
 11
-92.435405
 21
31.69199
 31
0.0
  0
LINE
  5
163
330
1D
100
AcDbEntity
  8
型材断面
  6
DASHDOT
100
AcDbLine
 10
-77.435405
 20
-77.76228
 30
0.0
 11
-77.435405
 21
31.69199
 31
0.0
  0
LINE
  5
164
330
1D
100
AcDbEntity
  8
型材断面
  6
DASHDOT
100
AcDbLine
 10
-62.435405
 20
-77.76228
 30
0.0
 11
-62.435405
 21
31.69199
 31
0.0
  0
LINE
  5
165
330
1D
100
AcDbEntity
  8
型材断面
  6
DASHDOT
100
AcDbLine
 10
-92.435405
 20
16.69199
 30
0.0
 11
-62.435405
 21
16.69199
 31
0.0
  0
LINE
  5
166
330
1D
100
AcDbEntity
  8
型材断面
  6
DASHDOT
100
AcDbLine
 10
-92.435405
 20
31.69199
 30
0.0
 11
-62.435405
 21
31.69199
 31
0.0
  0
LINE
  5
167
330
1D
100
AcDbEntity
  8
型材断面
  6
Continuous
100
AcDbLine
 10
-100.459278
 20
16.69199
 30
0.0
 11
-104.345038
 21
14.448545
 31
0.0
  0
LINE
  5
168
330
1D
100
AcDbEntity
  8
型材断面
  6
Continuous
100
AcDbLine
 10
-100.459278
 20
16.69199
 30
0.0
 11
-104.345038
 21
18.935435
 31
0.0
  0
LINE
  5
169
330
1D
100
AcDbEntity
  8
型材断面
  6
Continuous
100
AcDbLine
 10
-104.345038
 20
18.935435
 30
0.0
 11
-104.345038
 21
14.448545
 31
0.0
  0
LINE
  5
16A
330
1D
100
AcDbEntity
  8
型材断面
  6
Continuous
100
AcDbLine
 10
-54.411528
 20
16.69199
 30
0.0
 11
-50.525767
 21
14.448545
 31
0.0
  0
LINE
  5
16B
330
1D
100
AcDbEntity
  8
型材断面
  6
Continuous
100
AcDbLine
 10
-54.411528
 20
16.69199
 30
0.0
 11
-50.525767
 21
18.935435
 31
0.0
  0
LINE
  5
16C
330
1D
100
AcDbEntity
  8
型材断面
  6
Continuous
100
AcDbLine
 10
-50.525767
 20
18.935435
 30
0.0
 11
-50.525767
 21
14.448545
 31
0.0
  0
LINE
  5
16D
330
1D
100
AcDbEntity
  8
型材断面
  6
Continuous
100
AcDbLine
 10
-77.435405
 20
39.715863
 30
0.0
 11
-79.67885
 21
43.601622
 31
0.0
  0
LINE
  5
16E
330
1D
100
AcDbEntity
  8
型材断面
  6
Continuous
100
AcDbLine
 10
-77.435405
 20
39.715863
 30
0.0
 11
-75.19196
 21
43.601622
 31
0.0
  0
LINE
  5
16F
330
1D
100
AcDbEntity
  8
型材断面
  6
Continuous
100
AcDbLine
 10
-75.19196
 20
43.601622
 30
0.0
 11
-79.67885
 21
43.601622
 31
0.0
  0
LINE
  5
170
330
1D
100
AcDbEntity
  8
型材断面
  6
Continuous
100
AcDbLine
 10
-77.435405
 20
-6.331887
 30
0.0
 11
-79.67885
 21
-10.217648
 31
0.0
  0
LINE
  5
171
330
1D
100
AcDbEntity
  8
型材断面
  6
Continuous
100
AcDbLine
 10
-77.435405
 20
-6.331887
 30
0.0
 11
-75.19196
 21
-10.217648
 31
0.0
  0
LINE
  5
172
330
1D
100
AcDbEntity
  8
型材断面
  6
Continuous
100
AcDbLine
 10
-75.19196
 20
-10.217648
 30
0.0
 11
-79.67885
 21
-10.217648
 31
0.0
  0
LINE
  5
173
330
1D
100
AcDbEntity
  8
型材断面
  6
Continuous
100
AcDbLine
 10
-35.48472
 20
-6.182028
 30
0.0
 11
-37.728165
 21
-10.067788
 31
0.0
  0
LINE
  5
174
330
1D
100
AcDbEntity
  8
型材断面
  6
Continuous
100
AcDbLine
 10
-35.48472
 20
-6.182028
 30
0.0
 11
-33.241275
 21
-10.067788
 31
0.0
  0
LINE
  5
175
330
1D
100
AcDbEntity
  8
型材断面
  6
Continuous
100
AcDbLine
 10
-33.241275
 20
-10.067788
 30
0.0
 11
-37.728165
 21
-10.067788
 31
0.0
  0
LINE
  5
176
330
1D
100
AcDbEntity
  8
型材断面
  6
Continuous
100
AcDbLine
 10
-44.5186
 20
-11.47568
 30
0.0
 11
8.13808
 21
-11.47568
 31
0.0
  0
LINE
  5
177
330
1D
100
AcDbEntity
  8
型材断面
  6
Continuous
100
AcDbLine
 10
-44.5186
 20
-18.48279
 30
0.0
 11
8.13808
 21
-18.48279
 31
0.0
  0
LINE
  5
178
330
1D
100
AcDbEntity
  8
型材断面
  6
Continuous
100
AcDbLine
 10
-95.285405
 20
-1.15801
 30
0.0
 11
-97.185405
 21
-3.05801
 31
0.0
  0
LINE
  5
179
330
1D
100
AcDbEntity
  8
型材断面
  6
Continuous
100
AcDbLine
 10
-97.185405
 20
-3.05801
 30
0.0
 11
-77.435405
 21
-3.05801
 31
0.0
  0
LINE
  5
17A
330
1D
100
AcDbEntity
  8
型材断面
  6
Continuous
100
AcDbLine
 10
-97.185405
 20
-3.05801
 30
0.0
 11
-97.185405
 21
16.69199
 31
0.0
  0
LINE
  5
17B
330
1D
100
AcDbEntity
  8
型材断面
  6
Continuous
100
AcDbLine
 10
-97.185405
 20
36.44199
 30
0.0
 11
-95.535405
 21
34.79199
 31
0.0
  0
LINE
  5
17C
330
1D
100
AcDbEntity
  8
型材断面
  6
Continuous
100
AcDbLine
 10
-97.185405
 20
36.44199
 30
0.0
 11
-77.435405
 21
36.44199
 31
0.0
  0
LINE
  5
17D
330
1D
100
AcDbEntity
  8
型材断面
  6
Continuous
100
AcDbLine
 10
-97.185405
 20
36.44199
 30
0.0
 11
-97.185405
 21
16.69199
 31
0.0
  0
LINE
  5
17E
330
1D
100
AcDbEntity
  8
型材断面
  6
Continuous
100
AcDbLine
 10
-59.585405
 20
-1.15801
 30
0.0
 11
-57.685405
 21
-3.05801
 31
0.0
  0
LINE
  5
17F
330
1D
100
AcDbEntity
  8
型材断面
  6
Continuous
100
AcDbLine
 10
-57.685405
 20
-3.05801
 30
0.0
 11
-77.435405
 21
-3.05801
 31
0.0
  0
LINE
  5
180
330
1D
100
AcDbEntity
  8
型材断面
  6
Continuous
100
AcDbLine
 10
-57.685405
 20
-3.05801
 30
0.0
 11
-57.685405
 21
16.69199
 31
0.0
  0
LINE
  5
181
330
1D
100
AcDbEntity
  8
型材断面
  6
Continuous
100
AcDbLine
 10
-57.685405
 20
36.44199
 30
0.0
 11
-59.335405
 21
34.79199
 31
0.0
  0
LINE
  5
182
330
1D
100
AcDbEntity
  8
型材断面
  6
Continuous
100
AcDbLine
 10
-57.685405
 20
36.44199
 30
0.0
 11
-77.435405
 21
36.44199
 31
0.0
  0
LINE
  5
183
330
1D
100
AcDbEntity
  8
型材断面
  6
Continuous
100
AcDbLine
 10
-57.685405
 20
36.44199
 30
0.0
 11
-57.685405
 21
16.69199
 31
0.0
  0
LINE
  5
184
330
1D
100
AcDbEntity
  8
型材断面
  6
Continuous
 62
    14
100
AcDbLine
 10
-97.185408
 20
-67.998622
 30
0.0
 11
-97.185408
 21
-67.248622
 31
0.0
  0
LINE
  5
185
330
1D
100
AcDbEntity
  8
型材断面
  6
Continuous
100
AcDbLine
 10
-94.435408
 20
-66.998622
 30
0.0
 11
-97.185408
 21
-67.248622
 31
0.0
  0
LINE
  5
186
330
1D
100
AcDbEntity
  8
型材断面
  6
Continuous
100
AcDbLine
 10
-97.185408
 20
-67.248622
 30
0.0
 11
-97.185408
 21
-67.998622
 31
0.0
  0
LINE
  5
187
330
1D
100
AcDbEntity
  8
型材断面
  6
Continuous
100
AcDbLine
 10
-95.935408
 20
-67.998622
 30
0.0
 11
-95.935408
 21
-68.498622
 31
0.0
  0
LINE
  5
188
330
1D
100
AcDbEntity
  8
型材断面
  6
Continuous
 62
    14
100
AcDbLine
 10
-57.685402
 20
-67.998622
 30
0.0
 11
-57.685402
 21
-67.248622
 31
0.0
  0
LINE
  5
189
330
1D
100
AcDbEntity
  8
型材断面
  6
Continuous
100
AcDbLine
 10
-94.435408
 20
-66.998622
 30
0.0
 11
-60.435402
 21
-66.998622
 31
0.0
  0
LINE
  5
18A
330
1D
100
AcDbEntity
  8
型材断面
  6
Continuous
100
AcDbLine
 10
-97.185408
 20
-67.248622
 30
0.0
 11
-57.685402
 21
-67.248622
 31
0.0
  0
LINE
  5
18B
330
1D
100
AcDbEntity
  8
型材断面
  6
Continuous
100
AcDbLine
 10
-60.435402
 20
-66.998622
 30
0.0
 11
-57.685402
 21
-67.248622
 31
0.0
  0
LINE
  5
18C
330
1D
100
AcDbEntity
  8
型材断面
  6
Continuous
100
AcDbLine
 10
-57.685402
 20
-67.248622
 30
0.0
 11
-57.685402
 21
-67.998622
 31
0.0
  0
LINE
  5
18D
330
1D
100
AcDbEntity
  8
型材断面
  6
Continuous
100
AcDbLine
 10
-58.935402
 20
-67.998622
 30
0.0
 11
-58.935402
 21
-68.498622
 31
0.0
  0
LINE
  5
18E
330
1D
100
AcDbEntity
  8
型材断面
  6
Continuous
100
AcDbLine
 10
-97.185408
 20
-67.998622
 30
0.0
 11
-57.685402
 21
-67.998622
 31
0.0
  0
LINE
  5
18F
330
1D
100
AcDbEntity
  8
型材断面
  6
Continuous
100
AcDbLine
 10
-95.935408
 20
-68.49862
 30
0.0
 11
-58.935402
 21
-68.49862
 31
0.0
  0
LINE
  5
190
330
1D
100
AcDbEntity
  8
型材断面
  6
Continuous
100
AcDbLine
 10
-94.435408
 20
-66.998622
 30
0.0
 11
-94.435408
 21
-64.47362
 31
0.0
  0
LWPOLYLINE
  5
191
330
1D
100
AcDbEntity
  8
型材断面
  6
Continuous
100
AcDbPolyline
 90
        3
 70
     0
 43
0.0
 10
-94.23540800000001
 20
-63.748265
 10
-94.23540800000001
 20
-64.27361999999999
 10
-94.435408
 20
-64.47362
  0
LWPOLYLINE
  5
196
330
1D
100
AcDbEntity
  8
型材断面
  6
Continuous
100
AcDbPolyline
 90
        3
 70
     0
 43
0.0
 10
-60.635402
 20
-63.748265
 10
-60.635402
 20
-64.27361999999999
 10
-60.435402
 20
-64.47362
  0
LINE
  5
19B
330
1D
100
AcDbEntity
  8
型材断面
  6
Continuous
100
AcDbLine
 10
-94.23540800000001
 20
-64.27361999999999
 30
0.0
 11
-60.635402
 21
-64.27361999999999
 31
0.0
  0
LINE
  5
19C
330
1D
100
AcDbEntity
  8
型材断面
  6
Continuous
100
AcDbLine
 10
-94.435408
 20
-64.47362
 30
0.0
 11
-60.435402
 21
-64.47362
 31
0.0
  0
LINE
  5
19D
330
1D
100
AcDbEntity
  8
型材断面
  6
Continuous
100
AcDbLine
 10
-60.435402
 20
-66.998622
 30
0.0
 11
-60.435402
 21
-64.47362
 31
0.0
  0
LINE
  5
19E
330
1D
100
AcDbEntity
  8
ガラス
  6
Continuous
100
AcDbLine
 10
167.054785
 20
74.30747700000001
 30
0.0
 11
137.554785
 21
74.30747700000001
 31
0.0
  0
LINE
  5
19F
330
1D
100
AcDbEntity
  8
ガラス
  6
Continuous
100
AcDbLine
 10
137.554785
 20
74.30747700000001
 30
0.0
 11
137.554785
 21
44.807477
 31
0.0
  0
LINE
  5
1A0
330
1D
100
AcDbEntity
  8
ガラス
  6
Continuous
100
AcDbLine
 10
137.554785
 20
44.807477
 30
0.0
 11
167.054785
 21
44.807477
 31
0.0
  0
LINE
  5
1A1
330
1D
100
AcDbEntity
  8
ガラス
  6
Continuous
100
AcDbLine
 10
167.054785
 20
74.30747700000001
 30
0.0
 11
167.054785
 21
44.807477
 31
0.0
  0
CIRCLE
  5
1A2
330
1D
100
AcDbEntity
  8
ボルト／ビス
  6
Continuous
100
AcDbCircle
 10
-84.935405
 20
0.69199
 30
0.0
 40
0.288675
  0
CIRCLE
  5
1A3
330
1D
100
AcDbEntity
  8
ボルト／ビス
  6
Continuous
100
AcDbCircle
 10
-84.935405
 20
0.69199
 30
0.0
 40
0.455885
  0
CIRCLE
  5
1A4
330
1D
100
AcDbEntity
  8
ボルト／ビス
  6
Continuous
100
AcDbCircle
 10
-93.435405
 20
9.191990000000001
 30
0.0
 40
0.288675
  0
CIRCLE
  5
1A5
330
1D
100
AcDbEntity
  8
ボルト／ビス
  6
Continuous
100
AcDbCircle
 10
-93.435405
 20
9.191990000000001
 30
0.0
 40
0.455885
  0
CIRCLE
  5
1A6
330
1D
100
AcDbEntity
  8
ボルト／ビス
  6
Continuous
100
AcDbCircle
 10
-69.935405
 20
0.69199
 30
0.0
 40
0.288675
  0
CIRCLE
  5
1A7
330
1D
100
AcDbEntity
  8
ボルト／ビス
  6
Continuous
100
AcDbCircle
 10
-69.935405
 20
0.69199
 30
0.0
 40
0.455885
  0
CIRCLE
  5
1A8
330
1D
100
AcDbEntity
  8
ボルト／ビス
  6
Continuous
100
AcDbCircle
 10
-61.435405
 20
9.191990000000001
 30
0.0
 40
0.288675
  0
CIRCLE
  5
1A9
330
1D
100
AcDbEntity
  8
ボルト／ビス
  6
Continuous
100
AcDbCircle
 10
-61.435405
 20
9.191990000000001
 30
0.0
 40
0.455885
  0
CIRCLE
  5
1AA
330
1D
100
AcDbEntity
  8
ボルト／ビス
  6
Continuous
100
AcDbCircle
 10
-69.935405
 20
32.69199
 30
0.0
 40
0.288675
  0
CIRCLE
  5
1AB
330
1D
100
AcDbEntity
  8
ボルト／ビス
  6
Continuous
100
AcDbCircle
 10
-69.935405
 20
32.69199
 30
0.0
 40
0.455885
  0
CIRCLE
  5
1AC
330
1D
100
AcDbEntity
  8
ボルト／ビス
  6
Continuous
100
AcDbCircle
 10
-61.435405
 20
24.19199
 30
0.0
 40
0.288675
  0
CIRCLE
  5
1AD
330
1D
100
AcDbEntity
  8
ボルト／ビス
  6
Continuous
100
AcDbCircle
 10
-61.435405
 20
24.19199
 30
0.0
 40
0.455885
  0
CIRCLE
  5
1AE
330
1D
100
AcDbEntity
  8
ボルト／ビス
  6
Continuous
100
AcDbCircle
 10
-84.935405
 20
32.69199
 30
0.0
 40
0.288675
  0
CIRCLE
  5
1AF
330
1D
100
AcDbEntity
  8
ボルト／ビス
  6
Continuous
100
AcDbCircle
 10
-84.935405
 20
32.69199
 30
0.0
 40
0.455885
  0
CIRCLE
  5
1B0
330
1D
100
AcDbEntity
  8
ボルト／ビス
  6
Continuous
100
AcDbCircle
 10
-93.435405
 20
24.19199
 30
0.0
 40
0.288675
  0
CIRCLE
  5
1B1
330
1D
100
AcDbEntity
  8
ボルト／ビス
  6
Continuous
100
AcDbCircle
 10
-93.435405
 20
24.19199
 30
0.0
 40
0.455885
  0
INSERT
  5
1B2
330
1D
100
AcDbEntity
  8
文字
  6
Continuous
100
AcDbBlockReference
  2
*U1
 10
0.0
 20
0.0
 30
0.0
  0
INSERT
  5
1B3
330
1D
100
AcDbEntity
  8
文字
  6
Continuous
100
AcDbBlockReference
  2
*U2
 10
0.0
 20
0.0
 30
0.0
  0
INSERT
  5
1B4
330
1D
100
AcDbEntity
  8
文字
  6
Continuous
100
AcDbBlockReference
  2
*U3
 10
0.0
 20
0.0
 30
0.0
  0
INSERT
  5
1B5
330
1D
100
AcDbEntity
  8
文字
  6
Continuous
100
AcDbBlockReference
  2
*U4
 10
0.0
 20
0.0
 30
0.0
  0
INSERT
  5
1B6
330
1D
100
AcDbEntity
  8
文字
  6
Continuous
100
AcDbBlockReference
  2
*U5
 10
0.0
 20
0.0
 30
0.0
  0
INSERT
  5
1B7
330
1D
100
AcDbEntity
  8
文字
  6
Continuous
100
AcDbBlockReference
  2
*U6
 10
0.0
 20
0.0
 30
0.0
  0
INSERT
  5
1B8
330
1D
100
AcDbEntity
  8
文字
  6
Continuous
100
AcDbBlockReference
  2
*U7
 10
0.0
 20
0.0
 30
0.0
  0
INSERT
  5
1B9
330
1D
100
AcDbEntity
  8
文字
  6
Continuous
100
AcDbBlockReference
  2
*U8
 10
0.0
 20
0.0
 30
0.0
  0
TEXT
  5
1BA
330
1D
100
AcDbEntity
  8
文字
  6
Continuous
100
AcDbText
 10
-98.825
 20
58.1
 30
0.0
 40
3.0
  1
アンカーピッチ
  7
TextStyle03
 72
     5
 11
-75.575
 21
58.1
 31
0.0
100
AcDbText
  0
TEXT
  5
1BB
330
1D
100
AcDbEntity
  8
文字
  6
Continuous
100
AcDbText
 10
-31.2
 20
-9.699999999999999
 30
0.0
 40
3.0
  1
は排水穴位置を示す
  7
TextStyle03
 72
     5
 11
-1.2
 21
-9.699999999999999
 31
0.0
100
AcDbText
  0
TEXT
  5
1BC
330
1D
100
AcDbEntity
  8
文字
  6
Continuous
100
AcDbText
 10
-36.8
 20
-17.05
 30
0.0
 40
3.0
  1
アンカー数量　４ヶ所
  7
TextStyle03
 72
     5
 11
-3.425
 21
-17.05
 31
0.0
100
AcDbText
  0
TEXT
  5
1BD
330
1D
100
AcDbEntity
  8
文字
  6
Continuous
100
AcDbText
 10
89.59999999999999
 20
99.8
 30
0.0
 40
5.0
  1
ＮＳコード：ＮＳＫ
  7
TextStyle03
 72
     5
 11
139.6
 21
99.8
 31
0.0
100
AcDbText
  0
TEXT
  5
1BE
330
1D
100
AcDbEntity
  8
文字
  6
Continuous
100
AcDbText
 10
146.1
 20
53.8
 30
0.0
 40
3.0
  1
網入り6.8t
  7
TextStyle03
 72
     5
 11
162.7875
 21
53.8
 31
0.0
100
AcDbText
  0
TEXT
  5
1BF
330
1D
100
AcDbEntity
  8
文字
  6
Continuous
100
AcDbText
 10
152.725
 20
48.55
 30
0.0
 40
3.0
  1
×１枚
  7
TextStyle03
 72
     5
 11
162.475
 21
48.55
 31
0.0
100
AcDbText
  0
TEXT
  5
1C0
330
1D
100
AcDbEntity
  8
文字
  6
Continuous
100
AcDbText
 10
89.425
 20
120.7
 30
0.0
 40
5.0
  1
シリーズ：ＴＤ１Ｋ
  7
TextStyle03
 72
     5
 11
139.425
 21
120.7
 31
0.0
100
AcDbText
  0
TEXT
  5
1C1
330
1D
100
AcDbEntity
  8
文字
  6
Continuous
100
AcDbText
 10
89.425
 20
115.075
 30
0.0
 40
5.0
  1
　　　　　（固定）600×600タイプ
  7
TextStyle03
 72
     5
 11
178.8
 21
115.075
 31
0.0
100
AcDbText
  0
TEXT
  5
1C2
330
1D
100
AcDbEntity
  8
文字
  6
Continuous
100
AcDbText
 10
89.425
 20
109.45
 30
0.0
 40
5.0
  1
図面名　：外観姿図
  7
TextStyle03
 72
     5
 11
139.425
 21
109.45
 31
0.0
100
AcDbText
  0
TEXT
  5
1C3
330
1D
100
AcDbEntity
  8
文字
  6
Continuous
100
AcDbText
 10
89.425
 20
103.825
 30
0.0
 40
5.0
  1
　　　　　　
  7
TextStyle03
 72
     5
 11
122.55
 21
103.825
 31
0.0
100
AcDbText
  0
INSERT
  5
1C4
330
1D
100
AcDbEntity
  8
寸法
  6
Continuous
100
AcDbBlockReference
  2
*U9
 10
0.0
 20
0.0
 30
0.0
  0
INSERT
  5
1C5
330
1D
100
AcDbEntity
  8
寸法
  6
Continuous
100
AcDbBlockReference
  2
*U10
 10
0.0
 20
0.0
 30
0.0
  0
INSERT
  5
1C6
330
1D
100
AcDbEntity
  8
寸法
  6
Continuous
100
AcDbBlockReference
  2
*U19
 10
0.0
 20
0.0
 30
0.0
  0
INSERT
  5
1C7
330
1D
100
AcDbEntity
  8
寸法
  6
Continuous
100
AcDbBlockReference
  2
*U20
 10
0.0
 20
0.0
 30
0.0
  0
INSERT
  5
1C8
330
1D
100
AcDbEntity
  8
寸法
  6
Continuous
100
AcDbBlockReference
  2
*U21
 10
0.0
 20
0.0
 30
0.0
  0
INSERT
  5
1C9
330
1D
100
AcDbEntity
  8
寸法
  6
Continuous
100
AcDbBlockReference
  2
*U22
 10
0.0
 20
0.0
 30
0.0
  0
INSERT
  5
1CA
330
1D
100
AcDbEntity
  8
寸法
  6
Continuous
100
AcDbBlockReference
  2
*U23
 10
0.0
 20
0.0
 30
0.0
  0
INSERT
  5
1CB
330
1D
100
AcDbEntity
  8
寸法
  6
Continuous
100
AcDbBlockReference
  2
*U24
 10
0.0
 20
0.0
 30
0.0
  0
LINE
  5
1CC
330
1D
100
AcDbEntity
  8
別途部材
  6
Continuous
100
AcDbLine
 10
-95.535405
 20
-1.40801
 30
0.0
 11
-94.935405
 21
-0.80801
 31
0.0
  0
LINE
  5
1CD
330
1D
100
AcDbEntity
  8
別途部材
  6
Continuous
 62
    96
100
AcDbLine
 10
-94.935405
 20
-62.248265
 30
0.0
 11
-95.535405
 21
-63.748265
 31
0.0
  0
LINE
  5
1CE
330
1D
100
AcDbEntity
  8
別途部材
  6
Continuous
 62
    96
100
AcDbLine
 10
-94.935405
 20
-62.248265
 30
0.0
 11
-77.435405
 21
-62.248265
 31
0.0
  0
LINE
  5
1CF
330
1D
100
AcDbEntity
  8
別途部材
  6
Continuous
100
AcDbLine
 10
-95.535405
 20
-63.748265
 30
0.0
 11
-77.435405
 21
-63.748265
 31
0.0
  0
LINE
  5
1D0
330
1D
100
AcDbEntity
  8
別途部材
  6
Continuous
 62
    96
100
AcDbLine
 10
-59.935405
 20
-62.248265
 30
0.0
 11
-59.335405
 21
-63.748265
 31
0.0
  0
LINE
  5
1D1
330
1D
100
AcDbEntity
  8
別途部材
  6
Continuous
 62
    96
100
AcDbLine
 10
-59.935405
 20
-62.248265
 30
0.0
 11
-77.435405
 21
-62.248265
 31
0.0
  0
LINE
  5
1D2
330
1D
100
AcDbEntity
  8
別途部材
  6
Continuous
100
AcDbLine
 10
-59.335405
 20
-63.748265
 30
0.0
 11
-77.435405
 21
-63.748265
 31
0.0
  0
ARC
  5
1D3
330
1D
100
AcDbEntity
  8
別途部材
  6
Continuous
100
AcDbCircle
 10
-77.435405
 20
-72.31076400000001
 30
0.0
 40
18.0625
100
AcDbArc
 50
33.855026
 51
146.144974
  0
LINE
  5
1D4
330
1D
100
AcDbEntity
  8
別途部材
  6
Continuous
100
AcDbLine
 10
-95.535405
 20
-1.40801
 30
0.0
 11
-95.535405
 21
16.69199
 31
0.0
  0
LINE
  5
1D5
330
1D
100
AcDbEntity
  8
別途部材
  6
Continuous
100
AcDbLine
 10
-94.935405
 20
-0.80801
 30
0.0
 11
-94.935405
 21
16.69199
 31
0.0
  0
LINE
  5
1D6
330
1D
100
AcDbEntity
  8
別途部材
  6
Continuous
100
AcDbLine
 10
-94.935405
 20
-0.80801
 30
0.0
 11
-77.435405
 21
-0.80801
 31
0.0
  0
LINE
  5
1D7
330
1D
100
AcDbEntity
  8
別途部材
  6
Continuous
100
AcDbLine
 10
-95.535405
 20
-1.40801
 30
0.0
 11
-77.435405
 21
-1.40801
 31
0.0
  0
LINE
  5
1D8
330
1D
100
AcDbEntity
  8
別途部材
  6
Continuous
100
AcDbLine
 10
-59.335405
 20
-1.40801
 30
0.0
 11
-59.935405
 21
-0.80801
 31
0.0
  0
LINE
  5
1D9
330
1D
100
AcDbEntity
  8
別途部材
  6
Continuous
100
AcDbLine
 10
-59.335405
 20
-1.40801
 30
0.0
 11
-59.335405
 21
16.69199
 31
0.0
  0
LINE
  5
1DA
330
1D
100
AcDbEntity
  8
別途部材
  6
Continuous
100
AcDbLine
 10
-59.935405
 20
-0.80801
 30
0.0
 11
-59.935405
 21
16.69199
 31
0.0
  0
LINE
  5
1DB
330
1D
100
AcDbEntity
  8
別途部材
  6
Continuous
100
AcDbLine
 10
-59.935405
 20
-0.80801
 30
0.0
 11
-77.435405
 21
-0.80801
 31
0.0
  0
LINE
  5
1DC
330
1D
100
AcDbEntity
  8
別途部材
  6
Continuous
100
AcDbLine
 10
-59.335405
 20
-1.40801
 30
0.0
 11
-77.435405
 21
-1.40801
 31
0.0
  0
LINE
  5
1DD
330
1D
100
AcDbEntity
  8
別途部材
  6
Continuous
100
AcDbLine
 10
-59.335405
 20
34.79199
 30
0.0
 11
-59.935405
 21
34.19199
 31
0.0
  0
LINE
  5
1DE
330
1D
100
AcDbEntity
  8
別途部材
  6
Continuous
100
AcDbLine
 10
-59.335405
 20
34.79199
 30
0.0
 11
-59.335405
 21
16.69199
 31
0.0
  0
LINE
  5
1DF
330
1D
100
AcDbEntity
  8
別途部材
  6
Continuous
100
AcDbLine
 10
-59.935405
 20
34.19199
 30
0.0
 11
-59.935405
 21
16.69199
 31
0.0
  0
LINE
  5
1E0
330
1D
100
AcDbEntity
  8
別途部材
  6
Continuous
100
AcDbLine
 10
-59.935405
 20
34.19199
 30
0.0
 11
-77.435405
 21
34.19199
 31
0.0
  0
LINE
  5
1E1
330
1D
100
AcDbEntity
  8
別途部材
  6
Continuous
100
AcDbLine
 10
-59.335405
 20
34.79199
 30
0.0
 11
-77.435405
 21
34.79199
 31
0.0
  0
LINE
  5
1E2
330
1D
100
AcDbEntity
  8
別途部材
  6
Continuous
100
AcDbLine
 10
-95.535405
 20
34.79199
 30
0.0
 11
-94.935405
 21
34.19199
 31
0.0
  0
LINE
  5
1E3
330
1D
100
AcDbEntity
  8
別途部材
  6
Continuous
100
AcDbLine
 10
-95.535405
 20
34.79199
 30
0.0
 11
-95.535405
 21
16.69199
 31
0.0
  0
LINE
  5
1E4
330
1D
100
AcDbEntity
  8
別途部材
  6
Continuous
100
AcDbLine
 10
-94.935405
 20
34.19199
 30
0.0
 11
-94.935405
 21
16.69199
 31
0.0
  0
LINE
  5
1E5
330
1D
100
AcDbEntity
  8
別途部材
  6
Continuous
100
AcDbLine
 10
-94.935405
 20
34.19199
 30
0.0
 11
-77.435405
 21
34.19199
 31
0.0
  0
LINE
  5
1E6
330
1D
100
AcDbEntity
  8
別途部材
  6
Continuous
100
AcDbLine
 10
-95.535405
 20
34.79199
 30
0.0
 11
-77.435405
 21
34.79199
 31
0.0
  0
LINE
  5
1E7
330
1D
100
AcDbEntity
  8
別途部材
  6
Continuous
100
AcDbLine
 10
-92.435405
 20
1.69199
 30
0.0
 11
-88.02507199999999
 21
6.102323
 31
0.0
  0
LINE
  5
1E8
330
1D
100
AcDbEntity
  8
別途部材
  6
Continuous
100
AcDbLine
 10
-62.435405
 20
1.69199
 30
0.0
 11
-66.845737
 21
6.102323
 31
0.0
  0
LINE
  5
1E9
330
1D
100
AcDbEntity
  8
別途部材
  6
Continuous
100
AcDbLine
 10
-92.435405
 20
31.69199
 30
0.0
 11
-88.02507199999999
 21
27.281658
 31
0.0
  0
LINE
  5
1EA
330
1D
100
AcDbEntity
  8
別途部材
  6
Continuous
100
AcDbLine
 10
-62.435405
 20
31.69199
 30
0.0
 11
-66.845737
 21
27.281658
 31
0.0
  0
INSERT
  5
1EB
330
1D
100
AcDbEntity
  8
別途部材
  6
DOT
100
AcDbBlockReference
  2
*U25
 10
0.0
 20
0.0
 30
0.0
  0
INSERT
  5
1EC
330
1D
100
AcDbEntity
  8
別途部材
  6
DOT
100
AcDbBlockReference
  2
*U26
 10
0.0
 20
0.0
 30
0.0
  0
ENDSEC
  0
SECTION
  2
OBJECTS
  0
DICTIONARY
  5
C
330
0
100
AcDbDictionary
281
     1
  3
ACAD_GROUP
350
D
  3
ACAD_LAYOUT
350
1A
  3
ACAD_MLINESTYLE
350
17
  3
ACAD_PLOTSETTINGS
350
19
  3
ACAD_PLOTSTYLENAME
350
E
  0
DICTIONARY
  5
D
102
{ACAD_REACTORS
330
C
102
}
330
C
100
AcDbDictionary
281
     1
  0
DICTIONARY
  5
1A
102
{ACAD_REACTORS
330
C
102
}
330
C
100
AcDbDictionary
281
     1
  3
Layout1
350
1C
  3
Model
350
1E
  0
DICTIONARY
  5
17
102
{ACAD_REACTORS
330
C
102
}
330
C
100
AcDbDictionary
281
     1
  3
Standard
350
18
  0
DICTIONARY
  5
19
102
{ACAD_REACTORS
330
C
102
}
330
C
100
AcDbDictionary
281
     1
  0
ACDBDICTIONARYWDFLT
  5
E
102
{ACAD_REACTORS
330
C
102
}
330
C
100
AcDbDictionary
281
     1
  3
Normal
350
F
100
AcDbDictionaryWithDefault
340
F
  0
LAYOUT
  5
1C
102
{ACAD_REACTORS
330
1A
102
}
330
1A
100
AcDbPlotSettings
  1

  2

  4

  6

 40
0.0
 41
0.0
 42
0.0
 43
0.0
 44
0.0
 45
0.0
 46
0.0
 47
0.0
 48
0.0
 49
0.0
140
0.0
141
0.0
142
1.0
143
1.0
 70
   688
 72
     0
 73
     0
 74
     5
  7

 75
    16
 76
     0
 77
     2
 78
   300
147
1.0
148
0.0
149
0.0
100
AcDbLayout
  1
Layout1
 70
     1
 71
     1
 10
0.0
 20
0.0
 11
12.0
 21
9.0
 12
0.0
 22
0.0
 32
0.0
 14
1.000000000000000E+20
 24
1.000000000000000E+20
 34
1.000000000000000E+20
 15
-1.000000000000000E+20
 25
-1.000000000000000E+20
 35
-1.000000000000000E+20
146
0.0
 13
0.0
 23
0.0
 33
0.0
 16
1.0
 26
0.0
 36
0.0
 17
0.0
 27
1.0
 37
0.0
 76
     0
330
1B
  0
LAYOUT
  5
1E
102
{ACAD_REACTORS
330
1A
102
}
330
1A
100
AcDbPlotSettings
  1

  2

  4

  6

 40
0.0
 41
0.0
 42
0.0
 43
0.0
 44
0.0
 45
0.0
 46
0.0
 47
0.0
 48
0.0
 49
0.0
140
0.0
141
0.0
142
1.0
143
1.0
 70
  1712
 72
     0
 73
     0
 74
     0
  7

 75
     0
 76
     0
 77
     2
 78
   300
147
1.0
148
0.0
149
0.0
100
AcDbLayout
  1
Model
 70
     1
 71
     0
 10
0.0
 20
0.0
 11
0.0
 21
0.0
 12
0.0
 22
0.0
 32
0.0
 14
-210.0
 24
-148.5
 34
0.0
 15
210.0
 25
148.5
 35
0.0
146
0.0
 13
0.0
 23
0.0
 33
0.0
 16
1.0
 26
0.0
 36
0.0
 17
0.0
 27
1.0
 37
0.0
 76
     0
330
1D
  0
MLINESTYLE
  5
18
102
{ACAD_REACTORS
330
17
102
}
330
17
100
AcDbMlineStyle
  2
Standard
 70
     0
  3

 62
   256
 51
90.0
 52
90.0
 71
     2
 49
0.5
 62
   256
  6
BYLAYER
 49
-0.5
 62
   256
  6
BYLAYER
  0
ACDBPLACEHOLDER
  5
F
102
{ACAD_REACTORS
330
E
102
}
330
E
  0
ENDSEC
  0
EOF
