  0
SECTION
  2
HEADER
  9
$ACADVER
  1
AC1018
  9
$ACADMAINTVER
 70
     0
  9
$DWGCODEPAGE
  3
ANSI_932
  9
$INSBASE
 10
0.0
 20
0.0
 30
0.0
  9
$EXTMIN
 10
-210.0
 20
-148.5
 30
0.0
  9
$EXTMAX
 10
210.0
 20
148.5
 30
0.0
  9
$LIMMIN
 10
0.0
 20
0.0
  9
$LIMMAX
 10
12.0
 20
9.0
  9
$ORTHOMODE
 70
     0
  9
$REGENMODE
 70
     1
  9
$FILLMODE
 70
     1
  9
$QTEXTMODE
 70
     0
  9
$MIRRTEXT
 70
     1
  9
$LTSCALE
 40
10.0
  9
$ATTMODE
 70
     1
  9
$TEXTSIZE
 40
0.2
  9
$TRACEWID
 40
0.05
  9
$TEXTSTYLE
  7
STANDARD
  9
$CLAYER
  8
0
  9
$CELTYPE
  6
ByBlock
  9
$CECOLOR
 62
   256
  9
$CELTSCALE
 40
1.0
  9
$DISPSILH
 70
     0
  9
$DIMSCALE
 40
1.0
  9
$DIMASZ
 40
0.18
  9
$DIMEXO
 40
0.0625
  9
$DIMDLI
 40
0.38
  9
$DIMRND
 40
0.0
  9
$DIMDLE
 40
0.0
  9
$DIMEXE
 40
0.18
  9
$DIMTP
 40
0.0
  9
$DIMTM
 40
0.0
  9
$DIMTXT
 40
0.18
  9
$DIMCEN
 40
0.09
  9
$DIMTSZ
 40
0.0
  9
$DIMTOL
 70
     0
  9
$DIMLIM
 70
     0
  9
$DIMTIH
 70
     1
  9
$DIMTOH
 70
     1
  9
$DIMSE1
 70
     0
  9
$DIMSE2
 70
     0
  9
$DIMTAD
 70
     0
  9
$DIMZIN
 70
     0
  9
$DIMBLK
  1

  9
$DIMASO
 70
     1
  9
$DIMSHO
 70
     1
  9
$DIMPOST
  1

  9
$DIMAPOST
  1

  9
$DIMALT
 70
     0
  9
$DIMALTD
 70
     2
  9
$DIMALTF
 40
25.4
  9
$DIMLFAC
 40
1.0
  9
$DIMTOFL
 70
     0
  9
$DIMTVP
 40
0.0
  9
$DIMTIX
 70
     0
  9
$DIMSOXD
 70
     0
  9
$DIMSAH
 70
     0
  9
$DIMBLK1
  1

  9
$DIMBLK2
  1

  9
$DIMSTYLE
  2
Standard
  9
$DIMCLRD
 70
     0
  9
$DIMCLRE
 70
     0
  9
$DIMCLRT
 70
     0
  9
$DIMTFAC
 40
1.0
  9
$DIMGAP
 40
0.09
  9
$DIMJUST
 70
     0
  9
$DIMSD1
 70
     0
  9
$DIMSD2
 70
     0
  9
$DIMTOLJ
 70
     1
  9
$DIMTZIN
 70
     0
  9
$DIMALTZ
 70
     0
  9
$DIMALTTZ
 70
     0
  9
$DIMUPT
 70
     0
  9
$DIMDEC
 70
     4
  9
$DIMTDEC
 70
     4
  9
$DIMALTU
 70
     2
  9
$DIMALTTD
 70
     2
  9
$DIMTXSTY
  7
STANDARD
  9
$DIMAUNIT
 70
     0
  9
$DIMADEC
 70
     0
  9
$DIMALTRND
 40
0.0
  9
$DIMAZIN
 70
     0
  9
$DIMDSEP
 70
    46
  9
$DIMATFIT
 70
     3
  9
$DIMFRAC
 70
     0
  9
$DIMLDRBLK
  1

  9
$DIMLUNIT
 70
     2
  9
$DIMLWD
 70
    -2
  9
$DIMLWE
 70
    -2
  9
$DIMTMOVE
 70
     0
  9
$LUNITS
 70
     2
  9
$LUPREC
 70
     4
  9
$SKETCHINC
 40
0.1
  9
$FILLETRAD
 40
0.5
  9
$AUNITS
 70
     0
  9
$AUPREC
 70
     0
  9
$MENU
  1
.
  9
$ELEVATION
 40
0.0
  9
$PELEVATION
 40
0.0
  9
$THICKNESS
 40
0.0
  9
$LIMCHECK
 70
     0
  9
$CHAMFERA
 40
0.5
  9
$CHAMFERB
 40
0.5
  9
$CHAMFERC
 40
1.0
  9
$CHAMFERD
 40
0.0
  9
$SKPOLY
 70
     0
  9
$TDCREATE
 40
2460242.402580764
  9
$TDUCREATE
 40
2460242.027580764
  9
$TDUPDATE
 40
2460242.402580775
  9
$TDUUPDATE
 40
2460242.027580775
  9
$TDINDWG
 40
0.0000000116
  9
$TDUSRTIMER
 40
0.0000000116
  9
$USRTIMER
 70
     1
  9
$ANGBASE
 50
0.0
  9
$ANGDIR
 70
     0
  9
$PDMODE
 70
    32
  9
$PDSIZE
 40
1.5
  9
$PLINEWID
 40
0.0
  9
$SPLFRAME
 70
     0
  9
$SPLINETYPE
 70
     6
  9
$SPLINESEGS
 70
     8
  9
$HANDSEED
  5
2EC
  9
$SURFTAB1
 70
     6
  9
$SURFTAB2
 70
     6
  9
$SURFTYPE
 70
     6
  9
$SURFU
 70
     6
  9
$SURFV
 70
     6
  9
$UCSBASE
  2

  9
$UCSNAME
  2

  9
$UCSORG
 10
0.0
 20
0.0
 30
0.0
  9
$UCSXDIR
 10
1.0
 20
0.0
 30
0.0
  9
$UCSYDIR
 10
0.0
 20
1.0
 30
0.0
  9
$UCSORTHOREF
  2

  9
$UCSORTHOVIEW
 70
     0
  9
$UCSORGTOP
 10
0.0
 20
0.0
 30
0.0
  9
$UCSORGBOTTOM
 10
0.0
 20
0.0
 30
0.0
  9
$UCSORGLEFT
 10
0.0
 20
0.0
 30
0.0
  9
$UCSORGRIGHT
 10
0.0
 20
0.0
 30
0.0
  9
$UCSORGFRONT
 10
0.0
 20
0.0
 30
0.0
  9
$UCSORGBACK
 10
0.0
 20
0.0
 30
0.0
  9
$PUCSBASE
  2

  9
$PUCSNAME
  2

  9
$PUCSORG
 10
0.0
 20
0.0
 30
0.0
  9
$PUCSXDIR
 10
1.0
 20
0.0
 30
0.0
  9
$PUCSYDIR
 10
0.0
 20
1.0
 30
0.0
  9
$PUCSORTHOREF
  2

  9
$PUCSORTHOVIEW
 70
     0
  9
$PUCSORGTOP
 10
0.0
 20
0.0
 30
0.0
  9
$PUCSORGBOTTOM
 10
0.0
 20
0.0
 30
0.0
  9
$PUCSORGLEFT
 10
0.0
 20
0.0
 30
0.0
  9
$PUCSORGRIGHT
 10
0.0
 20
0.0
 30
0.0
  9
$PUCSORGFRONT
 10
0.0
 20
0.0
 30
0.0
  9
$PUCSORGBACK
 10
0.0
 20
0.0
 30
0.0
  9
$USERI1
 70
     0
  9
$USERI2
 70
     0
  9
$USERI3
 70
     0
  9
$USERI4
 70
     0
  9
$USERI5
 70
     0
  9
$USERR1
 40
0.0
  9
$USERR2
 40
0.0
  9
$USERR3
 40
0.0
  9
$USERR4
 40
0.0
  9
$USERR5
 40
0.0
  9
$WORLDVIEW
 70
     1
  9
$SHADEDGE
 70
     3
  9
$SHADEDIF
 70
    70
  9
$TILEMODE
 70
     1
  9
$MAXACTVP
 70
    64
  9
$PINSBASE
 10
0.0
 20
0.0
 30
0.0
  9
$PLIMCHECK
 70
     0
  9
$PEXTMIN
 10
1.000000000000000E+20
 20
1.000000000000000E+20
 30
1.000000000000000E+20
  9
$PEXTMAX
 10
-1.000000000000000E+20
 20
-1.000000000000000E+20
 30
-1.000000000000000E+20
  9
$PLIMMIN
 10
0.0
 20
0.0
  9
$PLIMMAX
 10
12.0
 20
9.0
  9
$UNITMODE
 70
     0
  9
$VISRETAIN
 70
     1
  9
$PLINEGEN
 70
     0
  9
$PSLTSCALE
 70
     1
  9
$TREEDEPTH
 70
  3020
  9
$CMLSTYLE
  2
Standard
  9
$CMLJUST
 70
     0
  9
$CMLSCALE
 40
1.0
  9
$PROXYGRAPHICS
 70
     1
  9
$MEASUREMENT
 70
     0
  9
$CELWEIGHT
370
    -1
  9
$ENDCAPS
280
     0
  9
$JOINSTYLE
280
     0
  9
$LWDISPLAY
290
     0
  9
$INSUNITS
 70
     0
  9
$HYPERLINKBASE
  1

  9
$STYLESHEET
  1

  9
$XEDIT
290
     1
  9
$CEPSNTYPE
380
     0
  9
$PSTYLEMODE
290
     1
  9
$FINGERPRINTGUID
  2
{20CFF7EC-8ADF-425B-9152-D4A77D53EDB8}
  9
$VERSIONGUID
  2
{FAEB1C32-E019-11D5-929B-00C0DF256EC4}
  9
$EXTNAMES
290
     1
  9
$PSVPSCALE
 40
0.0
  9
$OLESTARTUP
290
     0
  9
$SORTENTS
280
   127
  9
$INDEXCTL
280
     0
  9
$HIDETEXT
280
     1
  9
$XCLIPFRAME
290
     0
  9
$HALOGAP
280
     0
  9
$OBSCOLOR
 70
   257
  9
$OBSLTYPE
280
     0
  9
$INTERSECTIONDISPLAY
280
     0
  9
$INTERSECTIONCOLOR
 70
   257
  9
$DIMASSOC
280
     2
  9
$PROJECTNAME
  1

  0
ENDSEC
  0
SECTION
  2
CLASSES
  0
CLASS
  1
ACDBDICTIONARYWDFLT
  2
AcDbDictionaryWithDefault
  3
ObjectDBX Classes
 90
        0
 91
        3
280
     0
281
     0
  0
ENDSEC
  0
SECTION
  2
TABLES
  0
TABLE
  2
VPORT
  5
8
330
0
100
AcDbSymbolTable
 70
     1
  0
VPORT
  5
2E7
330
8
100
AcDbSymbolTableRecord
100
AcDbViewportTableRecord
  2
*Active
 70
     0
 10
0.0
 20
0.0
 11
1.0
 21
1.0
 12
10.42990654205607
 22
4.5
 13
0.0
 23
0.0
 14
0.5
 24
0.5
 15
0.5
 25
0.5
 16
0.0
 26
0.0
 36
1.0
 17
0.0
 27
0.0
 37
0.0
 40
9.0
 41
1.972972972850329
 42
50.0
 43
0.0
 44
0.0
 50
0.0
 51
0.0
 71
     0
 72
   100
 73
     1
 74
     3
 75
     0
 76
     0
 77
     0
 78
     0
281
     0
 65
     1
110
0.0
120
0.0
130
0.0
111
1.0
121
0.0
131
0.0
112
0.0
122
1.0
132
0.0
 79
     0
146
0.0
  0
ENDTAB
  0
TABLE
  2
LTYPE
  5
5
330
0
100
AcDbSymbolTable
 70
     9
  0
LTYPE
  5
14
330
5
100
AcDbSymbolTableRecord
100
AcDbLinetypeTableRecord
  2
ByBlock
 70
     0
  3

 72
    65
 73
     0
 40
0.0
  0
LTYPE
  5
15
330
5
100
AcDbSymbolTableRecord
100
AcDbLinetypeTableRecord
  2
ByLayer
 70
     0
  3

 72
    65
 73
     0
 40
0.0
  0
LTYPE
  5
16
330
5
100
AcDbSymbolTableRecord
100
AcDbLinetypeTableRecord
  2
CONTINUOUS
 70
     0
  3
実線
 72
    65
 73
     0
 40
0.0
  0
LTYPE
  5
21
330
5
100
AcDbSymbolTableRecord
100
AcDbLinetypeTableRecord
  2
DASHED
 70
     0
  3
破線A
 72
    65
 73
     2
 40
0.6000000000000001
 49
0.4
 74
     0
 49
-0.2
 74
     0
  0
LTYPE
  5
22
330
5
100
AcDbSymbolTableRecord
100
AcDbLinetypeTableRecord
  2
DASHEDX2
 70
     0
  3
破線B
 72
    65
 73
     2
 40
1.3
 49
0.9
 74
     0
 49
-0.4
 74
     0
  0
LTYPE
  5
23
330
5
100
AcDbSymbolTableRecord
100
AcDbLinetypeTableRecord
  2
DASHDOT
 70
     0
  3
１点鎖線A
 72
    65
 73
     4
 40
0.5375
 49
0.375
 74
     0
 49
-0.05
 74
     0
 49
0.0625
 74
     0
 49
-0.05
 74
     0
  0
LTYPE
  5
24
330
5
100
AcDbSymbolTableRecord
100
AcDbLinetypeTableRecord
  2
DASHDOTX2
 70
     0
  3
１点鎖線B
 72
    65
 73
     4
 40
1.075
 49
0.75
 74
     0
 49
-0.1
 74
     0
 49
0.125
 74
     0
 49
-0.1
 74
     0
  0
LTYPE
  5
25
330
5
100
AcDbSymbolTableRecord
100
AcDbLinetypeTableRecord
  2
DIVIDE2
 70
     0
  3
２点鎖線A
 72
    65
 73
     6
 40
0.5125
 49
0.3
 74
     0
 49
-0.0375
 74
     0
 49
0.05
 74
     0
 49
-0.0375
 74
     0
 49
0.05
 74
     0
 49
-0.0375
 74
     0
  0
LTYPE
  5
26
330
5
100
AcDbSymbolTableRecord
100
AcDbLinetypeTableRecord
  2
DIVIDE
 70
     0
  3
２点鎖線B
 72
    65
 73
     6
 40
1.05
 49
0.55
 74
     0
 49
-0.1
 74
     0
 49
0.1
 74
     0
 49
-0.1
 74
     0
 49
0.1
 74
     0
 49
-0.1
 74
     0
  0
LTYPE
  5
27
330
5
100
AcDbSymbolTableRecord
100
AcDbLinetypeTableRecord
  2
DOT
 70
     0
  3
点線A
 72
    65
 73
     2
 40
0.1125
 49
0.0625
 74
     0
 49
-0.05
 74
     0
  0
LTYPE
  5
28
330
5
100
AcDbSymbolTableRecord
100
AcDbLinetypeTableRecord
  2
DOTX2
 70
     0
  3
点線B
 72
    65
 73
     2
 40
0.275
 49
0.15
 74
     0
 49
-0.125
 74
     0
  0
ENDTAB
  0
TABLE
  2
LAYER
  5
2
330
0
100
AcDbSymbolTable
 70
    34
  0
LAYER
  5
10
330
2
100
AcDbSymbolTableRecord
100
AcDbLayerTableRecord
  2
0
 70
     0
 62
    17
  6
CONTINUOUS
370
    -3
390
F
  0
LAYER
  5
2F
330
2
100
AcDbSymbolTableRecord
100
AcDbLayerTableRecord
  2
通り芯
 70
     0
 62
    15
  6
CONTINUOUS
370
    -3
390
F
  0
LAYER
  5
30
330
2
100
AcDbSymbolTableRecord
100
AcDbLayerTableRecord
  2
補助線
 70
     0
 62
    16
  6
DOT
370
    -3
390
F
  0
LAYER
  5
31
330
2
100
AcDbSymbolTableRecord
100
AcDbLayerTableRecord
  2
躯体
 70
     0
 62
    31
  6
CONTINUOUS
370
    -3
390
F
  0
LAYER
  5
32
330
2
100
AcDbSymbolTableRecord
100
AcDbLayerTableRecord
  2
型材
 70
     0
 62
    32
  6
CONTINUOUS
370
    -3
390
F
  0
LAYER
  5
33
330
2
100
AcDbSymbolTableRecord
100
AcDbLayerTableRecord
  2
型材断面
 70
     0
 62
    47
  6
CONTINUOUS
370
    -3
390
F
  0
LAYER
  5
34
330
2
100
AcDbSymbolTableRecord
100
AcDbLayerTableRecord
  2
ガラス
 70
     0
 62
    48
  6
CONTINUOUS
370
    -3
390
F
  0
LAYER
  5
35
330
2
100
AcDbSymbolTableRecord
100
AcDbLayerTableRecord
  2
ゴム等
 70
     0
 62
    63
  6
CONTINUOUS
370
    -3
390
F
  0
LAYER
  5
36
330
2
100
AcDbSymbolTableRecord
100
AcDbLayerTableRecord
  2
ボルト／ビス
 70
     0
 62
    64
  6
CONTINUOUS
370
    -3
390
F
  0
LAYER
  5
37
330
2
100
AcDbSymbolTableRecord
100
AcDbLayerTableRecord
  2
文字
 70
     0
 62
    79
  6
CONTINUOUS
370
    -3
390
F
  0
LAYER
  5
38
330
2
100
AcDbSymbolTableRecord
100
AcDbLayerTableRecord
  2
寸法
 70
     0
 62
    80
  6
CONTINUOUS
370
    -3
390
F
  0
LAYER
  5
39
330
2
100
AcDbSymbolTableRecord
100
AcDbLayerTableRecord
  2
ﾊｯﾁﾝｸﾞ
 70
     0
 62
    95
  6
CONTINUOUS
370
    -3
390
F
  0
LAYER
  5
3A
330
2
100
AcDbSymbolTableRecord
100
AcDbLayerTableRecord
  2
別途部材
 70
     0
 62
    96
  6
CONTINUOUS
370
    -3
390
F
  0
LAYER
  5
3B
330
2
100
AcDbSymbolTableRecord
100
AcDbLayerTableRecord
  2
曲げ物
 70
     0
 62
   111
  6
CONTINUOUS
370
    -3
390
F
  0
LAYER
  5
3C
330
2
100
AcDbSymbolTableRecord
100
AcDbLayerTableRecord
  2
鉄骨等
 70
     0
 62
   112
  6
CONTINUOUS
370
    -3
390
F
  0
LAYER
  5
3D
330
2
100
AcDbSymbolTableRecord
100
AcDbLayerTableRecord
  2
St
 70
     0
 62
   127
  6
CONTINUOUS
370
    -3
390
F
  0
LAYER
  5
3E
330
2
100
AcDbSymbolTableRecord
100
AcDbLayerTableRecord
  2
その他部品等
 70
     0
 62
   128
  6
CONTINUOUS
370
    -3
390
F
  0
LAYER
  5
3F
330
2
100
AcDbSymbolTableRecord
100
AcDbLayerTableRecord
  2
ｶﾞｽｹｯﾄ
 70
     0
 62
   143
  6
CONTINUOUS
370
    -3
390
F
  0
LAYER
  5
40
330
2
100
AcDbSymbolTableRecord
100
AcDbLayerTableRecord
  2
ｽｹｯﾁ
 70
     0
 62
    14
  6
CONTINUOUS
370
    -3
390
F
  0
LAYER
  5
42
330
2
100
AcDbSymbolTableRecord
100
AcDbLayerTableRecord
  2
1
 70
     0
 62
    30
  6
CONTINUOUS
370
    -3
390
F
  0
LAYER
  5
43
330
2
100
AcDbSymbolTableRecord
100
AcDbLayerTableRecord
  2
4
 70
     0
 62
    33
  6
CONTINUOUS
370
    -3
390
F
  0
LAYER
  5
44
330
2
100
AcDbSymbolTableRecord
100
AcDbLayerTableRecord
  2
ﾚｲﾔ3
 70
     0
 62
    46
  6
CONTINUOUS
370
    -3
390
F
  0
LAYER
  5
45
330
2
100
AcDbSymbolTableRecord
100
AcDbLayerTableRecord
  2
外形線
 70
     0
 62
    49
  6
CONTINUOUS
370
    -3
390
F
  0
LAYER
  5
46
330
2
100
AcDbSymbolTableRecord
100
AcDbLayerTableRecord
  2
部品
 70
     0
 62
    14
  6
CONTINUOUS
370
    -3
390
F
  0
LAYER
  5
47
330
2
100
AcDbSymbolTableRecord
100
AcDbLayerTableRecord
  2
サッシ芯
 70
     0
 62
    17
  6
DASHDOTX2
370
    -3
390
F
  0
LAYER
  5
48
330
2
100
AcDbSymbolTableRecord
100
AcDbLayerTableRecord
  2
寸法線
 70
     0
 62
    62
  6
CONTINUOUS
370
    -3
390
F
  0
LAYER
  5
49
330
2
100
AcDbSymbolTableRecord
100
AcDbLayerTableRecord
  2
姿図外形線
 70
     0
 62
    65
  6
CONTINUOUS
370
    -3
390
F
  0
LAYER
  5
4A
330
2
100
AcDbSymbolTableRecord
100
AcDbLayerTableRecord
  2
姿補助線
 70
     0
 62
    30
  6
CONTINUOUS
370
    -3
390
F
  0
LAYER
  5
4B
330
2
100
AcDbSymbolTableRecord
100
AcDbLayerTableRecord
  2
透視線
 70
     0
 62
    78
  6
DOT
370
    -3
390
F
  0
LAYER
  5
4C
330
2
100
AcDbSymbolTableRecord
100
AcDbLayerTableRecord
  2
用紙
 70
     0
 62
    81
  6
CONTINUOUS
370
    -3
390
F
  0
LAYER
  5
4D
330
2
100
AcDbSymbolTableRecord
100
AcDbLayerTableRecord
  2
実線図枠
 70
     0
 62
    94
  6
CONTINUOUS
370
    -3
390
F
  0
LAYER
  5
4E
330
2
100
AcDbSymbolTableRecord
100
AcDbLayerTableRecord
  2
補助図枠
 70
     0
 62
    97
  6
CONTINUOUS
370
    -3
390
F
  0
LAYER
  5
4F
330
2
100
AcDbSymbolTableRecord
100
AcDbLayerTableRecord
  2
建具記号
 70
     0
 62
   110
  6
CONTINUOUS
370
    -3
390
F
  0
LAYER
  5
50
330
2
100
AcDbSymbolTableRecord
100
AcDbLayerTableRecord
  2
補助文字
 70
     0
 62
   113
  6
CONTINUOUS
370
    -3
390
F
  0
ENDTAB
  0
TABLE
  2
STYLE
  5
3
330
0
100
AcDbSymbolTable
 70
    10
  0
STYLE
  5
11
330
3
100
AcDbSymbolTableRecord
100
AcDbTextStyleTableRecord
  2
STANDARD
 70
     0
 40
1.0
 41
1.0
 50
0.0
 71
     0
 42
1.0
  3
TXT
  4
BIGFONT
  0
STYLE
  5
52
330
3
100
AcDbSymbolTableRecord
100
AcDbTextStyleTableRecord
  2
TATE
 70
     4
 40
1.0
 41
1.0
 50
0.0
 71
     0
 42
1.0
  3
TXT
  4
BIGFONT
  0
STYLE
  5
53
330
3
100
AcDbSymbolTableRecord
100
AcDbTextStyleTableRecord
  2
TextStyle03
 70
     0
 40
1.0
 41
1.0
 50
0.0
 71
     0
 42
1.0
  3
MONOTXT
  4
BIGFONT
  0
STYLE
  5
54
330
3
100
AcDbSymbolTableRecord
100
AcDbTextStyleTableRecord
  2
TextStyle04
 70
     0
 40
1.0
 41
1.0
 50
0.0
 71
     0
 42
1.0
  3
MONOTXT
  4
BIGFONT
  0
STYLE
  5
55
330
3
100
AcDbSymbolTableRecord
100
AcDbTextStyleTableRecord
  2
TextStyle05
 70
     0
 40
1.0
 41
1.0
 50
0.0
 71
     0
 42
1.0
  3
MONOTXT
  4
BIGFONT
  0
STYLE
  5
56
330
3
100
AcDbSymbolTableRecord
100
AcDbTextStyleTableRecord
  2
TextStyle06
 70
     0
 40
1.0
 41
1.0
 50
0.0
 71
     0
 42
1.0
  3
MONOTXT
  4
BIGFONT
  0
STYLE
  5
57
330
3
100
AcDbSymbolTableRecord
100
AcDbTextStyleTableRecord
  2
TextStyle07
 70
     0
 40
1.0
 41
1.0
 50
0.0
 71
     0
 42
1.0
  3
MONOTXT
  4
BIGFONT
  0
STYLE
  5
58
330
3
100
AcDbSymbolTableRecord
100
AcDbTextStyleTableRecord
  2
TextStyle08
 70
     0
 40
1.0
 41
1.0
 50
0.0
 71
     0
 42
1.0
  3
MONOTXT
  4
BIGFONT
  0
STYLE
  5
59
330
3
100
AcDbSymbolTableRecord
100
AcDbTextStyleTableRecord
  2
TextStyle09
 70
     0
 40
1.0
 41
1.0
 50
0.0
 71
     0
 42
1.0
  3
MONOTXT
  4
BIGFONT
  0
STYLE
  5
5A
330
3
100
AcDbSymbolTableRecord
100
AcDbTextStyleTableRecord
  2
TextStyle10
 70
     0
 40
1.0
 41
1.0
 50
0.0
 71
     0
 42
1.0
  3
MONOTXT
  4
BIGFONT
  0
ENDTAB
  0
TABLE
  2
VIEW
  5
6
330
0
100
AcDbSymbolTable
 70
     0
  0
ENDTAB
  0
TABLE
  2
UCS
  5
7
330
0
100
AcDbSymbolTable
 70
     0
  0
ENDTAB
  0
TABLE
  2
APPID
  5
9
330
0
100
AcDbSymbolTable
 70
     1
  0
APPID
  5
12
330
9
100
AcDbSymbolTableRecord
100
AcDbRegAppTableRecord
  2
ACAD
 70
     0
  0
ENDTAB
  0
TABLE
  2
DIMSTYLE
  5
A
330
0
100
AcDbSymbolTable
 70
     1
100
AcDbDimStyleTable
  0
DIMSTYLE
105
5B
330
A
100
AcDbSymbolTableRecord
100
AcDbDimStyleTableRecord
  2
Standard
 70
     0
340
11
  0
ENDTAB
  0
TABLE
  2
BLOCK_RECORD
  5
1
330
0
100
AcDbSymbolTable
 70
    53
  0
BLOCK_RECORD
  5
1D
330
1
100
AcDbSymbolTableRecord
100
AcDbBlockTableRecord
  2
*Model_Space
340
1E
  0
BLOCK_RECORD
  5
1B
330
1
100
AcDbSymbolTableRecord
100
AcDbBlockTableRecord
  2
*Paper_Space
340
1C
  0
BLOCK_RECORD
  5
5D
330
1
100
AcDbSymbolTableRecord
100
AcDbBlockTableRecord
  2
*U0
340
0
102
{BLKREFS
331
230
102
}
  0
BLOCK_RECORD
  5
66
330
1
100
AcDbSymbolTableRecord
100
AcDbBlockTableRecord
  2
*U1
340
0
102
{BLKREFS
331
29C
102
}
  0
BLOCK_RECORD
  5
71
330
1
100
AcDbSymbolTableRecord
100
AcDbBlockTableRecord
  2
*U2
340
0
102
{BLKREFS
331
29D
102
}
  0
BLOCK_RECORD
  5
7C
330
1
100
AcDbSymbolTableRecord
100
AcDbBlockTableRecord
  2
*U3
340
0
102
{BLKREFS
331
29E
102
}
  0
BLOCK_RECORD
  5
87
330
1
100
AcDbSymbolTableRecord
100
AcDbBlockTableRecord
  2
*U4
340
0
102
{BLKREFS
331
29F
102
}
  0
BLOCK_RECORD
  5
92
330
1
100
AcDbSymbolTableRecord
100
AcDbBlockTableRecord
  2
*U5
340
0
102
{BLKREFS
331
2A0
102
}
  0
BLOCK_RECORD
  5
9D
330
1
100
AcDbSymbolTableRecord
100
AcDbBlockTableRecord
  2
*U6
340
0
102
{BLKREFS
331
2A1
102
}
  0
BLOCK_RECORD
  5
A8
330
1
100
AcDbSymbolTableRecord
100
AcDbBlockTableRecord
  2
*U7
340
0
102
{BLKREFS
331
2A2
102
}
  0
BLOCK_RECORD
  5
B3
330
1
100
AcDbSymbolTableRecord
100
AcDbBlockTableRecord
  2
*U8
340
0
102
{BLKREFS
331
2A3
102
}
  0
BLOCK_RECORD
  5
BE
330
1
100
AcDbSymbolTableRecord
100
AcDbBlockTableRecord
  2
*U9
340
0
102
{BLKREFS
331
2A4
102
}
  0
BLOCK_RECORD
  5
C9
330
1
100
AcDbSymbolTableRecord
100
AcDbBlockTableRecord
  2
*U10
340
0
102
{BLKREFS
331
2A5
102
}
  0
BLOCK_RECORD
  5
D4
330
1
100
AcDbSymbolTableRecord
100
AcDbBlockTableRecord
  2
*U11
340
0
102
{BLKREFS
331
2A6
102
}
  0
BLOCK_RECORD
  5
DF
330
1
100
AcDbSymbolTableRecord
100
AcDbBlockTableRecord
  2
*U12
340
0
102
{BLKREFS
331
2A7
102
}
  0
BLOCK_RECORD
  5
EA
330
1
100
AcDbSymbolTableRecord
100
AcDbBlockTableRecord
  2
*U13
340
0
102
{BLKREFS
331
2A8
102
}
  0
BLOCK_RECORD
  5
F5
330
1
100
AcDbSymbolTableRecord
100
AcDbBlockTableRecord
  2
*U14
340
0
102
{BLKREFS
331
2A9
102
}
  0
BLOCK_RECORD
  5
100
330
1
100
AcDbSymbolTableRecord
100
AcDbBlockTableRecord
  2
*U15
340
0
102
{BLKREFS
331
2AA
102
}
  0
BLOCK_RECORD
  5
10B
330
1
100
AcDbSymbolTableRecord
100
AcDbBlockTableRecord
  2
*U16
340
0
102
{BLKREFS
331
2AB
102
}
  0
BLOCK_RECORD
  5
116
330
1
100
AcDbSymbolTableRecord
100
AcDbBlockTableRecord
  2
*U17
340
0
102
{BLKREFS
331
2AC
102
}
  0
BLOCK_RECORD
  5
121
330
1
100
AcDbSymbolTableRecord
100
AcDbBlockTableRecord
  2
*U18
340
0
102
{BLKREFS
331
2AD
102
}
  0
BLOCK_RECORD
  5
12C
330
1
100
AcDbSymbolTableRecord
100
AcDbBlockTableRecord
  2
*U19
340
0
102
{BLKREFS
331
2AE
102
}
  0
BLOCK_RECORD
  5
137
330
1
100
AcDbSymbolTableRecord
100
AcDbBlockTableRecord
  2
*U20
340
0
102
{BLKREFS
331
2AF
102
}
  0
BLOCK_RECORD
  5
142
330
1
100
AcDbSymbolTableRecord
100
AcDbBlockTableRecord
  2
*U21
340
0
102
{BLKREFS
331
2BC
102
}
  0
BLOCK_RECORD
  5
149
330
1
100
AcDbSymbolTableRecord
100
AcDbBlockTableRecord
  2
*U22
340
0
102
{BLKREFS
331
2BD
102
}
  0
BLOCK_RECORD
  5
151
330
1
100
AcDbSymbolTableRecord
100
AcDbBlockTableRecord
  2
*U23
340
0
102
{BLKREFS
331
67
102
}
  0
BLOCK_RECORD
  5
156
330
1
100
AcDbSymbolTableRecord
100
AcDbBlockTableRecord
  2
*U24
340
0
102
{BLKREFS
331
72
102
}
  0
BLOCK_RECORD
  5
15B
330
1
100
AcDbSymbolTableRecord
100
AcDbBlockTableRecord
  2
*U25
340
0
102
{BLKREFS
331
7D
102
}
  0
BLOCK_RECORD
  5
160
330
1
100
AcDbSymbolTableRecord
100
AcDbBlockTableRecord
  2
*U26
340
0
102
{BLKREFS
331
88
102
}
  0
BLOCK_RECORD
  5
165
330
1
100
AcDbSymbolTableRecord
100
AcDbBlockTableRecord
  2
*U27
340
0
102
{BLKREFS
331
93
102
}
  0
BLOCK_RECORD
  5
16A
330
1
100
AcDbSymbolTableRecord
100
AcDbBlockTableRecord
  2
*U28
340
0
102
{BLKREFS
331
9E
102
}
  0
BLOCK_RECORD
  5
16F
330
1
100
AcDbSymbolTableRecord
100
AcDbBlockTableRecord
  2
*U29
340
0
102
{BLKREFS
331
A9
102
}
  0
BLOCK_RECORD
  5
174
330
1
100
AcDbSymbolTableRecord
100
AcDbBlockTableRecord
  2
*U30
340
0
102
{BLKREFS
331
B4
102
}
  0
BLOCK_RECORD
  5
179
330
1
100
AcDbSymbolTableRecord
100
AcDbBlockTableRecord
  2
*U31
340
0
102
{BLKREFS
331
BF
102
}
  0
BLOCK_RECORD
  5
17E
330
1
100
AcDbSymbolTableRecord
100
AcDbBlockTableRecord
  2
*U32
340
0
102
{BLKREFS
331
CA
102
}
  0
BLOCK_RECORD
  5
183
330
1
100
AcDbSymbolTableRecord
100
AcDbBlockTableRecord
  2
*U33
340
0
102
{BLKREFS
331
D5
102
}
  0
BLOCK_RECORD
  5
188
330
1
100
AcDbSymbolTableRecord
100
AcDbBlockTableRecord
  2
*U34
340
0
102
{BLKREFS
331
E0
102
}
  0
BLOCK_RECORD
  5
18D
330
1
100
AcDbSymbolTableRecord
100
AcDbBlockTableRecord
  2
*U35
340
0
102
{BLKREFS
331
EB
102
}
  0
BLOCK_RECORD
  5
192
330
1
100
AcDbSymbolTableRecord
100
AcDbBlockTableRecord
  2
*U36
340
0
102
{BLKREFS
331
F6
102
}
  0
BLOCK_RECORD
  5
197
330
1
100
AcDbSymbolTableRecord
100
AcDbBlockTableRecord
  2
*U37
340
0
102
{BLKREFS
331
101
102
}
  0
BLOCK_RECORD
  5
19C
330
1
100
AcDbSymbolTableRecord
100
AcDbBlockTableRecord
  2
*U38
340
0
102
{BLKREFS
331
10C
102
}
  0
BLOCK_RECORD
  5
1A1
330
1
100
AcDbSymbolTableRecord
100
AcDbBlockTableRecord
  2
*U39
340
0
102
{BLKREFS
331
117
102
}
  0
BLOCK_RECORD
  5
1A6
330
1
100
AcDbSymbolTableRecord
100
AcDbBlockTableRecord
  2
*U40
340
0
102
{BLKREFS
331
122
102
}
  0
BLOCK_RECORD
  5
1AB
330
1
100
AcDbSymbolTableRecord
100
AcDbBlockTableRecord
  2
*U41
340
0
102
{BLKREFS
331
12D
102
}
  0
BLOCK_RECORD
  5
1B0
330
1
100
AcDbSymbolTableRecord
100
AcDbBlockTableRecord
  2
*U42
340
0
102
{BLKREFS
331
138
102
}
  0
BLOCK_RECORD
  5
1B5
330
1
100
AcDbSymbolTableRecord
100
AcDbBlockTableRecord
  2
*U43
340
0
102
{BLKREFS
331
2BE
102
}
  0
BLOCK_RECORD
  5
1BE
330
1
100
AcDbSymbolTableRecord
100
AcDbBlockTableRecord
  2
*U44
340
0
102
{BLKREFS
331
2BF
102
}
  0
BLOCK_RECORD
  5
1C7
330
1
100
AcDbSymbolTableRecord
100
AcDbBlockTableRecord
  2
*U45
340
0
102
{BLKREFS
331
2C0
102
}
  0
BLOCK_RECORD
  5
1CE
330
1
100
AcDbSymbolTableRecord
100
AcDbBlockTableRecord
  2
*U46
340
0
102
{BLKREFS
331
2C1
102
}
  0
BLOCK_RECORD
  5
1D7
330
1
100
AcDbSymbolTableRecord
100
AcDbBlockTableRecord
  2
*U47
340
0
102
{BLKREFS
331
2C2
102
}
  0
BLOCK_RECORD
  5
1DF
330
1
100
AcDbSymbolTableRecord
100
AcDbBlockTableRecord
  2
*U48
340
0
102
{BLKREFS
331
2C3
102
}
  0
BLOCK_RECORD
  5
1E7
330
1
100
AcDbSymbolTableRecord
100
AcDbBlockTableRecord
  2
*U49
340
0
102
{BLKREFS
331
2C4
102
}
  0
BLOCK_RECORD
  5
1F0
330
1
100
AcDbSymbolTableRecord
100
AcDbBlockTableRecord
  2
*U50
340
0
102
{BLKREFS
331
2C5
102
}
  0
BLOCK_RECORD
  5
1F9
330
1
100
AcDbSymbolTableRecord
100
AcDbBlockTableRecord
  2
*U51
340
0
102
{BLKREFS
331
2E5
102
}
  0
BLOCK_RECORD
  5
212
330
1
100
AcDbSymbolTableRecord
100
AcDbBlockTableRecord
  2
*U52
340
0
102
{BLKREFS
331
2E6
102
}
  0
ENDTAB
  0
ENDSEC
  0
SECTION
  2
BLOCKS
  0
BLOCK
  5
2E8
330
1D
100
AcDbEntity
  8
0
100
AcDbBlockBegin
  2
*Model_Space
 70
     0
 71
     0
 10
0.0
 20
0.0
 30
0.0
  3
*Model_Space
  1

  0
ENDBLK
  5
2E9
330
1D
100
AcDbEntity
  8
0
100
AcDbBlockEnd
  0
BLOCK
  5
2EA
330
1B
100
AcDbEntity
 67
     1
  8
0
100
AcDbBlockBegin
  2
*Paper_Space
 70
     0
 71
     0
 10
0.0
 20
0.0
 30
0.0
  3
*Paper_Space
  1

  0
ENDBLK
  5
2EB
330
1B
100
AcDbEntity
 67
     1
  8
0
100
AcDbBlockEnd
  0
BLOCK
  5
5C
330
5D
100
AcDbEntity
  8
0
100
AcDbBlockBegin
  2
*U0
 70
     1
 71
     0
 10
0.0
 20
0.0
 30
0.0
  3
*U0
  1

  0
LINE
  5
5E
330
5D
100
AcDbEntity
  8
型材断面
  6
Continuous
100
AcDbLine
 10
195.0
 20
133.5
 30
0.0
 11
195.0
 21
-133.5
 31
0.0
  0
LINE
  5
5F
330
5D
100
AcDbEntity
  8
型材断面
  6
Continuous
100
AcDbLine
 10
195.0
 20
-133.5
 30
0.0
 11
-185.0
 21
-133.5
 31
0.0
  0
LINE
  5
60
330
5D
100
AcDbEntity
  8
型材断面
  6
Continuous
100
AcDbLine
 10
-185.0
 20
-133.5
 30
0.0
 11
-185.0
 21
133.5
 31
0.0
  0
LINE
  5
61
330
5D
100
AcDbEntity
  8
型材断面
  6
Continuous
100
AcDbLine
 10
195.0
 20
133.5
 30
0.0
 11
-185.0
 21
133.5
 31
0.0
  0
LINE
  5
62
330
5D
100
AcDbEntity
  8
型材断面
  6
Continuous
100
AcDbLine
 10
145.0
 20
-133.5
 30
0.0
 11
145.0
 21
-118.5
 31
0.0
  0
LINE
  5
63
330
5D
100
AcDbEntity
  8
型材断面
  6
Continuous
100
AcDbLine
 10
195.0
 20
-118.5
 30
0.0
 11
145.0
 21
-118.5
 31
0.0
  0
ENDBLK
  5
64
330
5D
100
AcDbEntity
  8
0
100
AcDbBlockEnd
  0
BLOCK
  5
65
330
66
100
AcDbEntity
  8
0
100
AcDbBlockBegin
  2
*U1
 70
     1
 71
     0
 10
0.0
 20
0.0
 30
0.0
  3
*U1
  1

  0
INSERT
  5
67
330
66
100
AcDbEntity
  8
補助線
  6
Continuous
100
AcDbBlockReference
  2
*U23
 10
0.0
 20
0.0
 30
0.0
  0
LINE
  5
68
330
66
100
AcDbEntity
  8
ボルト／ビス
  6
Continuous
100
AcDbLine
 10
-55.755937
 20
-8.107234999999999
 30
0.0
 11
-55.505937
 21
-7.962897
 31
0.0
  0
LINE
  5
69
330
66
100
AcDbEntity
  8
ボルト／ビス
  6
Continuous
100
AcDbLine
 10
-55.755937
 20
-8.107234999999999
 30
0.0
 11
-56.005937
 21
-7.962897
 31
0.0
  0
LINE
  5
6A
330
66
100
AcDbEntity
  8
ボルト／ビス
  6
Continuous
100
AcDbLine
 10
-55.505937
 20
-7.674222
 30
0.0
 11
-55.755937
 21
-7.529885
 31
0.0
  0
LINE
  5
6B
330
66
100
AcDbEntity
  8
ボルト／ビス
  6
Continuous
100
AcDbLine
 10
-56.005937
 20
-7.674222
 30
0.0
 11
-55.755937
 21
-7.529885
 31
0.0
  0
CIRCLE
  5
6C
330
66
100
AcDbEntity
  8
ボルト／ビス
  6
Continuous
100
AcDbCircle
 10
-55.755937
 20
-7.81856
 30
0.0
 40
0.25
  0
LINE
  5
6D
330
66
100
AcDbEntity
  8
ボルト／ビス
  6
Continuous
100
AcDbLine
 10
-56.005937
 20
-7.962897
 30
0.0
 11
-56.005937
 21
-7.674222
 31
0.0
  0
LINE
  5
6E
330
66
100
AcDbEntity
  8
ボルト／ビス
  6
Continuous
100
AcDbLine
 10
-55.505937
 20
-7.674222
 30
0.0
 11
-55.505937
 21
-7.962897
 31
0.0
  0
ENDBLK
  5
6F
330
66
100
AcDbEntity
  8
0
100
AcDbBlockEnd
  0
BLOCK
  5
70
330
71
100
AcDbEntity
  8
0
100
AcDbBlockBegin
  2
*U2
 70
     1
 71
     0
 10
0.0
 20
0.0
 30
0.0
  3
*U2
  1

  0
INSERT
  5
72
330
71
100
AcDbEntity
  8
補助線
  6
Continuous
100
AcDbBlockReference
  2
*U24
 10
0.0
 20
0.0
 30
0.0
  0
LINE
  5
73
330
71
100
AcDbEntity
  8
ボルト／ビス
  6
Continuous
100
AcDbLine
 10
-70.755937
 20
-8.107234999999999
 30
0.0
 11
-70.505937
 21
-7.962897
 31
0.0
  0
LINE
  5
74
330
71
100
AcDbEntity
  8
ボルト／ビス
  6
Continuous
100
AcDbLine
 10
-70.755937
 20
-8.107234999999999
 30
0.0
 11
-71.005937
 21
-7.962897
 31
0.0
  0
LINE
  5
75
330
71
100
AcDbEntity
  8
ボルト／ビス
  6
Continuous
100
AcDbLine
 10
-70.505937
 20
-7.674222
 30
0.0
 11
-70.755937
 21
-7.529885
 31
0.0
  0
LINE
  5
76
330
71
100
AcDbEntity
  8
ボルト／ビス
  6
Continuous
100
AcDbLine
 10
-71.005937
 20
-7.674222
 30
0.0
 11
-70.755937
 21
-7.529885
 31
0.0
  0
CIRCLE
  5
77
330
71
100
AcDbEntity
  8
ボルト／ビス
  6
Continuous
100
AcDbCircle
 10
-70.755937
 20
-7.81856
 30
0.0
 40
0.25
  0
LINE
  5
78
330
71
100
AcDbEntity
  8
ボルト／ビス
  6
Continuous
100
AcDbLine
 10
-71.005937
 20
-7.962897
 30
0.0
 11
-71.005937
 21
-7.674222
 31
0.0
  0
LINE
  5
79
330
71
100
AcDbEntity
  8
ボルト／ビス
  6
Continuous
100
AcDbLine
 10
-70.505937
 20
-7.674222
 30
0.0
 11
-70.505937
 21
-7.962897
 31
0.0
  0
ENDBLK
  5
7A
330
71
100
AcDbEntity
  8
0
100
AcDbBlockEnd
  0
BLOCK
  5
7B
330
7C
100
AcDbEntity
  8
0
100
AcDbBlockBegin
  2
*U3
 70
     1
 71
     0
 10
0.0
 20
0.0
 30
0.0
  3
*U3
  1

  0
INSERT
  5
7D
330
7C
100
AcDbEntity
  8
補助線
  6
Continuous
100
AcDbBlockReference
  2
*U25
 10
0.0
 20
0.0
 30
0.0
  0
LINE
  5
7E
330
7C
100
AcDbEntity
  8
ボルト／ビス
  6
Continuous
100
AcDbLine
 10
-85.755937
 20
-8.107234999999999
 30
0.0
 11
-85.505937
 21
-7.962897
 31
0.0
  0
LINE
  5
7F
330
7C
100
AcDbEntity
  8
ボルト／ビス
  6
Continuous
100
AcDbLine
 10
-85.755937
 20
-8.107234999999999
 30
0.0
 11
-86.005937
 21
-7.962897
 31
0.0
  0
LINE
  5
80
330
7C
100
AcDbEntity
  8
ボルト／ビス
  6
Continuous
100
AcDbLine
 10
-85.505937
 20
-7.674222
 30
0.0
 11
-85.755937
 21
-7.529885
 31
0.0
  0
LINE
  5
81
330
7C
100
AcDbEntity
  8
ボルト／ビス
  6
Continuous
100
AcDbLine
 10
-86.005937
 20
-7.674222
 30
0.0
 11
-85.755937
 21
-7.529885
 31
0.0
  0
CIRCLE
  5
82
330
7C
100
AcDbEntity
  8
ボルト／ビス
  6
Continuous
100
AcDbCircle
 10
-85.755937
 20
-7.81856
 30
0.0
 40
0.25
  0
LINE
  5
83
330
7C
100
AcDbEntity
  8
ボルト／ビス
  6
Continuous
100
AcDbLine
 10
-86.005937
 20
-7.962897
 30
0.0
 11
-86.005937
 21
-7.674222
 31
0.0
  0
LINE
  5
84
330
7C
100
AcDbEntity
  8
ボルト／ビス
  6
Continuous
100
AcDbLine
 10
-85.505937
 20
-7.674222
 30
0.0
 11
-85.505937
 21
-7.962897
 31
0.0
  0
ENDBLK
  5
85
330
7C
100
AcDbEntity
  8
0
100
AcDbBlockEnd
  0
BLOCK
  5
86
330
87
100
AcDbEntity
  8
0
100
AcDbBlockBegin
  2
*U4
 70
     1
 71
     0
 10
0.0
 20
0.0
 30
0.0
  3
*U4
  1

  0
INSERT
  5
88
330
87
100
AcDbEntity
  8
補助線
  6
Continuous
100
AcDbBlockReference
  2
*U26
 10
0.0
 20
0.0
 30
0.0
  0
LINE
  5
89
330
87
100
AcDbEntity
  8
ボルト／ビス
  6
Continuous
100
AcDbLine
 10
-97.044613
 20
33.18144
 30
0.0
 11
-96.90027499999999
 21
33.43144
 31
0.0
  0
LINE
  5
8A
330
87
100
AcDbEntity
  8
ボルト／ビス
  6
Continuous
100
AcDbLine
 10
-97.044613
 20
33.18144
 30
0.0
 11
-96.90027499999999
 21
32.93144
 31
0.0
  0
LINE
  5
8B
330
87
100
AcDbEntity
  8
ボルト／ビス
  6
Continuous
100
AcDbLine
 10
-96.6116
 20
33.43144
 30
0.0
 11
-96.467263
 21
33.18144
 31
0.0
  0
LINE
  5
8C
330
87
100
AcDbEntity
  8
ボルト／ビス
  6
Continuous
100
AcDbLine
 10
-96.6116
 20
32.93144
 30
0.0
 11
-96.467263
 21
33.18144
 31
0.0
  0
CIRCLE
  5
8D
330
87
100
AcDbEntity
  8
ボルト／ビス
  6
Continuous
100
AcDbCircle
 10
-96.755937
 20
33.18144
 30
0.0
 40
0.25
  0
LINE
  5
8E
330
87
100
AcDbEntity
  8
ボルト／ビス
  6
Continuous
100
AcDbLine
 10
-96.90027499999999
 20
32.93144
 30
0.0
 11
-96.6116
 21
32.93144
 31
0.0
  0
LINE
  5
8F
330
87
100
AcDbEntity
  8
ボルト／ビス
  6
Continuous
100
AcDbLine
 10
-96.6116
 20
33.43144
 30
0.0
 11
-96.90027499999999
 21
33.43144
 31
0.0
  0
ENDBLK
  5
90
330
87
100
AcDbEntity
  8
0
100
AcDbBlockEnd
  0
BLOCK
  5
91
330
92
100
AcDbEntity
  8
0
100
AcDbBlockBegin
  2
*U5
 70
     1
 71
     0
 10
0.0
 20
0.0
 30
0.0
  3
*U5
  1

  0
INSERT
  5
93
330
92
100
AcDbEntity
  8
補助線
  6
Continuous
100
AcDbBlockReference
  2
*U27
 10
0.0
 20
0.0
 30
0.0
  0
LINE
  5
94
330
92
100
AcDbEntity
  8
ボルト／ビス
  6
Continuous
100
AcDbLine
 10
-97.044613
 20
18.18144
 30
0.0
 11
-96.90027499999999
 21
18.43144
 31
0.0
  0
LINE
  5
95
330
92
100
AcDbEntity
  8
ボルト／ビス
  6
Continuous
100
AcDbLine
 10
-97.044613
 20
18.18144
 30
0.0
 11
-96.90027499999999
 21
17.93144
 31
0.0
  0
LINE
  5
96
330
92
100
AcDbEntity
  8
ボルト／ビス
  6
Continuous
100
AcDbLine
 10
-96.6116
 20
18.43144
 30
0.0
 11
-96.467263
 21
18.18144
 31
0.0
  0
LINE
  5
97
330
92
100
AcDbEntity
  8
ボルト／ビス
  6
Continuous
100
AcDbLine
 10
-96.6116
 20
17.93144
 30
0.0
 11
-96.467263
 21
18.18144
 31
0.0
  0
CIRCLE
  5
98
330
92
100
AcDbEntity
  8
ボルト／ビス
  6
Continuous
100
AcDbCircle
 10
-96.755937
 20
18.18144
 30
0.0
 40
0.25
  0
LINE
  5
99
330
92
100
AcDbEntity
  8
ボルト／ビス
  6
Continuous
100
AcDbLine
 10
-96.90027499999999
 20
17.93144
 30
0.0
 11
-96.6116
 21
17.93144
 31
0.0
  0
LINE
  5
9A
330
92
100
AcDbEntity
  8
ボルト／ビス
  6
Continuous
100
AcDbLine
 10
-96.6116
 20
18.43144
 30
0.0
 11
-96.90027499999999
 21
18.43144
 31
0.0
  0
ENDBLK
  5
9B
330
92
100
AcDbEntity
  8
0
100
AcDbBlockEnd
  0
BLOCK
  5
9C
330
9D
100
AcDbEntity
  8
0
100
AcDbBlockBegin
  2
*U6
 70
     1
 71
     0
 10
0.0
 20
0.0
 30
0.0
  3
*U6
  1

  0
INSERT
  5
9E
330
9D
100
AcDbEntity
  8
補助線
  6
Continuous
100
AcDbBlockReference
  2
*U28
 10
0.0
 20
0.0
 30
0.0
  0
LINE
  5
9F
330
9D
100
AcDbEntity
  8
ボルト／ビス
  6
Continuous
100
AcDbLine
 10
-97.044613
 20
3.18144
 30
0.0
 11
-96.90027499999999
 21
3.43144
 31
0.0
  0
LINE
  5
A0
330
9D
100
AcDbEntity
  8
ボルト／ビス
  6
Continuous
100
AcDbLine
 10
-97.044613
 20
3.18144
 30
0.0
 11
-96.90027499999999
 21
2.93144
 31
0.0
  0
LINE
  5
A1
330
9D
100
AcDbEntity
  8
ボルト／ビス
  6
Continuous
100
AcDbLine
 10
-96.6116
 20
3.43144
 30
0.0
 11
-96.467263
 21
3.18144
 31
0.0
  0
LINE
  5
A2
330
9D
100
AcDbEntity
  8
ボルト／ビス
  6
Continuous
100
AcDbLine
 10
-96.6116
 20
2.93144
 30
0.0
 11
-96.467263
 21
3.18144
 31
0.0
  0
CIRCLE
  5
A3
330
9D
100
AcDbEntity
  8
ボルト／ビス
  6
Continuous
100
AcDbCircle
 10
-96.755937
 20
3.18144
 30
0.0
 40
0.25
  0
LINE
  5
A4
330
9D
100
AcDbEntity
  8
ボルト／ビス
  6
Continuous
100
AcDbLine
 10
-96.90027499999999
 20
2.93144
 30
0.0
 11
-96.6116
 21
2.93144
 31
0.0
  0
LINE
  5
A5
330
9D
100
AcDbEntity
  8
ボルト／ビス
  6
Continuous
100
AcDbLine
 10
-96.6116
 20
3.43144
 30
0.0
 11
-96.90027499999999
 21
3.43144
 31
0.0
  0
ENDBLK
  5
A6
330
9D
100
AcDbEntity
  8
0
100
AcDbBlockEnd
  0
BLOCK
  5
A7
330
A8
100
AcDbEntity
  8
0
100
AcDbBlockBegin
  2
*U7
 70
     1
 71
     0
 10
0.0
 20
0.0
 30
0.0
  3
*U7
  1

  0
INSERT
  5
A9
330
A8
100
AcDbEntity
  8
補助線
  6
Continuous
100
AcDbBlockReference
  2
*U29
 10
0.0
 20
0.0
 30
0.0
  0
LINE
  5
AA
330
A8
100
AcDbEntity
  8
ボルト／ビス
  6
Continuous
100
AcDbLine
 10
-70.755937
 20
74.47011500000001
 30
0.0
 11
-70.505937
 21
74.325778
 31
0.0
  0
LINE
  5
AB
330
A8
100
AcDbEntity
  8
ボルト／ビス
  6
Continuous
100
AcDbLine
 10
-70.755937
 20
74.47011500000001
 30
0.0
 11
-71.005937
 21
74.325778
 31
0.0
  0
LINE
  5
AC
330
A8
100
AcDbEntity
  8
ボルト／ビス
  6
Continuous
100
AcDbLine
 10
-70.505937
 20
74.037103
 30
0.0
 11
-70.755937
 21
73.892765
 31
0.0
  0
LINE
  5
AD
330
A8
100
AcDbEntity
  8
ボルト／ビス
  6
Continuous
100
AcDbLine
 10
-71.005937
 20
74.037103
 30
0.0
 11
-70.755937
 21
73.892765
 31
0.0
  0
CIRCLE
  5
AE
330
A8
100
AcDbEntity
  8
ボルト／ビス
  6
Continuous
100
AcDbCircle
 10
-70.755937
 20
74.18144
 30
0.0
 40
0.25
  0
LINE
  5
AF
330
A8
100
AcDbEntity
  8
ボルト／ビス
  6
Continuous
100
AcDbLine
 10
-71.005937
 20
74.325778
 30
0.0
 11
-71.005937
 21
74.037103
 31
0.0
  0
LINE
  5
B0
330
A8
100
AcDbEntity
  8
ボルト／ビス
  6
Continuous
100
AcDbLine
 10
-70.505937
 20
74.037103
 30
0.0
 11
-70.505937
 21
74.325778
 31
0.0
  0
ENDBLK
  5
B1
330
A8
100
AcDbEntity
  8
0
100
AcDbBlockEnd
  0
BLOCK
  5
B2
330
B3
100
AcDbEntity
  8
0
100
AcDbBlockBegin
  2
*U8
 70
     1
 71
     0
 10
0.0
 20
0.0
 30
0.0
  3
*U8
  1

  0
INSERT
  5
B4
330
B3
100
AcDbEntity
  8
補助線
  6
Continuous
100
AcDbBlockReference
  2
*U30
 10
0.0
 20
0.0
 30
0.0
  0
LINE
  5
B5
330
B3
100
AcDbEntity
  8
ボルト／ビス
  6
Continuous
100
AcDbLine
 10
-85.755937
 20
74.47011500000001
 30
0.0
 11
-85.505937
 21
74.325778
 31
0.0
  0
LINE
  5
B6
330
B3
100
AcDbEntity
  8
ボルト／ビス
  6
Continuous
100
AcDbLine
 10
-85.755937
 20
74.47011500000001
 30
0.0
 11
-86.005937
 21
74.325778
 31
0.0
  0
LINE
  5
B7
330
B3
100
AcDbEntity
  8
ボルト／ビス
  6
Continuous
100
AcDbLine
 10
-85.505937
 20
74.037103
 30
0.0
 11
-85.755937
 21
73.892765
 31
0.0
  0
LINE
  5
B8
330
B3
100
AcDbEntity
  8
ボルト／ビス
  6
Continuous
100
AcDbLine
 10
-86.005937
 20
74.037103
 30
0.0
 11
-85.755937
 21
73.892765
 31
0.0
  0
CIRCLE
  5
B9
330
B3
100
AcDbEntity
  8
ボルト／ビス
  6
Continuous
100
AcDbCircle
 10
-85.755937
 20
74.18144
 30
0.0
 40
0.25
  0
LINE
  5
BA
330
B3
100
AcDbEntity
  8
ボルト／ビス
  6
Continuous
100
AcDbLine
 10
-86.005937
 20
74.325778
 30
0.0
 11
-86.005937
 21
74.037103
 31
0.0
  0
LINE
  5
BB
330
B3
100
AcDbEntity
  8
ボルト／ビス
  6
Continuous
100
AcDbLine
 10
-85.505937
 20
74.037103
 30
0.0
 11
-85.505937
 21
74.325778
 31
0.0
  0
ENDBLK
  5
BC
330
B3
100
AcDbEntity
  8
0
100
AcDbBlockEnd
  0
BLOCK
  5
BD
330
BE
100
AcDbEntity
  8
0
100
AcDbBlockBegin
  2
*U9
 70
     1
 71
     0
 10
0.0
 20
0.0
 30
0.0
  3
*U9
  1

  0
INSERT
  5
BF
330
BE
100
AcDbEntity
  8
補助線
  6
Continuous
100
AcDbBlockReference
  2
*U31
 10
0.0
 20
0.0
 30
0.0
  0
LINE
  5
C0
330
BE
100
AcDbEntity
  8
ボルト／ビス
  6
Continuous
100
AcDbLine
 10
-97.044613
 20
48.18144
 30
0.0
 11
-96.90027499999999
 21
47.93144
 31
0.0
  0
LINE
  5
C1
330
BE
100
AcDbEntity
  8
ボルト／ビス
  6
Continuous
100
AcDbLine
 10
-97.044613
 20
48.18144
 30
0.0
 11
-96.90027499999999
 21
48.43144
 31
0.0
  0
LINE
  5
C2
330
BE
100
AcDbEntity
  8
ボルト／ビス
  6
Continuous
100
AcDbLine
 10
-96.6116
 20
47.93144
 30
0.0
 11
-96.467263
 21
48.18144
 31
0.0
  0
LINE
  5
C3
330
BE
100
AcDbEntity
  8
ボルト／ビス
  6
Continuous
100
AcDbLine
 10
-96.6116
 20
48.43144
 30
0.0
 11
-96.467263
 21
48.18144
 31
0.0
  0
CIRCLE
  5
C4
330
BE
100
AcDbEntity
  8
ボルト／ビス
  6
Continuous
100
AcDbCircle
 10
-96.755937
 20
48.18144
 30
0.0
 40
0.25
  0
LINE
  5
C5
330
BE
100
AcDbEntity
  8
ボルト／ビス
  6
Continuous
100
AcDbLine
 10
-96.90027499999999
 20
48.43144
 30
0.0
 11
-96.6116
 21
48.43144
 31
0.0
  0
LINE
  5
C6
330
BE
100
AcDbEntity
  8
ボルト／ビス
  6
Continuous
100
AcDbLine
 10
-96.6116
 20
47.93144
 30
0.0
 11
-96.90027499999999
 21
47.93144
 31
0.0
  0
ENDBLK
  5
C7
330
BE
100
AcDbEntity
  8
0
100
AcDbBlockEnd
  0
BLOCK
  5
C8
330
C9
100
AcDbEntity
  8
0
100
AcDbBlockBegin
  2
*U10
 70
     1
 71
     0
 10
0.0
 20
0.0
 30
0.0
  3
*U10
  1

  0
INSERT
  5
CA
330
C9
100
AcDbEntity
  8
補助線
  6
Continuous
100
AcDbBlockReference
  2
*U32
 10
0.0
 20
0.0
 30
0.0
  0
LINE
  5
CB
330
C9
100
AcDbEntity
  8
ボルト／ビス
  6
Continuous
100
AcDbLine
 10
-97.044613
 20
63.18144
 30
0.0
 11
-96.90027499999999
 21
62.93144
 31
0.0
  0
LINE
  5
CC
330
C9
100
AcDbEntity
  8
ボルト／ビス
  6
Continuous
100
AcDbLine
 10
-97.044613
 20
63.18144
 30
0.0
 11
-96.90027499999999
 21
63.43144
 31
0.0
  0
LINE
  5
CD
330
C9
100
AcDbEntity
  8
ボルト／ビス
  6
Continuous
100
AcDbLine
 10
-96.6116
 20
62.93144
 30
0.0
 11
-96.467263
 21
63.18144
 31
0.0
  0
LINE
  5
CE
330
C9
100
AcDbEntity
  8
ボルト／ビス
  6
Continuous
100
AcDbLine
 10
-96.6116
 20
63.43144
 30
0.0
 11
-96.467263
 21
63.18144
 31
0.0
  0
CIRCLE
  5
CF
330
C9
100
AcDbEntity
  8
ボルト／ビス
  6
Continuous
100
AcDbCircle
 10
-96.755937
 20
63.18144
 30
0.0
 40
0.25
  0
LINE
  5
D0
330
C9
100
AcDbEntity
  8
ボルト／ビス
  6
Continuous
100
AcDbLine
 10
-96.90027499999999
 20
63.43144
 30
0.0
 11
-96.6116
 21
63.43144
 31
0.0
  0
LINE
  5
D1
330
C9
100
AcDbEntity
  8
ボルト／ビス
  6
Continuous
100
AcDbLine
 10
-96.6116
 20
62.93144
 30
0.0
 11
-96.90027499999999
 21
62.93144
 31
0.0
  0
ENDBLK
  5
D2
330
C9
100
AcDbEntity
  8
0
100
AcDbBlockEnd
  0
BLOCK
  5
D3
330
D4
100
AcDbEntity
  8
0
100
AcDbBlockBegin
  2
*U11
 70
     1
 71
     0
 10
0.0
 20
0.0
 30
0.0
  3
*U11
  1

  0
INSERT
  5
D5
330
D4
100
AcDbEntity
  8
補助線
  6
Continuous
100
AcDbBlockReference
  2
*U33
 10
0.0
 20
0.0
 30
0.0
  0
LINE
  5
D6
330
D4
100
AcDbEntity
  8
ボルト／ビス
  6
Continuous
100
AcDbLine
 10
-40.755937
 20
-8.107234999999999
 30
0.0
 11
-41.005937
 21
-7.962897
 31
0.0
  0
LINE
  5
D7
330
D4
100
AcDbEntity
  8
ボルト／ビス
  6
Continuous
100
AcDbLine
 10
-40.755937
 20
-8.107234999999999
 30
0.0
 11
-40.505937
 21
-7.962897
 31
0.0
  0
LINE
  5
D8
330
D4
100
AcDbEntity
  8
ボルト／ビス
  6
Continuous
100
AcDbLine
 10
-41.005937
 20
-7.674222
 30
0.0
 11
-40.755937
 21
-7.529885
 31
0.0
  0
LINE
  5
D9
330
D4
100
AcDbEntity
  8
ボルト／ビス
  6
Continuous
100
AcDbLine
 10
-40.505937
 20
-7.674222
 30
0.0
 11
-40.755937
 21
-7.529885
 31
0.0
  0
CIRCLE
  5
DA
330
D4
100
AcDbEntity
  8
ボルト／ビス
  6
Continuous
100
AcDbCircle
 10
-40.755937
 20
-7.81856
 30
0.0
 40
0.25
  0
LINE
  5
DB
330
D4
100
AcDbEntity
  8
ボルト／ビス
  6
Continuous
100
AcDbLine
 10
-40.505937
 20
-7.962897
 30
0.0
 11
-40.505937
 21
-7.674222
 31
0.0
  0
LINE
  5
DC
330
D4
100
AcDbEntity
  8
ボルト／ビス
  6
Continuous
100
AcDbLine
 10
-41.005937
 20
-7.674222
 30
0.0
 11
-41.005937
 21
-7.962897
 31
0.0
  0
ENDBLK
  5
DD
330
D4
100
AcDbEntity
  8
0
100
AcDbBlockEnd
  0
BLOCK
  5
DE
330
DF
100
AcDbEntity
  8
0
100
AcDbBlockBegin
  2
*U12
 70
     1
 71
     0
 10
0.0
 20
0.0
 30
0.0
  3
*U12
  1

  0
INSERT
  5
E0
330
DF
100
AcDbEntity
  8
補助線
  6
Continuous
100
AcDbBlockReference
  2
*U34
 10
0.0
 20
0.0
 30
0.0
  0
LINE
  5
E1
330
DF
100
AcDbEntity
  8
ボルト／ビス
  6
Continuous
100
AcDbLine
 10
-25.755937
 20
-8.107234999999999
 30
0.0
 11
-26.005937
 21
-7.962897
 31
0.0
  0
LINE
  5
E2
330
DF
100
AcDbEntity
  8
ボルト／ビス
  6
Continuous
100
AcDbLine
 10
-25.755937
 20
-8.107234999999999
 30
0.0
 11
-25.505937
 21
-7.962897
 31
0.0
  0
LINE
  5
E3
330
DF
100
AcDbEntity
  8
ボルト／ビス
  6
Continuous
100
AcDbLine
 10
-26.005937
 20
-7.674222
 30
0.0
 11
-25.755937
 21
-7.529885
 31
0.0
  0
LINE
  5
E4
330
DF
100
AcDbEntity
  8
ボルト／ビス
  6
Continuous
100
AcDbLine
 10
-25.505937
 20
-7.674222
 30
0.0
 11
-25.755937
 21
-7.529885
 31
0.0
  0
CIRCLE
  5
E5
330
DF
100
AcDbEntity
  8
ボルト／ビス
  6
Continuous
100
AcDbCircle
 10
-25.755937
 20
-7.81856
 30
0.0
 40
0.25
  0
LINE
  5
E6
330
DF
100
AcDbEntity
  8
ボルト／ビス
  6
Continuous
100
AcDbLine
 10
-25.505937
 20
-7.962897
 30
0.0
 11
-25.505937
 21
-7.674222
 31
0.0
  0
LINE
  5
E7
330
DF
100
AcDbEntity
  8
ボルト／ビス
  6
Continuous
100
AcDbLine
 10
-26.005937
 20
-7.674222
 30
0.0
 11
-26.005937
 21
-7.962897
 31
0.0
  0
ENDBLK
  5
E8
330
DF
100
AcDbEntity
  8
0
100
AcDbBlockEnd
  0
BLOCK
  5
E9
330
EA
100
AcDbEntity
  8
0
100
AcDbBlockBegin
  2
*U13
 70
     1
 71
     0
 10
0.0
 20
0.0
 30
0.0
  3
*U13
  1

  0
INSERT
  5
EB
330
EA
100
AcDbEntity
  8
補助線
  6
Continuous
100
AcDbBlockReference
  2
*U35
 10
0.0
 20
0.0
 30
0.0
  0
LINE
  5
EC
330
EA
100
AcDbEntity
  8
ボルト／ビス
  6
Continuous
100
AcDbLine
 10
-14.467263
 20
18.18144
 30
0.0
 11
-14.6116
 21
18.43144
 31
0.0
  0
LINE
  5
ED
330
EA
100
AcDbEntity
  8
ボルト／ビス
  6
Continuous
100
AcDbLine
 10
-14.467263
 20
18.18144
 30
0.0
 11
-14.6116
 21
17.93144
 31
0.0
  0
LINE
  5
EE
330
EA
100
AcDbEntity
  8
ボルト／ビス
  6
Continuous
100
AcDbLine
 10
-14.900275
 20
18.43144
 30
0.0
 11
-15.044613
 21
18.18144
 31
0.0
  0
LINE
  5
EF
330
EA
100
AcDbEntity
  8
ボルト／ビス
  6
Continuous
100
AcDbLine
 10
-14.900275
 20
17.93144
 30
0.0
 11
-15.044613
 21
18.18144
 31
0.0
  0
CIRCLE
  5
F0
330
EA
100
AcDbEntity
  8
ボルト／ビス
  6
Continuous
100
AcDbCircle
 10
-14.755937
 20
18.18144
 30
0.0
 40
0.25
  0
LINE
  5
F1
330
EA
100
AcDbEntity
  8
ボルト／ビス
  6
Continuous
100
AcDbLine
 10
-14.6116
 20
17.93144
 30
0.0
 11
-14.900275
 21
17.93144
 31
0.0
  0
LINE
  5
F2
330
EA
100
AcDbEntity
  8
ボルト／ビス
  6
Continuous
100
AcDbLine
 10
-14.900275
 20
18.43144
 30
0.0
 11
-14.6116
 21
18.43144
 31
0.0
  0
ENDBLK
  5
F3
330
EA
100
AcDbEntity
  8
0
100
AcDbBlockEnd
  0
BLOCK
  5
F4
330
F5
100
AcDbEntity
  8
0
100
AcDbBlockBegin
  2
*U14
 70
     1
 71
     0
 10
0.0
 20
0.0
 30
0.0
  3
*U14
  1

  0
INSERT
  5
F6
330
F5
100
AcDbEntity
  8
補助線
  6
Continuous
100
AcDbBlockReference
  2
*U36
 10
0.0
 20
0.0
 30
0.0
  0
LINE
  5
F7
330
F5
100
AcDbEntity
  8
ボルト／ビス
  6
Continuous
100
AcDbLine
 10
-14.467263
 20
3.18144
 30
0.0
 11
-14.6116
 21
3.43144
 31
0.0
  0
LINE
  5
F8
330
F5
100
AcDbEntity
  8
ボルト／ビス
  6
Continuous
100
AcDbLine
 10
-14.467263
 20
3.18144
 30
0.0
 11
-14.6116
 21
2.93144
 31
0.0
  0
LINE
  5
F9
330
F5
100
AcDbEntity
  8
ボルト／ビス
  6
Continuous
100
AcDbLine
 10
-14.900275
 20
3.43144
 30
0.0
 11
-15.044613
 21
3.18144
 31
0.0
  0
LINE
  5
FA
330
F5
100
AcDbEntity
  8
ボルト／ビス
  6
Continuous
100
AcDbLine
 10
-14.900275
 20
2.93144
 30
0.0
 11
-15.044613
 21
3.18144
 31
0.0
  0
CIRCLE
  5
FB
330
F5
100
AcDbEntity
  8
ボルト／ビス
  6
Continuous
100
AcDbCircle
 10
-14.755937
 20
3.18144
 30
0.0
 40
0.25
  0
LINE
  5
FC
330
F5
100
AcDbEntity
  8
ボルト／ビス
  6
Continuous
100
AcDbLine
 10
-14.6116
 20
2.93144
 30
0.0
 11
-14.900275
 21
2.93144
 31
0.0
  0
LINE
  5
FD
330
F5
100
AcDbEntity
  8
ボルト／ビス
  6
Continuous
100
AcDbLine
 10
-14.900275
 20
3.43144
 30
0.0
 11
-14.6116
 21
3.43144
 31
0.0
  0
ENDBLK
  5
FE
330
F5
100
AcDbEntity
  8
0
100
AcDbBlockEnd
  0
BLOCK
  5
FF
330
100
100
AcDbEntity
  8
0
100
AcDbBlockBegin
  2
*U15
 70
     1
 71
     0
 10
0.0
 20
0.0
 30
0.0
  3
*U15
  1

  0
INSERT
  5
101
330
100
100
AcDbEntity
  8
補助線
  6
Continuous
100
AcDbBlockReference
  2
*U37
 10
0.0
 20
0.0
 30
0.0
  0
LINE
  5
102
330
100
100
AcDbEntity
  8
ボルト／ビス
  6
Continuous
100
AcDbLine
 10
-40.755937
 20
74.47011500000001
 30
0.0
 11
-41.005937
 21
74.325778
 31
0.0
  0
LINE
  5
103
330
100
100
AcDbEntity
  8
ボルト／ビス
  6
Continuous
100
AcDbLine
 10
-40.755937
 20
74.47011500000001
 30
0.0
 11
-40.505937
 21
74.325778
 31
0.0
  0
LINE
  5
104
330
100
100
AcDbEntity
  8
ボルト／ビス
  6
Continuous
100
AcDbLine
 10
-41.005937
 20
74.037103
 30
0.0
 11
-40.755937
 21
73.892765
 31
0.0
  0
LINE
  5
105
330
100
100
AcDbEntity
  8
ボルト／ビス
  6
Continuous
100
AcDbLine
 10
-40.505937
 20
74.037103
 30
0.0
 11
-40.755937
 21
73.892765
 31
0.0
  0
CIRCLE
  5
106
330
100
100
AcDbEntity
  8
ボルト／ビス
  6
Continuous
100
AcDbCircle
 10
-40.755937
 20
74.18144
 30
0.0
 40
0.25
  0
LINE
  5
107
330
100
100
AcDbEntity
  8
ボルト／ビス
  6
Continuous
100
AcDbLine
 10
-40.505937
 20
74.325778
 30
0.0
 11
-40.505937
 21
74.037103
 31
0.0
  0
LINE
  5
108
330
100
100
AcDbEntity
  8
ボルト／ビス
  6
Continuous
100
AcDbLine
 10
-41.005937
 20
74.037103
 30
0.0
 11
-41.005937
 21
74.325778
 31
0.0
  0
ENDBLK
  5
109
330
100
100
AcDbEntity
  8
0
100
AcDbBlockEnd
  0
BLOCK
  5
10A
330
10B
100
AcDbEntity
  8
0
100
AcDbBlockBegin
  2
*U16
 70
     1
 71
     0
 10
0.0
 20
0.0
 30
0.0
  3
*U16
  1

  0
INSERT
  5
10C
330
10B
100
AcDbEntity
  8
補助線
  6
Continuous
100
AcDbBlockReference
  2
*U38
 10
0.0
 20
0.0
 30
0.0
  0
LINE
  5
10D
330
10B
100
AcDbEntity
  8
ボルト／ビス
  6
Continuous
100
AcDbLine
 10
-25.755937
 20
74.47011500000001
 30
0.0
 11
-26.005937
 21
74.325778
 31
0.0
  0
LINE
  5
10E
330
10B
100
AcDbEntity
  8
ボルト／ビス
  6
Continuous
100
AcDbLine
 10
-25.755937
 20
74.47011500000001
 30
0.0
 11
-25.505937
 21
74.325778
 31
0.0
  0
LINE
  5
10F
330
10B
100
AcDbEntity
  8
ボルト／ビス
  6
Continuous
100
AcDbLine
 10
-26.005937
 20
74.037103
 30
0.0
 11
-25.755937
 21
73.892765
 31
0.0
  0
LINE
  5
110
330
10B
100
AcDbEntity
  8
ボルト／ビス
  6
Continuous
100
AcDbLine
 10
-25.505937
 20
74.037103
 30
0.0
 11
-25.755937
 21
73.892765
 31
0.0
  0
CIRCLE
  5
111
330
10B
100
AcDbEntity
  8
ボルト／ビス
  6
Continuous
100
AcDbCircle
 10
-25.755937
 20
74.18144
 30
0.0
 40
0.25
  0
LINE
  5
112
330
10B
100
AcDbEntity
  8
ボルト／ビス
  6
Continuous
100
AcDbLine
 10
-25.505937
 20
74.325778
 30
0.0
 11
-25.505937
 21
74.037103
 31
0.0
  0
LINE
  5
113
330
10B
100
AcDbEntity
  8
ボルト／ビス
  6
Continuous
100
AcDbLine
 10
-26.005937
 20
74.037103
 30
0.0
 11
-26.005937
 21
74.325778
 31
0.0
  0
ENDBLK
  5
114
330
10B
100
AcDbEntity
  8
0
100
AcDbBlockEnd
  0
BLOCK
  5
115
330
116
100
AcDbEntity
  8
0
100
AcDbBlockBegin
  2
*U17
 70
     1
 71
     0
 10
0.0
 20
0.0
 30
0.0
  3
*U17
  1

  0
INSERT
  5
117
330
116
100
AcDbEntity
  8
補助線
  6
Continuous
100
AcDbBlockReference
  2
*U39
 10
0.0
 20
0.0
 30
0.0
  0
LINE
  5
118
330
116
100
AcDbEntity
  8
ボルト／ビス
  6
Continuous
100
AcDbLine
 10
-14.467263
 20
48.18144
 30
0.0
 11
-14.6116
 21
47.93144
 31
0.0
  0
LINE
  5
119
330
116
100
AcDbEntity
  8
ボルト／ビス
  6
Continuous
100
AcDbLine
 10
-14.467263
 20
48.18144
 30
0.0
 11
-14.6116
 21
48.43144
 31
0.0
  0
LINE
  5
11A
330
116
100
AcDbEntity
  8
ボルト／ビス
  6
Continuous
100
AcDbLine
 10
-14.900275
 20
47.93144
 30
0.0
 11
-15.044613
 21
48.18144
 31
0.0
  0
LINE
  5
11B
330
116
100
AcDbEntity
  8
ボルト／ビス
  6
Continuous
100
AcDbLine
 10
-14.900275
 20
48.43144
 30
0.0
 11
-15.044613
 21
48.18144
 31
0.0
  0
CIRCLE
  5
11C
330
116
100
AcDbEntity
  8
ボルト／ビス
  6
Continuous
100
AcDbCircle
 10
-14.755937
 20
48.18144
 30
0.0
 40
0.25
  0
LINE
  5
11D
330
116
100
AcDbEntity
  8
ボルト／ビス
  6
Continuous
100
AcDbLine
 10
-14.6116
 20
48.43144
 30
0.0
 11
-14.900275
 21
48.43144
 31
0.0
  0
LINE
  5
11E
330
116
100
AcDbEntity
  8
ボルト／ビス
  6
Continuous
100
AcDbLine
 10
-14.900275
 20
47.93144
 30
0.0
 11
-14.6116
 21
47.93144
 31
0.0
  0
ENDBLK
  5
11F
330
116
100
AcDbEntity
  8
0
100
AcDbBlockEnd
  0
BLOCK
  5
120
330
121
100
AcDbEntity
  8
0
100
AcDbBlockBegin
  2
*U18
 70
     1
 71
     0
 10
0.0
 20
0.0
 30
0.0
  3
*U18
  1

  0
INSERT
  5
122
330
121
100
AcDbEntity
  8
補助線
  6
Continuous
100
AcDbBlockReference
  2
*U40
 10
0.0
 20
0.0
 30
0.0
  0
LINE
  5
123
330
121
100
AcDbEntity
  8
ボルト／ビス
  6
Continuous
100
AcDbLine
 10
-14.467263
 20
63.18144
 30
0.0
 11
-14.6116
 21
62.93144
 31
0.0
  0
LINE
  5
124
330
121
100
AcDbEntity
  8
ボルト／ビス
  6
Continuous
100
AcDbLine
 10
-14.467263
 20
63.18144
 30
0.0
 11
-14.6116
 21
63.43144
 31
0.0
  0
LINE
  5
125
330
121
100
AcDbEntity
  8
ボルト／ビス
  6
Continuous
100
AcDbLine
 10
-14.900275
 20
62.93144
 30
0.0
 11
-15.044613
 21
63.18144
 31
0.0
  0
LINE
  5
126
330
121
100
AcDbEntity
  8
ボルト／ビス
  6
Continuous
100
AcDbLine
 10
-14.900275
 20
63.43144
 30
0.0
 11
-15.044613
 21
63.18144
 31
0.0
  0
CIRCLE
  5
127
330
121
100
AcDbEntity
  8
ボルト／ビス
  6
Continuous
100
AcDbCircle
 10
-14.755937
 20
63.18144
 30
0.0
 40
0.25
  0
LINE
  5
128
330
121
100
AcDbEntity
  8
ボルト／ビス
  6
Continuous
100
AcDbLine
 10
-14.6116
 20
63.43144
 30
0.0
 11
-14.900275
 21
63.43144
 31
0.0
  0
LINE
  5
129
330
121
100
AcDbEntity
  8
ボルト／ビス
  6
Continuous
100
AcDbLine
 10
-14.900275
 20
62.93144
 30
0.0
 11
-14.6116
 21
62.93144
 31
0.0
  0
ENDBLK
  5
12A
330
121
100
AcDbEntity
  8
0
100
AcDbBlockEnd
  0
BLOCK
  5
12B
330
12C
100
AcDbEntity
  8
0
100
AcDbBlockBegin
  2
*U19
 70
     1
 71
     0
 10
0.0
 20
0.0
 30
0.0
  3
*U19
  1

  0
INSERT
  5
12D
330
12C
100
AcDbEntity
  8
補助線
  6
Continuous
100
AcDbBlockReference
  2
*U41
 10
0.0
 20
0.0
 30
0.0
  0
LINE
  5
12E
330
12C
100
AcDbEntity
  8
ボルト／ビス
  6
Continuous
100
AcDbLine
 10
-14.467263
 20
33.18144
 30
0.0
 11
-14.6116
 21
33.43144
 31
0.0
  0
LINE
  5
12F
330
12C
100
AcDbEntity
  8
ボルト／ビス
  6
Continuous
100
AcDbLine
 10
-14.467263
 20
33.18144
 30
0.0
 11
-14.6116
 21
32.93144
 31
0.0
  0
LINE
  5
130
330
12C
100
AcDbEntity
  8
ボルト／ビス
  6
Continuous
100
AcDbLine
 10
-14.900275
 20
33.43144
 30
0.0
 11
-15.044613
 21
33.18144
 31
0.0
  0
LINE
  5
131
330
12C
100
AcDbEntity
  8
ボルト／ビス
  6
Continuous
100
AcDbLine
 10
-14.900275
 20
32.93144
 30
0.0
 11
-15.044613
 21
33.18144
 31
0.0
  0
CIRCLE
  5
132
330
12C
100
AcDbEntity
  8
ボルト／ビス
  6
Continuous
100
AcDbCircle
 10
-14.755937
 20
33.18144
 30
0.0
 40
0.25
  0
LINE
  5
133
330
12C
100
AcDbEntity
  8
ボルト／ビス
  6
Continuous
100
AcDbLine
 10
-14.6116
 20
32.93144
 30
0.0
 11
-14.900275
 21
32.93144
 31
0.0
  0
LINE
  5
134
330
12C
100
AcDbEntity
  8
ボルト／ビス
  6
Continuous
100
AcDbLine
 10
-14.900275
 20
33.43144
 30
0.0
 11
-14.6116
 21
33.43144
 31
0.0
  0
ENDBLK
  5
135
330
12C
100
AcDbEntity
  8
0
100
AcDbBlockEnd
  0
BLOCK
  5
136
330
137
100
AcDbEntity
  8
0
100
AcDbBlockBegin
  2
*U20
 70
     1
 71
     0
 10
0.0
 20
0.0
 30
0.0
  3
*U20
  1

  0
INSERT
  5
138
330
137
100
AcDbEntity
  8
補助線
  6
Continuous
100
AcDbBlockReference
  2
*U42
 10
0.0
 20
0.0
 30
0.0
  0
LINE
  5
139
330
137
100
AcDbEntity
  8
ボルト／ビス
  6
Continuous
100
AcDbLine
 10
-55.755937
 20
74.47011500000001
 30
0.0
 11
-55.505937
 21
74.325778
 31
0.0
  0
LINE
  5
13A
330
137
100
AcDbEntity
  8
ボルト／ビス
  6
Continuous
100
AcDbLine
 10
-55.755937
 20
74.47011500000001
 30
0.0
 11
-56.005937
 21
74.325778
 31
0.0
  0
LINE
  5
13B
330
137
100
AcDbEntity
  8
ボルト／ビス
  6
Continuous
100
AcDbLine
 10
-55.505937
 20
74.037103
 30
0.0
 11
-55.755937
 21
73.892765
 31
0.0
  0
LINE
  5
13C
330
137
100
AcDbEntity
  8
ボルト／ビス
  6
Continuous
100
AcDbLine
 10
-56.005937
 20
74.037103
 30
0.0
 11
-55.755937
 21
73.892765
 31
0.0
  0
CIRCLE
  5
13D
330
137
100
AcDbEntity
  8
ボルト／ビス
  6
Continuous
100
AcDbCircle
 10
-55.755937
 20
74.18144
 30
0.0
 40
0.25
  0
LINE
  5
13E
330
137
100
AcDbEntity
  8
ボルト／ビス
  6
Continuous
100
AcDbLine
 10
-56.005937
 20
74.325778
 30
0.0
 11
-56.005937
 21
74.037103
 31
0.0
  0
LINE
  5
13F
330
137
100
AcDbEntity
  8
ボルト／ビス
  6
Continuous
100
AcDbLine
 10
-55.505937
 20
74.037103
 30
0.0
 11
-55.505937
 21
74.325778
 31
0.0
  0
ENDBLK
  5
140
330
137
100
AcDbEntity
  8
0
100
AcDbBlockEnd
  0
BLOCK
  5
141
330
142
100
AcDbEntity
  8
0
100
AcDbBlockBegin
  2
*U21
 70
     1
 71
     0
 10
0.0
 20
0.0
 30
0.0
  3
*U21
  1

  0
LINE
  5
143
330
142
100
AcDbEntity
  8
寸法
  6
ByBlock
 62
     0
100
AcDbLine
 10
-95.755937
 20
-34.605008
 30
0.0
 11
-15.755937
 21
-34.605008
 31
0.0
  0
POINT
  5
144
330
142
100
AcDbEntity
  8
寸法
 62
     0
100
AcDbPoint
 10
-95.755937
 20
-34.605008
 30
0.0
  0
POINT
  5
145
330
142
100
AcDbEntity
  8
寸法
 62
     0
100
AcDbPoint
 10
-15.755937
 20
-34.605008
 30
0.0
  0
TEXT
  5
146
330
142
100
AcDbEntity
  8
寸法
  6
Continuous
 62
     0
100
AcDbText
 10
-67.49375000000001
 20
-34.25
 30
0.0
 40
3.0
  1
呼称寸法　1600
  7
TextStyle03
 72
     5
 11
-44.05625
 21
-34.25
 31
0.0
100
AcDbText
  0
ENDBLK
  5
147
330
142
100
AcDbEntity
  8
0
100
AcDbBlockEnd
  0
BLOCK
  5
148
330
149
100
AcDbEntity
  8
0
100
AcDbBlockBegin
  2
*U22
 70
     1
 71
     0
 10
0.0
 20
0.0
 30
0.0
  3
*U22
  1

  0
LINE
  5
14A
330
149
100
AcDbEntity
  8
寸法
  6
ByBlock
 62
     0
100
AcDbLine
 10
-54.755937
 20
-48.258815
 30
0.0
 11
6.907452
 21
-48.258815
 31
0.0
  0
LINE
  5
14B
330
149
100
AcDbEntity
  8
寸法
  6
ByBlock
 62
     0
100
AcDbLine
 10
6.907452
 20
-70.758815
 30
0.0
 11
6.907452
 21
-48.258815
 31
0.0
  0
POINT
  5
14C
330
149
100
AcDbEntity
  8
寸法
 62
     0
100
AcDbPoint
 10
6.907452
 20
-70.758815
 30
0.0
  0
POINT
  5
14D
330
149
100
AcDbEntity
  8
寸法
 62
     0
100
AcDbPoint
 10
6.907452
 20
-48.258815
 30
0.0
  0
TEXT
  5
14E
330
149
100
AcDbEntity
  8
寸法
  6
Continuous
 62
     0
100
AcDbText
 10
6.525
 20
-61.9625
 30
0.0
 40
3.0
  1
450
 50
90.0
  7
TextStyle03
 72
     5
 11
6.525
 21
-57.0875
 31
0.0
100
AcDbText
  0
ENDBLK
  5
14F
330
149
100
AcDbEntity
  8
0
100
AcDbBlockEnd
  0
BLOCK
  5
150
330
151
100
AcDbEntity
  8
0
100
AcDbBlockBegin
  2
*U23
 70
     1
 71
     0
 10
0.0
 20
0.0
 30
0.0
  3
*U23
  1

  0
LINE
  5
152
330
151
100
AcDbEntity
  8
補助線
  6
ByBlock
 62
     0
100
AcDbLine
 10
-55.880937
 20
-7.81856
 30
0.0
 11
-55.630937
 21
-7.81856
 31
0.0
  0
LINE
  5
153
330
151
100
AcDbEntity
  8
補助線
  6
ByBlock
 62
     0
100
AcDbLine
 10
-55.755937
 20
-7.94356
 30
0.0
 11
-55.755937
 21
-7.69356
 31
0.0
  0
ENDBLK
  5
154
330
151
100
AcDbEntity
  8
0
100
AcDbBlockEnd
  0
BLOCK
  5
155
330
156
100
AcDbEntity
  8
0
100
AcDbBlockBegin
  2
*U24
 70
     1
 71
     0
 10
0.0
 20
0.0
 30
0.0
  3
*U24
  1

  0
LINE
  5
157
330
156
100
AcDbEntity
  8
補助線
  6
ByBlock
 62
     0
100
AcDbLine
 10
-70.880937
 20
-7.81856
 30
0.0
 11
-70.630937
 21
-7.81856
 31
0.0
  0
LINE
  5
158
330
156
100
AcDbEntity
  8
補助線
  6
ByBlock
 62
     0
100
AcDbLine
 10
-70.755937
 20
-7.94356
 30
0.0
 11
-70.755937
 21
-7.69356
 31
0.0
  0
ENDBLK
  5
159
330
156
100
AcDbEntity
  8
0
100
AcDbBlockEnd
  0
BLOCK
  5
15A
330
15B
100
AcDbEntity
  8
0
100
AcDbBlockBegin
  2
*U25
 70
     1
 71
     0
 10
0.0
 20
0.0
 30
0.0
  3
*U25
  1

  0
LINE
  5
15C
330
15B
100
AcDbEntity
  8
補助線
  6
ByBlock
 62
     0
100
AcDbLine
 10
-85.880937
 20
-7.81856
 30
0.0
 11
-85.630937
 21
-7.81856
 31
0.0
  0
LINE
  5
15D
330
15B
100
AcDbEntity
  8
補助線
  6
ByBlock
 62
     0
100
AcDbLine
 10
-85.755937
 20
-7.94356
 30
0.0
 11
-85.755937
 21
-7.69356
 31
0.0
  0
ENDBLK
  5
15E
330
15B
100
AcDbEntity
  8
0
100
AcDbBlockEnd
  0
BLOCK
  5
15F
330
160
100
AcDbEntity
  8
0
100
AcDbBlockBegin
  2
*U26
 70
     1
 71
     0
 10
0.0
 20
0.0
 30
0.0
  3
*U26
  1

  0
LINE
  5
161
330
160
100
AcDbEntity
  8
補助線
  6
ByBlock
 62
     0
100
AcDbLine
 10
-96.755937
 20
33.05644
 30
0.0
 11
-96.755937
 21
33.30644
 31
0.0
  0
LINE
  5
162
330
160
100
AcDbEntity
  8
補助線
  6
ByBlock
 62
     0
100
AcDbLine
 10
-96.880937
 20
33.18144
 30
0.0
 11
-96.630937
 21
33.18144
 31
0.0
  0
ENDBLK
  5
163
330
160
100
AcDbEntity
  8
0
100
AcDbBlockEnd
  0
BLOCK
  5
164
330
165
100
AcDbEntity
  8
0
100
AcDbBlockBegin
  2
*U27
 70
     1
 71
     0
 10
0.0
 20
0.0
 30
0.0
  3
*U27
  1

  0
LINE
  5
166
330
165
100
AcDbEntity
  8
補助線
  6
ByBlock
 62
     0
100
AcDbLine
 10
-96.755937
 20
18.05644
 30
0.0
 11
-96.755937
 21
18.30644
 31
0.0
  0
LINE
  5
167
330
165
100
AcDbEntity
  8
補助線
  6
ByBlock
 62
     0
100
AcDbLine
 10
-96.880937
 20
18.18144
 30
0.0
 11
-96.630937
 21
18.18144
 31
0.0
  0
ENDBLK
  5
168
330
165
100
AcDbEntity
  8
0
100
AcDbBlockEnd
  0
BLOCK
  5
169
330
16A
100
AcDbEntity
  8
0
100
AcDbBlockBegin
  2
*U28
 70
     1
 71
     0
 10
0.0
 20
0.0
 30
0.0
  3
*U28
  1

  0
LINE
  5
16B
330
16A
100
AcDbEntity
  8
補助線
  6
ByBlock
 62
     0
100
AcDbLine
 10
-96.755937
 20
3.05644
 30
0.0
 11
-96.755937
 21
3.30644
 31
0.0
  0
LINE
  5
16C
330
16A
100
AcDbEntity
  8
補助線
  6
ByBlock
 62
     0
100
AcDbLine
 10
-96.880937
 20
3.18144
 30
0.0
 11
-96.630937
 21
3.18144
 31
0.0
  0
ENDBLK
  5
16D
330
16A
100
AcDbEntity
  8
0
100
AcDbBlockEnd
  0
BLOCK
  5
16E
330
16F
100
AcDbEntity
  8
0
100
AcDbBlockBegin
  2
*U29
 70
     1
 71
     0
 10
0.0
 20
0.0
 30
0.0
  3
*U29
  1

  0
LINE
  5
170
330
16F
100
AcDbEntity
  8
補助線
  6
ByBlock
 62
     0
100
AcDbLine
 10
-70.880937
 20
74.18144
 30
0.0
 11
-70.630937
 21
74.18144
 31
0.0
  0
LINE
  5
171
330
16F
100
AcDbEntity
  8
補助線
  6
ByBlock
 62
     0
100
AcDbLine
 10
-70.755937
 20
74.30644
 30
0.0
 11
-70.755937
 21
74.05644
 31
0.0
  0
ENDBLK
  5
172
330
16F
100
AcDbEntity
  8
0
100
AcDbBlockEnd
  0
BLOCK
  5
173
330
174
100
AcDbEntity
  8
0
100
AcDbBlockBegin
  2
*U30
 70
     1
 71
     0
 10
0.0
 20
0.0
 30
0.0
  3
*U30
  1

  0
LINE
  5
175
330
174
100
AcDbEntity
  8
補助線
  6
ByBlock
 62
     0
100
AcDbLine
 10
-85.880937
 20
74.18144
 30
0.0
 11
-85.630937
 21
74.18144
 31
0.0
  0
LINE
  5
176
330
174
100
AcDbEntity
  8
補助線
  6
ByBlock
 62
     0
100
AcDbLine
 10
-85.755937
 20
74.30644
 30
0.0
 11
-85.755937
 21
74.05644
 31
0.0
  0
ENDBLK
  5
177
330
174
100
AcDbEntity
  8
0
100
AcDbBlockEnd
  0
BLOCK
  5
178
330
179
100
AcDbEntity
  8
0
100
AcDbBlockBegin
  2
*U31
 70
     1
 71
     0
 10
0.0
 20
0.0
 30
0.0
  3
*U31
  1

  0
LINE
  5
17A
330
179
100
AcDbEntity
  8
補助線
  6
ByBlock
 62
     0
100
AcDbLine
 10
-96.755937
 20
48.30644
 30
0.0
 11
-96.755937
 21
48.05644
 31
0.0
  0
LINE
  5
17B
330
179
100
AcDbEntity
  8
補助線
  6
ByBlock
 62
     0
100
AcDbLine
 10
-96.880937
 20
48.18144
 30
0.0
 11
-96.630937
 21
48.18144
 31
0.0
  0
ENDBLK
  5
17C
330
179
100
AcDbEntity
  8
0
100
AcDbBlockEnd
  0
BLOCK
  5
17D
330
17E
100
AcDbEntity
  8
0
100
AcDbBlockBegin
  2
*U32
 70
     1
 71
     0
 10
0.0
 20
0.0
 30
0.0
  3
*U32
  1

  0
LINE
  5
17F
330
17E
100
AcDbEntity
  8
補助線
  6
ByBlock
 62
     0
100
AcDbLine
 10
-96.755937
 20
63.30644
 30
0.0
 11
-96.755937
 21
63.05644
 31
0.0
  0
LINE
  5
180
330
17E
100
AcDbEntity
  8
補助線
  6
ByBlock
 62
     0
100
AcDbLine
 10
-96.880937
 20
63.18144
 30
0.0
 11
-96.630937
 21
63.18144
 31
0.0
  0
ENDBLK
  5
181
330
17E
100
AcDbEntity
  8
0
100
AcDbBlockEnd
  0
BLOCK
  5
182
330
183
100
AcDbEntity
  8
0
100
AcDbBlockBegin
  2
*U33
 70
     1
 71
     0
 10
0.0
 20
0.0
 30
0.0
  3
*U33
  1

  0
LINE
  5
184
330
183
100
AcDbEntity
  8
補助線
  6
ByBlock
 62
     0
100
AcDbLine
 10
-40.630937
 20
-7.81856
 30
0.0
 11
-40.880937
 21
-7.81856
 31
0.0
  0
LINE
  5
185
330
183
100
AcDbEntity
  8
補助線
  6
ByBlock
 62
     0
100
AcDbLine
 10
-40.755937
 20
-7.94356
 30
0.0
 11
-40.755937
 21
-7.69356
 31
0.0
  0
ENDBLK
  5
186
330
183
100
AcDbEntity
  8
0
100
AcDbBlockEnd
  0
BLOCK
  5
187
330
188
100
AcDbEntity
  8
0
100
AcDbBlockBegin
  2
*U34
 70
     1
 71
     0
 10
0.0
 20
0.0
 30
0.0
  3
*U34
  1

  0
LINE
  5
189
330
188
100
AcDbEntity
  8
補助線
  6
ByBlock
 62
     0
100
AcDbLine
 10
-25.630937
 20
-7.81856
 30
0.0
 11
-25.880937
 21
-7.81856
 31
0.0
  0
LINE
  5
18A
330
188
100
AcDbEntity
  8
補助線
  6
ByBlock
 62
     0
100
AcDbLine
 10
-25.755937
 20
-7.94356
 30
0.0
 11
-25.755937
 21
-7.69356
 31
0.0
  0
ENDBLK
  5
18B
330
188
100
AcDbEntity
  8
0
100
AcDbBlockEnd
  0
BLOCK
  5
18C
330
18D
100
AcDbEntity
  8
0
100
AcDbBlockBegin
  2
*U35
 70
     1
 71
     0
 10
0.0
 20
0.0
 30
0.0
  3
*U35
  1

  0
LINE
  5
18E
330
18D
100
AcDbEntity
  8
補助線
  6
ByBlock
 62
     0
100
AcDbLine
 10
-14.755937
 20
18.05644
 30
0.0
 11
-14.755937
 21
18.30644
 31
0.0
  0
LINE
  5
18F
330
18D
100
AcDbEntity
  8
補助線
  6
ByBlock
 62
     0
100
AcDbLine
 10
-14.630937
 20
18.18144
 30
0.0
 11
-14.880937
 21
18.18144
 31
0.0
  0
ENDBLK
  5
190
330
18D
100
AcDbEntity
  8
0
100
AcDbBlockEnd
  0
BLOCK
  5
191
330
192
100
AcDbEntity
  8
0
100
AcDbBlockBegin
  2
*U36
 70
     1
 71
     0
 10
0.0
 20
0.0
 30
0.0
  3
*U36
  1

  0
LINE
  5
193
330
192
100
AcDbEntity
  8
補助線
  6
ByBlock
 62
     0
100
AcDbLine
 10
-14.755937
 20
3.05644
 30
0.0
 11
-14.755937
 21
3.30644
 31
0.0
  0
LINE
  5
194
330
192
100
AcDbEntity
  8
補助線
  6
ByBlock
 62
     0
100
AcDbLine
 10
-14.630937
 20
3.18144
 30
0.0
 11
-14.880937
 21
3.18144
 31
0.0
  0
ENDBLK
  5
195
330
192
100
AcDbEntity
  8
0
100
AcDbBlockEnd
  0
BLOCK
  5
196
330
197
100
AcDbEntity
  8
0
100
AcDbBlockBegin
  2
*U37
 70
     1
 71
     0
 10
0.0
 20
0.0
 30
0.0
  3
*U37
  1

  0
LINE
  5
198
330
197
100
AcDbEntity
  8
補助線
  6
ByBlock
 62
     0
100
AcDbLine
 10
-40.630937
 20
74.18144
 30
0.0
 11
-40.880937
 21
74.18144
 31
0.0
  0
LINE
  5
199
330
197
100
AcDbEntity
  8
補助線
  6
ByBlock
 62
     0
100
AcDbLine
 10
-40.755937
 20
74.30644
 30
0.0
 11
-40.755937
 21
74.05644
 31
0.0
  0
ENDBLK
  5
19A
330
197
100
AcDbEntity
  8
0
100
AcDbBlockEnd
  0
BLOCK
  5
19B
330
19C
100
AcDbEntity
  8
0
100
AcDbBlockBegin
  2
*U38
 70
     1
 71
     0
 10
0.0
 20
0.0
 30
0.0
  3
*U38
  1

  0
LINE
  5
19D
330
19C
100
AcDbEntity
  8
補助線
  6
ByBlock
 62
     0
100
AcDbLine
 10
-25.630937
 20
74.18144
 30
0.0
 11
-25.880937
 21
74.18144
 31
0.0
  0
LINE
  5
19E
330
19C
100
AcDbEntity
  8
補助線
  6
ByBlock
 62
     0
100
AcDbLine
 10
-25.755937
 20
74.30644
 30
0.0
 11
-25.755937
 21
74.05644
 31
0.0
  0
ENDBLK
  5
19F
330
19C
100
AcDbEntity
  8
0
100
AcDbBlockEnd
  0
BLOCK
  5
1A0
330
1A1
100
AcDbEntity
  8
0
100
AcDbBlockBegin
  2
*U39
 70
     1
 71
     0
 10
0.0
 20
0.0
 30
0.0
  3
*U39
  1

  0
LINE
  5
1A2
330
1A1
100
AcDbEntity
  8
補助線
  6
ByBlock
 62
     0
100
AcDbLine
 10
-14.755937
 20
48.30644
 30
0.0
 11
-14.755937
 21
48.05644
 31
0.0
  0
LINE
  5
1A3
330
1A1
100
AcDbEntity
  8
補助線
  6
ByBlock
 62
     0
100
AcDbLine
 10
-14.630937
 20
48.18144
 30
0.0
 11
-14.880937
 21
48.18144
 31
0.0
  0
ENDBLK
  5
1A4
330
1A1
100
AcDbEntity
  8
0
100
AcDbBlockEnd
  0
BLOCK
  5
1A5
330
1A6
100
AcDbEntity
  8
0
100
AcDbBlockBegin
  2
*U40
 70
     1
 71
     0
 10
0.0
 20
0.0
 30
0.0
  3
*U40
  1

  0
LINE
  5
1A7
330
1A6
100
AcDbEntity
  8
補助線
  6
ByBlock
 62
     0
100
AcDbLine
 10
-14.755937
 20
63.30644
 30
0.0
 11
-14.755937
 21
63.05644
 31
0.0
  0
LINE
  5
1A8
330
1A6
100
AcDbEntity
  8
補助線
  6
ByBlock
 62
     0
100
AcDbLine
 10
-14.630937
 20
63.18144
 30
0.0
 11
-14.880937
 21
63.18144
 31
0.0
  0
ENDBLK
  5
1A9
330
1A6
100
AcDbEntity
  8
0
100
AcDbBlockEnd
  0
BLOCK
  5
1AA
330
1AB
100
AcDbEntity
  8
0
100
AcDbBlockBegin
  2
*U41
 70
     1
 71
     0
 10
0.0
 20
0.0
 30
0.0
  3
*U41
  1

  0
LINE
  5
1AC
330
1AB
100
AcDbEntity
  8
補助線
  6
ByBlock
 62
     0
100
AcDbLine
 10
-14.755937
 20
33.05644
 30
0.0
 11
-14.755937
 21
33.30644
 31
0.0
  0
LINE
  5
1AD
330
1AB
100
AcDbEntity
  8
補助線
  6
ByBlock
 62
     0
100
AcDbLine
 10
-14.630937
 20
33.18144
 30
0.0
 11
-14.880937
 21
33.18144
 31
0.0
  0
ENDBLK
  5
1AE
330
1AB
100
AcDbEntity
  8
0
100
AcDbBlockEnd
  0
BLOCK
  5
1AF
330
1B0
100
AcDbEntity
  8
0
100
AcDbBlockBegin
  2
*U42
 70
     1
 71
     0
 10
0.0
 20
0.0
 30
0.0
  3
*U42
  1

  0
LINE
  5
1B1
330
1B0
100
AcDbEntity
  8
補助線
  6
ByBlock
 62
     0
100
AcDbLine
 10
-55.880937
 20
74.18144
 30
0.0
 11
-55.630937
 21
74.18144
 31
0.0
  0
LINE
  5
1B2
330
1B0
100
AcDbEntity
  8
補助線
  6
ByBlock
 62
     0
100
AcDbLine
 10
-55.755937
 20
74.30644
 30
0.0
 11
-55.755937
 21
74.05644
 31
0.0
  0
ENDBLK
  5
1B3
330
1B0
100
AcDbEntity
  8
0
100
AcDbBlockEnd
  0
BLOCK
  5
1B4
330
1B5
100
AcDbEntity
  8
0
100
AcDbBlockBegin
  2
*U43
 70
     1
 71
     0
 10
0.0
 20
0.0
 30
0.0
  3
*U43
  1

  0
LINE
  5
1B6
330
1B5
100
AcDbEntity
  8
寸法
  6
ByBlock
 62
     0
100
AcDbLine
 10
-120.350937
 20
50.68144
 30
0.0
 11
-131.174237
 21
50.68144
 31
0.0
  0
LINE
  5
1B7
330
1B5
100
AcDbEntity
  8
寸法
  6
ByBlock
 62
     0
100
AcDbLine
 10
-120.350937
 20
15.68144
 30
0.0
 11
-131.174237
 21
15.68144
 31
0.0
  0
LINE
  5
1B8
330
1B5
100
AcDbEntity
  8
寸法
  6
ByBlock
 62
     0
100
AcDbLine
 10
-131.174237
 20
50.68144
 30
0.0
 11
-131.174237
 21
15.68144
 31
0.0
  0
POINT
  5
1B9
330
1B5
100
AcDbEntity
  8
寸法
 62
     0
100
AcDbPoint
 10
-131.174237
 20
50.68144
 30
0.0
  0
POINT
  5
1BA
330
1B5
100
AcDbEntity
  8
寸法
 62
     0
100
AcDbPoint
 10
-131.174237
 20
15.68144
 30
0.0
  0
TEXT
  5
1BB
330
1B5
100
AcDbEntity
  8
寸法
  6
Continuous
 62
     0
100
AcDbText
 10
-131.5
 20
30.7375
 30
0.0
 40
3.0
  1
700
 50
90.0
  7
TextStyle03
 72
     5
 11
-131.5
 21
35.6125
 31
0.0
100
AcDbText
  0
ENDBLK
  5
1BC
330
1B5
100
AcDbEntity
  8
0
100
AcDbBlockEnd
  0
BLOCK
  5
1BD
330
1BE
100
AcDbEntity
  8
0
100
AcDbBlockBegin
  2
*U44
 70
     1
 71
     0
 10
0.0
 20
0.0
 30
0.0
  3
*U44
  1

  0
LINE
  5
1BF
330
1BE
100
AcDbEntity
  8
寸法
  6
ByBlock
 62
     0
100
AcDbLine
 10
-85.755937
 20
102.283265
 30
0.0
 11
-85.755937
 21
110.058775
 31
0.0
  0
LINE
  5
1C0
330
1BE
100
AcDbEntity
  8
寸法
  6
ByBlock
 62
     0
100
AcDbLine
 10
-55.755937
 20
102.283265
 30
0.0
 11
-55.755937
 21
110.058775
 31
0.0
  0
LINE
  5
1C1
330
1BE
100
AcDbEntity
  8
寸法
  6
ByBlock
 62
     0
100
AcDbLine
 10
-85.755937
 20
110.058775
 30
0.0
 11
-55.755937
 21
110.058775
 31
0.0
  0
POINT
  5
1C2
330
1BE
100
AcDbEntity
  8
寸法
 62
     0
100
AcDbPoint
 10
-85.755937
 20
110.058775
 30
0.0
  0
POINT
  5
1C3
330
1BE
100
AcDbEntity
  8
寸法
 62
     0
100
AcDbPoint
 10
-55.755937
 20
110.058775
 30
0.0
  0
TEXT
  5
1C4
330
1BE
100
AcDbEntity
  8
寸法
  6
Continuous
 62
     0
100
AcDbText
 10
-73.21250000000001
 20
110.425
 30
0.0
 40
3.0
  1
600
  7
TextStyle03
 72
     5
 11
-68.33750000000001
 21
110.425
 31
0.0
100
AcDbText
  0
ENDBLK
  5
1C5
330
1BE
100
AcDbEntity
  8
0
100
AcDbBlockEnd
  0
BLOCK
  5
1C6
330
1C7
100
AcDbEntity
  8
0
100
AcDbBlockBegin
  2
*U45
 70
     1
 71
     0
 10
0.0
 20
0.0
 30
0.0
  3
*U45
  1

  0
LINE
  5
1C8
330
1C7
100
AcDbEntity
  8
寸法
  6
ByBlock
 62
     0
100
AcDbLine
 10
-25.755937
 20
102.283265
 30
0.0
 11
-25.755937
 21
110.058775
 31
0.0
  0
LINE
  5
1C9
330
1C7
100
AcDbEntity
  8
寸法
  6
ByBlock
 62
     0
100
AcDbLine
 10
-55.755937
 20
110.058775
 30
0.0
 11
-25.755937
 21
110.058775
 31
0.0
  0
POINT
  5
1CA
330
1C7
100
AcDbEntity
  8
寸法
 62
     0
100
AcDbPoint
 10
-25.755937
 20
110.058775
 30
0.0
  0
TEXT
  5
1CB
330
1C7
100
AcDbEntity
  8
寸法
  6
Continuous
 62
     0
100
AcDbText
 10
-43.2125
 20
110.425
 30
0.0
 40
3.0
  1
600
  7
TextStyle03
 72
     5
 11
-38.3375
 21
110.425
 31
0.0
100
AcDbText
  0
ENDBLK
  5
1CC
330
1C7
100
AcDbEntity
  8
0
100
AcDbBlockEnd
  0
BLOCK
  5
1CD
330
1CE
100
AcDbEntity
  8
0
100
AcDbBlockBegin
  2
*U46
 70
     1
 71
     0
 10
0.0
 20
0.0
 30
0.0
  3
*U46
  1

  0
LINE
  5
1CF
330
1CE
100
AcDbEntity
  8
寸法
  6
ByBlock
 62
     0
100
AcDbLine
 10
-8.722073
 20
-70.758815
 30
0.0
 11
6.907452
 21
-70.758815
 31
0.0
  0
LINE
  5
1D0
330
1CE
100
AcDbEntity
  8
寸法
  6
ByBlock
 62
     0
100
AcDbLine
 10
-6.22207
 20
-76.509173
 30
0.0
 11
6.907452
 21
-76.509173
 31
0.0
  0
LINE
  5
1D1
330
1CE
100
AcDbEntity
  8
寸法
  6
ByBlock
 62
     0
100
AcDbLine
 10
6.907452
 20
-70.758815
 30
0.0
 11
6.907452
 21
-76.509173
 31
0.0
  0
POINT
  5
1D2
330
1CE
100
AcDbEntity
  8
寸法
 62
     0
100
AcDbPoint
 10
6.907452
 20
-70.758815
 30
0.0
  0
POINT
  5
1D3
330
1CE
100
AcDbEntity
  8
寸法
 62
     0
100
AcDbPoint
 10
6.907452
 20
-76.509173
 30
0.0
  0
TEXT
  5
1D4
330
1CE
100
AcDbEntity
  8
寸法
  6
Continuous
 62
     0
100
AcDbText
 10
6.475
 20
-76.0625
 30
0.0
 40
3.0
  1
115
 50
90.0
  7
TextStyle03
 72
     5
 11
6.475
 21
-71.1875
 31
0.0
100
AcDbText
  0
ENDBLK
  5
1D5
330
1CE
100
AcDbEntity
  8
0
100
AcDbBlockEnd
  0
BLOCK
  5
1D6
330
1D7
100
AcDbEntity
  8
0
100
AcDbBlockBegin
  2
*U47
 70
     1
 71
     0
 10
0.0
 20
0.0
 30
0.0
  3
*U47
  1

  0
LINE
  5
1D8
330
1D7
100
AcDbEntity
  8
寸法
  6
ByBlock
 62
     0
100
AcDbLine
 10
-100.50594
 20
-72.759173
 30
0.0
 11
-100.50594
 21
-34.605008
 31
0.0
  0
LINE
  5
1D9
330
1D7
100
AcDbEntity
  8
寸法
  6
ByBlock
 62
     0
100
AcDbLine
 10
-95.755937
 20
-34.605008
 30
0.0
 11
-100.50594
 21
-34.605008
 31
0.0
  0
POINT
  5
1DA
330
1D7
100
AcDbEntity
  8
寸法
 62
     0
100
AcDbPoint
 10
-95.755937
 20
-34.605008
 30
0.0
  0
POINT
  5
1DB
330
1D7
100
AcDbEntity
  8
寸法
 62
     0
100
AcDbPoint
 10
-100.50594
 20
-34.605008
 30
0.0
  0
TEXT
  5
1DC
330
1D7
100
AcDbEntity
  8
寸法
  6
Continuous
 62
     0
100
AcDbText
 10
-99.74375000000001
 20
-34.25
 30
0.0
 40
3.0
  1
95
  7
TextStyle03
 72
     5
 11
-96.55625000000001
 21
-34.25
 31
0.0
100
AcDbText
  0
ENDBLK
  5
1DD
330
1D7
100
AcDbEntity
  8
0
100
AcDbBlockEnd
  0
BLOCK
  5
1DE
330
1DF
100
AcDbEntity
  8
0
100
AcDbBlockBegin
  2
*U48
 70
     1
 71
     0
 10
0.0
 20
0.0
 30
0.0
  3
*U48
  1

  0
LINE
  5
1E0
330
1DF
100
AcDbEntity
  8
寸法
  6
ByBlock
 62
     0
100
AcDbLine
 10
-11.005935
 20
-72.759173
 30
0.0
 11
-11.005935
 21
-34.605008
 31
0.0
  0
LINE
  5
1E1
330
1DF
100
AcDbEntity
  8
寸法
  6
ByBlock
 62
     0
100
AcDbLine
 10
-15.755937
 20
-34.605008
 30
0.0
 11
-11.005935
 21
-34.605008
 31
0.0
  0
POINT
  5
1E2
330
1DF
100
AcDbEntity
  8
寸法
 62
     0
100
AcDbPoint
 10
-15.755937
 20
-34.605008
 30
0.0
  0
POINT
  5
1E3
330
1DF
100
AcDbEntity
  8
寸法
 62
     0
100
AcDbPoint
 10
-11.005935
 20
-34.605008
 30
0.0
  0
TEXT
  5
1E4
330
1DF
100
AcDbEntity
  8
寸法
  6
Continuous
 62
     0
100
AcDbText
 10
-14.99375
 20
-34.25
 30
0.0
 40
3.0
  1
95
  7
TextStyle03
 72
     5
 11
-11.80625
 21
-34.25
 31
0.0
100
AcDbText
  0
ENDBLK
  5
1E5
330
1DF
100
AcDbEntity
  8
0
100
AcDbBlockEnd
  0
BLOCK
  5
1E6
330
1E7
100
AcDbEntity
  8
0
100
AcDbBlockBegin
  2
*U49
 70
     1
 71
     0
 10
0.0
 20
0.0
 30
0.0
  3
*U49
  1

  0
LINE
  5
1E8
330
1E7
100
AcDbEntity
  8
寸法
  6
ByBlock
 62
     0
100
AcDbLine
 10
75.872727
 20
75.764635
 30
0.0
 11
75.872727
 21
83.939773
 31
0.0
  0
LINE
  5
1E9
330
1E7
100
AcDbEntity
  8
寸法
  6
ByBlock
 62
     0
100
AcDbLine
 10
155.372727
 20
75.764635
 30
0.0
 11
155.372727
 21
83.939773
 31
0.0
  0
LINE
  5
1EA
330
1E7
100
AcDbEntity
  8
寸法
  6
ByBlock
 62
     0
100
AcDbLine
 10
75.872727
 20
83.939773
 30
0.0
 11
155.372727
 21
83.939773
 31
0.0
  0
POINT
  5
1EB
330
1E7
100
AcDbEntity
  8
寸法
 62
     0
100
AcDbPoint
 10
75.872727
 20
83.939773
 30
0.0
  0
POINT
  5
1EC
330
1E7
100
AcDbEntity
  8
寸法
 62
     0
100
AcDbPoint
 10
155.372727
 20
83.939773
 30
0.0
  0
TEXT
  5
1ED
330
1E7
100
AcDbEntity
  8
寸法
  6
Continuous
 62
     0
100
AcDbText
 10
112.31875
 20
84.3
 30
0.0
 40
3.0
  1
1590
  7
TextStyle03
 72
     5
 11
118.88125
 21
84.3
 31
0.0
100
AcDbText
  0
ENDBLK
  5
1EE
330
1E7
100
AcDbEntity
  8
0
100
AcDbBlockEnd
  0
BLOCK
  5
1EF
330
1F0
100
AcDbEntity
  8
0
100
AcDbBlockBegin
  2
*U50
 70
     1
 71
     0
 10
0.0
 20
0.0
 30
0.0
  3
*U50
  1

  0
LINE
  5
1F1
330
1F0
100
AcDbEntity
  8
寸法
  6
ByBlock
 62
     0
100
AcDbLine
 10
72.872727
 20
72.764635
 30
0.0
 11
66.176515
 21
72.764635
 31
0.0
  0
LINE
  5
1F2
330
1F0
100
AcDbEntity
  8
寸法
  6
ByBlock
 62
     0
100
AcDbLine
 10
72.872727
 20
33.814635
 30
0.0
 11
66.176515
 21
33.814635
 31
0.0
  0
LINE
  5
1F3
330
1F0
100
AcDbEntity
  8
寸法
  6
ByBlock
 62
     0
100
AcDbLine
 10
66.176515
 20
72.764635
 30
0.0
 11
66.176515
 21
33.814635
 31
0.0
  0
POINT
  5
1F4
330
1F0
100
AcDbEntity
  8
寸法
 62
     0
100
AcDbPoint
 10
66.176515
 20
72.764635
 30
0.0
  0
POINT
  5
1F5
330
1F0
100
AcDbEntity
  8
寸法
 62
     0
100
AcDbPoint
 10
66.176515
 20
33.814635
 30
0.0
  0
TEXT
  5
1F6
330
1F0
100
AcDbEntity
  8
寸法
  6
Continuous
 62
     0
100
AcDbText
 10
65.8
 20
50.8375
 30
0.0
 40
3.0
  1
779
 50
90.0
  7
TextStyle03
 72
     5
 11
65.8
 21
55.7125
 31
0.0
100
AcDbText
  0
ENDBLK
  5
1F7
330
1F0
100
AcDbEntity
  8
0
100
AcDbBlockEnd
  0
BLOCK
  5
1F8
330
1F9
100
AcDbEntity
  8
0
100
AcDbBlockBegin
  2
*U51
 70
     1
 71
     0
 10
0.0
 20
0.0
 30
0.0
  3
*U51
  1

  0
LINE
  5
1FA
330
1F9
100
AcDbEntity
  8
ボルト／ビス
  6
Continuous
100
AcDbLine
 10
-96.755937
 20
-70.75881699999999
 30
0.0
 11
-96.755937
 21
-70.05881700000001
 31
0.0
  0
LINE
  5
1FB
330
1F9
100
AcDbEntity
  8
ボルト／ビス
  6
Continuous
100
AcDbLine
 10
-97.305937
 20
-70.75881699999999
 30
0.0
 11
-97.305937
 21
-70.658817
 31
0.0
  0
LINE
  5
1FC
330
1F9
100
AcDbEntity
  8
ボルト／ビス
  6
Continuous
100
AcDbLine
 10
-97.305937
 20
-70.658817
 30
0.0
 11
-96.20593700000001
 21
-70.658817
 31
0.0
  0
LINE
  5
1FD
330
1F9
100
AcDbEntity
  8
ボルト／ビス
  6
Continuous
100
AcDbLine
 10
-96.20593700000001
 20
-70.658817
 30
0.0
 11
-96.20593700000001
 21
-70.75881699999999
 31
0.0
  0
LINE
  5
1FE
330
1F9
100
AcDbEntity
  8
ボルト／ビス
  6
Continuous
100
AcDbLine
 10
-97.305937
 20
-70.75881699999999
 30
0.0
 11
-96.20593700000001
 21
-70.75881699999999
 31
0.0
  0
LINE
  5
1FF
330
1F9
100
AcDbEntity
  8
ボルト／ビス
  6
Continuous
100
AcDbLine
 10
-97.20593700000001
 20
-70.608817
 30
0.0
 11
-97.20593700000001
 21
-70.658817
 31
0.0
  0
LINE
  5
200
330
1F9
100
AcDbEntity
  8
ボルト／ビス
  6
Continuous
100
AcDbLine
 10
-97.20593700000001
 20
-70.608817
 30
0.0
 11
-96.305937
 21
-70.608817
 31
0.0
  0
LINE
  5
201
330
1F9
100
AcDbEntity
  8
ボルト／ビス
  6
Continuous
100
AcDbLine
 10
-96.305937
 20
-70.608817
 30
0.0
 11
-96.305937
 21
-70.658817
 31
0.0
  0
LINE
  5
202
330
1F9
100
AcDbEntity
  8
ボルト／ビス
  6
Continuous
 62
    64
100
AcDbLine
 10
-96.9965
 20
-70.30881700000001
 30
0.0
 11
-97.044613
 21
-70.32633
 31
0.0
  0
ARC
  5
203
330
1F9
100
AcDbEntity
  8
ボルト／ビス
  6
Continuous
 62
    64
100
AcDbCircle
 10
-96.972443
 20
-70.466285
 30
0.0
 40
0.157468
100
AcDbArc
 50
62.721967
 51
90.0
  0
ARC
  5
204
330
1F9
100
AcDbEntity
  8
ボルト／ビス
  6
Continuous
 62
    64
100
AcDbCircle
 10
-96.755937
 20
-70.912421
 30
0.0
 40
0.603603
100
AcDbArc
 50
76.165002
 51
103.834985
  0
LINE
  5
205
330
1F9
100
AcDbEntity
  8
ボルト／ビス
  6
Continuous
 62
    64
100
AcDbLine
 10
-96.51537500000001
 20
-70.30881700000001
 30
0.0
 11
-96.467263
 21
-70.32633
 31
0.0
  0
ARC
  5
206
330
1F9
100
AcDbEntity
  8
ボルト／ビス
  6
Continuous
 62
    64
100
AcDbCircle
 10
-96.53943
 20
-70.466285
 30
0.0
 40
0.157468
100
AcDbArc
 50
90.0
 51
117.278033
  0
LINE
  5
207
330
1F9
100
AcDbEntity
  8
ボルト／ビス
  6
Continuous
 62
    64
100
AcDbLine
 10
-96.9965
 20
-70.30881700000001
 30
0.0
 11
-96.51537500000001
 21
-70.30881700000001
 31
0.0
  0
LINE
  5
208
330
1F9
100
AcDbEntity
  8
ボルト／ビス
  6
Continuous
 62
    64
100
AcDbLine
 10
-96.467263
 20
-70.32633
 30
0.0
 11
-96.467263
 21
-70.50881699999999
 31
0.0
  0
LINE
  5
209
330
1F9
100
AcDbEntity
  8
ボルト／ビス
  6
Continuous
 62
    64
100
AcDbLine
 10
-96.6116
 20
-70.32633
 30
0.0
 11
-96.6116
 21
-70.50881699999999
 31
0.0
  0
LINE
  5
20A
330
1F9
100
AcDbEntity
  8
ボルト／ビス
  6
Continuous
 62
    64
100
AcDbLine
 10
-97.044613
 20
-70.32633
 30
0.0
 11
-97.044613
 21
-70.50881699999999
 31
0.0
  0
LINE
  5
20B
330
1F9
100
AcDbEntity
  8
ボルト／ビス
  6
Continuous
 62
    64
100
AcDbLine
 10
-96.90027499999999
 20
-70.32633
 30
0.0
 11
-96.90027499999999
 21
-70.50881699999999
 31
0.0
  0
LINE
  5
20C
330
1F9
100
AcDbEntity
  8
ボルト／ビス
  6
Continuous
100
AcDbLine
 10
-97.044613
 20
-70.50881699999999
 30
0.0
 11
-96.467263
 21
-70.50881699999999
 31
0.0
  0
LINE
  5
20D
330
1F9
100
AcDbEntity
  8
ボルト／ビス
  6
Continuous
100
AcDbLine
 10
-97.055937
 20
-70.50881699999999
 30
0.0
 11
-97.055937
 21
-70.608817
 31
0.0
  0
LINE
  5
20E
330
1F9
100
AcDbEntity
  8
ボルト／ビス
  6
Continuous
100
AcDbLine
 10
-97.055937
 20
-70.50881699999999
 30
0.0
 11
-96.45593700000001
 21
-70.50881699999999
 31
0.0
  0
LINE
  5
20F
330
1F9
100
AcDbEntity
  8
ボルト／ビス
  6
Continuous
100
AcDbLine
 10
-96.45593700000001
 20
-70.50881699999999
 30
0.0
 11
-96.45593700000001
 21
-70.608817
 31
0.0
  0
ENDBLK
  5
210
330
1F9
100
AcDbEntity
  8
0
100
AcDbBlockEnd
  0
BLOCK
  5
211
330
212
100
AcDbEntity
  8
0
100
AcDbBlockBegin
  2
*U52
 70
     1
 71
     0
 10
0.0
 20
0.0
 30
0.0
  3
*U52
  1

  0
LINE
  5
213
330
212
100
AcDbEntity
  8
ボルト／ビス
  6
Continuous
100
AcDbLine
 10
-14.755937
 20
-70.75881699999999
 30
0.0
 11
-14.755937
 21
-70.05881700000001
 31
0.0
  0
LINE
  5
214
330
212
100
AcDbEntity
  8
ボルト／ビス
  6
Continuous
100
AcDbLine
 10
-14.205937
 20
-70.75881699999999
 30
0.0
 11
-14.205937
 21
-70.658817
 31
0.0
  0
LINE
  5
215
330
212
100
AcDbEntity
  8
ボルト／ビス
  6
Continuous
100
AcDbLine
 10
-14.205937
 20
-70.658817
 30
0.0
 11
-15.305937
 21
-70.658817
 31
0.0
  0
LINE
  5
216
330
212
100
AcDbEntity
  8
ボルト／ビス
  6
Continuous
100
AcDbLine
 10
-15.305937
 20
-70.658817
 30
0.0
 11
-15.305937
 21
-70.75881699999999
 31
0.0
  0
LINE
  5
217
330
212
100
AcDbEntity
  8
ボルト／ビス
  6
Continuous
100
AcDbLine
 10
-14.205937
 20
-70.75881699999999
 30
0.0
 11
-15.305937
 21
-70.75881699999999
 31
0.0
  0
LINE
  5
218
330
212
100
AcDbEntity
  8
ボルト／ビス
  6
Continuous
100
AcDbLine
 10
-14.305937
 20
-70.608817
 30
0.0
 11
-14.305937
 21
-70.658817
 31
0.0
  0
LINE
  5
219
330
212
100
AcDbEntity
  8
ボルト／ビス
  6
Continuous
100
AcDbLine
 10
-14.305937
 20
-70.608817
 30
0.0
 11
-15.205937
 21
-70.608817
 31
0.0
  0
LINE
  5
21A
330
212
100
AcDbEntity
  8
ボルト／ビス
  6
Continuous
100
AcDbLine
 10
-15.205937
 20
-70.608817
 30
0.0
 11
-15.205937
 21
-70.658817
 31
0.0
  0
LINE
  5
21B
330
212
100
AcDbEntity
  8
ボルト／ビス
  6
Continuous
 62
    64
100
AcDbLine
 10
-14.515375
 20
-70.30881700000001
 30
0.0
 11
-14.467263
 21
-70.32633
 31
0.0
  0
ARC
  5
21C
330
212
100
AcDbEntity
  8
ボルト／ビス
  6
Continuous
 62
    64
100
AcDbCircle
 10
-14.539432
 20
-70.466285
 30
0.0
 40
0.157468
100
AcDbArc
 50
90.0
 51
117.278033
  0
ARC
  5
21D
330
212
100
AcDbEntity
  8
ボルト／ビス
  6
Continuous
 62
    64
100
AcDbCircle
 10
-14.755938
 20
-70.912421
 30
0.0
 40
0.603603
100
AcDbArc
 50
76.165015
 51
103.834998
  0
LINE
  5
21E
330
212
100
AcDbEntity
  8
ボルト／ビス
  6
Continuous
 62
    64
100
AcDbLine
 10
-14.9965
 20
-70.30881700000001
 30
0.0
 11
-15.044613
 21
-70.32633
 31
0.0
  0
ARC
  5
21F
330
212
100
AcDbEntity
  8
ボルト／ビス
  6
Continuous
 62
    64
100
AcDbCircle
 10
-14.972445
 20
-70.466285
 30
0.0
 40
0.157468
100
AcDbArc
 50
62.721967
 51
90.0
  0
LINE
  5
220
330
212
100
AcDbEntity
  8
ボルト／ビス
  6
Continuous
 62
    64
100
AcDbLine
 10
-14.515375
 20
-70.30881700000001
 30
0.0
 11
-14.9965
 21
-70.30881700000001
 31
0.0
  0
LINE
  5
221
330
212
100
AcDbEntity
  8
ボルト／ビス
  6
Continuous
 62
    64
100
AcDbLine
 10
-15.044613
 20
-70.32633
 30
0.0
 11
-15.044613
 21
-70.50881699999999
 31
0.0
  0
LINE
  5
222
330
212
100
AcDbEntity
  8
ボルト／ビス
  6
Continuous
 62
    64
100
AcDbLine
 10
-14.900275
 20
-70.32633
 30
0.0
 11
-14.900275
 21
-70.50881699999999
 31
0.0
  0
LINE
  5
223
330
212
100
AcDbEntity
  8
ボルト／ビス
  6
Continuous
 62
    64
100
AcDbLine
 10
-14.467263
 20
-70.32633
 30
0.0
 11
-14.467263
 21
-70.50881699999999
 31
0.0
  0
LINE
  5
224
330
212
100
AcDbEntity
  8
ボルト／ビス
  6
Continuous
 62
    64
100
AcDbLine
 10
-14.6116
 20
-70.32633
 30
0.0
 11
-14.6116
 21
-70.50881699999999
 31
0.0
  0
LINE
  5
225
330
212
100
AcDbEntity
  8
ボルト／ビス
  6
Continuous
100
AcDbLine
 10
-14.467263
 20
-70.50881699999999
 30
0.0
 11
-15.044613
 21
-70.50881699999999
 31
0.0
  0
LINE
  5
226
330
212
100
AcDbEntity
  8
ボルト／ビス
  6
Continuous
100
AcDbLine
 10
-14.455937
 20
-70.50881699999999
 30
0.0
 11
-14.455937
 21
-70.608817
 31
0.0
  0
LINE
  5
227
330
212
100
AcDbEntity
  8
ボルト／ビス
  6
Continuous
100
AcDbLine
 10
-14.455937
 20
-70.50881699999999
 30
0.0
 11
-15.055937
 21
-70.50881699999999
 31
0.0
  0
LINE
  5
228
330
212
100
AcDbEntity
  8
ボルト／ビス
  6
Continuous
100
AcDbLine
 10
-15.055937
 20
-70.50881699999999
 30
0.0
 11
-15.055937
 21
-70.608817
 31
0.0
  0
ENDBLK
  5
229
330
212
100
AcDbEntity
  8
0
100
AcDbBlockEnd
  0
ENDSEC
  0
SECTION
  2
ENTITIES
  0
LWPOLYLINE
  5
22A
330
1D
100
AcDbEntity
  8
通り芯
  6
Continuous
100
AcDbPolyline
 90
        4
 70
     1
 43
0.0
 10
-210.0
 20
-148.5
 10
210.0
 20
-148.5
 10
210.0
 20
148.5
 10
-210.0
 20
148.5
  0
INSERT
  5
230
330
1D
100
AcDbEntity
  8
型材断面
  6
Continuous
100
AcDbBlockReference
  2
*U0
 10
0.0
 20
0.0
 30
0.0
  0
LINE
  5
231
330
1D
100
AcDbEntity
  8
型材断面
  6
DASHDOT
100
AcDbLine
 10
-95.755937
 20
-6.81856
 30
0.0
 11
-15.755937
 21
-6.81856
 31
0.0
  0
LINE
  5
232
330
1D
100
AcDbEntity
  8
型材断面
  6
DASHDOT
100
AcDbLine
 10
-95.755937
 20
-86.27283
 30
0.0
 11
-95.755937
 21
73.18144
 31
0.0
  0
LINE
  5
233
330
1D
100
AcDbEntity
  8
型材断面
  6
DASHDOT
100
AcDbLine
 10
-55.755937
 20
-86.27283
 30
0.0
 11
-55.755937
 21
73.18144
 31
0.0
  0
LINE
  5
234
330
1D
100
AcDbEntity
  8
型材断面
  6
DASHDOT
100
AcDbLine
 10
-15.755937
 20
-86.27283
 30
0.0
 11
-15.755937
 21
73.18144
 31
0.0
  0
LINE
  5
235
330
1D
100
AcDbEntity
  8
型材断面
  6
DASHDOT
100
AcDbLine
 10
-95.755937
 20
33.18144
 30
0.0
 11
-15.755937
 21
33.18144
 31
0.0
  0
LINE
  5
236
330
1D
100
AcDbEntity
  8
型材断面
  6
DASHDOT
100
AcDbLine
 10
-95.755937
 20
73.18144
 30
0.0
 11
-15.755937
 21
73.18144
 31
0.0
  0
LINE
  5
237
330
1D
100
AcDbEntity
  8
型材断面
  6
Continuous
100
AcDbLine
 10
-55.755937
 20
-14.842437
 30
0.0
 11
-57.999382
 21
-18.728197
 31
0.0
  0
LINE
  5
238
330
1D
100
AcDbEntity
  8
型材断面
  6
Continuous
100
AcDbLine
 10
-55.755937
 20
-14.842437
 30
0.0
 11
-53.512493
 21
-18.728197
 31
0.0
  0
LINE
  5
239
330
1D
100
AcDbEntity
  8
型材断面
  6
Continuous
100
AcDbLine
 10
-53.512493
 20
-18.728197
 30
0.0
 11
-57.999382
 21
-18.728197
 31
0.0
  0
LINE
  5
23A
330
1D
100
AcDbEntity
  8
型材断面
  6
Continuous
100
AcDbLine
 10
-7.73206
 20
33.181443
 30
0.0
 11
-3.8463
 21
30.937997
 31
0.0
  0
LINE
  5
23B
330
1D
100
AcDbEntity
  8
型材断面
  6
Continuous
100
AcDbLine
 10
-7.73206
 20
33.181443
 30
0.0
 11
-3.8463
 21
35.424887
 31
0.0
  0
LINE
  5
23C
330
1D
100
AcDbEntity
  8
型材断面
  6
Continuous
100
AcDbLine
 10
-3.8463
 20
35.424887
 30
0.0
 11
-3.8463
 21
30.937997
 31
0.0
  0
LINE
  5
23D
330
1D
100
AcDbEntity
  8
型材断面
  6
Continuous
100
AcDbLine
 10
-103.779815
 20
33.181443
 30
0.0
 11
-107.665575
 21
30.937997
 31
0.0
  0
LINE
  5
23E
330
1D
100
AcDbEntity
  8
型材断面
  6
Continuous
100
AcDbLine
 10
-103.779815
 20
33.181443
 30
0.0
 11
-107.665575
 21
35.424887
 31
0.0
  0
LINE
  5
23F
330
1D
100
AcDbEntity
  8
型材断面
  6
Continuous
100
AcDbLine
 10
-107.665575
 20
35.424887
 30
0.0
 11
-107.665575
 21
30.937997
 31
0.0
  0
LINE
  5
240
330
1D
100
AcDbEntity
  8
型材断面
  6
Continuous
100
AcDbLine
 10
17.977383
 20
-12.60436
 30
0.0
 11
15.733937
 21
-16.49012
 31
0.0
  0
LINE
  5
241
330
1D
100
AcDbEntity
  8
型材断面
  6
Continuous
100
AcDbLine
 10
17.977383
 20
-12.60436
 30
0.0
 11
20.220828
 21
-16.49012
 31
0.0
  0
LINE
  5
242
330
1D
100
AcDbEntity
  8
型材断面
  6
Continuous
100
AcDbLine
 10
20.220828
 20
-16.49012
 30
0.0
 11
15.733937
 21
-16.49012
 31
0.0
  0
LINE
  5
243
330
1D
100
AcDbEntity
  8
型材断面
  6
Continuous
100
AcDbLine
 10
8.943503
 20
-17.898013
 30
0.0
 11
61.600182
 21
-17.898013
 31
0.0
  0
LINE
  5
244
330
1D
100
AcDbEntity
  8
型材断面
  6
Continuous
100
AcDbLine
 10
-55.755937
 20
81.20531699999999
 30
0.0
 11
-57.999382
 21
85.091078
 31
0.0
  0
LINE
  5
245
330
1D
100
AcDbEntity
  8
型材断面
  6
Continuous
100
AcDbLine
 10
-55.755937
 20
81.20531699999999
 30
0.0
 11
-53.512493
 21
85.091078
 31
0.0
  0
LINE
  5
246
330
1D
100
AcDbEntity
  8
型材断面
  6
Continuous
100
AcDbLine
 10
-53.512493
 20
85.091078
 30
0.0
 11
-57.999382
 21
85.091078
 31
0.0
  0
LINE
  5
247
330
1D
100
AcDbEntity
  8
型材断面
  6
Continuous
100
AcDbLine
 10
8.943503
 20
-26.07527
 30
0.0
 11
61.600182
 21
-26.07527
 31
0.0
  0
LINE
  5
248
330
1D
100
AcDbEntity
  8
型材断面
  6
Continuous
100
AcDbLine
 10
-11.005937
 20
77.93144
 30
0.0
 11
-12.655937
 21
76.28144
 31
0.0
  0
LINE
  5
249
330
1D
100
AcDbEntity
  8
型材断面
  6
Continuous
100
AcDbLine
 10
-11.005937
 20
77.93144
 30
0.0
 11
-55.755937
 21
77.93144
 31
0.0
  0
LINE
  5
24A
330
1D
100
AcDbEntity
  8
型材断面
  6
Continuous
100
AcDbLine
 10
-11.005937
 20
77.93144
 30
0.0
 11
-11.005937
 21
33.18144
 31
0.0
  0
LINE
  5
24B
330
1D
100
AcDbEntity
  8
型材断面
  6
Continuous
100
AcDbLine
 10
-11.005937
 20
-11.56856
 30
0.0
 11
-12.655937
 21
-9.918559999999999
 31
0.0
  0
LINE
  5
24C
330
1D
100
AcDbEntity
  8
型材断面
  6
Continuous
100
AcDbLine
 10
-11.005937
 20
-11.56856
 30
0.0
 11
-55.755937
 21
-11.56856
 31
0.0
  0
LINE
  5
24D
330
1D
100
AcDbEntity
  8
型材断面
  6
Continuous
100
AcDbLine
 10
-11.005937
 20
-11.56856
 30
0.0
 11
-11.005937
 21
33.18144
 31
0.0
  0
LINE
  5
24E
330
1D
100
AcDbEntity
  8
型材断面
  6
Continuous
100
AcDbLine
 10
-100.505937
 20
77.93144
 30
0.0
 11
-98.855937
 21
76.28144
 31
0.0
  0
LINE
  5
24F
330
1D
100
AcDbEntity
  8
型材断面
  6
Continuous
100
AcDbLine
 10
-100.505937
 20
77.93144
 30
0.0
 11
-55.755937
 21
77.93144
 31
0.0
  0
LINE
  5
250
330
1D
100
AcDbEntity
  8
型材断面
  6
Continuous
100
AcDbLine
 10
-100.505937
 20
77.93144
 30
0.0
 11
-100.505937
 21
33.18144
 31
0.0
  0
LINE
  5
251
330
1D
100
AcDbEntity
  8
型材断面
  6
Continuous
100
AcDbLine
 10
-100.505937
 20
-11.56856
 30
0.0
 11
-98.855937
 21
-9.918559999999999
 31
0.0
  0
LINE
  5
252
330
1D
100
AcDbEntity
  8
型材断面
  6
Continuous
100
AcDbLine
 10
-100.505937
 20
-11.56856
 30
0.0
 11
-55.755937
 21
-11.56856
 31
0.0
  0
LINE
  5
253
330
1D
100
AcDbEntity
  8
型材断面
  6
Continuous
100
AcDbLine
 10
-100.505937
 20
-11.56856
 30
0.0
 11
-100.505937
 21
33.18144
 31
0.0
  0
LINE
  5
254
330
1D
100
AcDbEntity
  8
型材断面
  6
Continuous
 62
    14
100
AcDbLine
 10
-100.50594
 20
-76.509173
 30
0.0
 11
-100.50594
 21
-75.759173
 31
0.0
  0
LINE
  5
255
330
1D
100
AcDbEntity
  8
型材断面
  6
Continuous
100
AcDbLine
 10
-97.75594
 20
-75.509173
 30
0.0
 11
-100.50594
 21
-75.759173
 31
0.0
  0
LINE
  5
256
330
1D
100
AcDbEntity
  8
型材断面
  6
Continuous
100
AcDbLine
 10
-100.50594
 20
-75.759173
 30
0.0
 11
-100.50594
 21
-76.509173
 31
0.0
  0
LINE
  5
257
330
1D
100
AcDbEntity
  8
型材断面
  6
Continuous
100
AcDbLine
 10
-99.25594
 20
-76.509173
 30
0.0
 11
-99.25594
 21
-77.009173
 31
0.0
  0
LINE
  5
258
330
1D
100
AcDbEntity
  8
型材断面
  6
Continuous
 62
    14
100
AcDbLine
 10
-11.005935
 20
-76.509173
 30
0.0
 11
-11.005935
 21
-75.759173
 31
0.0
  0
LINE
  5
259
330
1D
100
AcDbEntity
  8
型材断面
  6
Continuous
100
AcDbLine
 10
-97.75594
 20
-75.509173
 30
0.0
 11
-13.755935
 21
-75.509173
 31
0.0
  0
LINE
  5
25A
330
1D
100
AcDbEntity
  8
型材断面
  6
Continuous
100
AcDbLine
 10
-100.50594
 20
-75.759173
 30
0.0
 11
-11.005935
 21
-75.759173
 31
0.0
  0
LINE
  5
25B
330
1D
100
AcDbEntity
  8
型材断面
  6
Continuous
100
AcDbLine
 10
-13.755935
 20
-75.509173
 30
0.0
 11
-11.005935
 21
-75.759173
 31
0.0
  0
LINE
  5
25C
330
1D
100
AcDbEntity
  8
型材断面
  6
Continuous
100
AcDbLine
 10
-11.005935
 20
-75.759173
 30
0.0
 11
-11.005935
 21
-76.509173
 31
0.0
  0
LINE
  5
25D
330
1D
100
AcDbEntity
  8
型材断面
  6
Continuous
100
AcDbLine
 10
-12.255935
 20
-76.509173
 30
0.0
 11
-12.255935
 21
-77.009173
 31
0.0
  0
LINE
  5
25E
330
1D
100
AcDbEntity
  8
型材断面
  6
Continuous
100
AcDbLine
 10
-100.50594
 20
-76.509173
 30
0.0
 11
-11.005935
 21
-76.509173
 31
0.0
  0
LINE
  5
25F
330
1D
100
AcDbEntity
  8
型材断面
  6
Continuous
100
AcDbLine
 10
-99.25594
 20
-77.00917
 30
0.0
 11
-12.255935
 21
-77.00917
 31
0.0
  0
LINE
  5
260
330
1D
100
AcDbEntity
  8
型材断面
  6
DOT
100
AcDbLine
 10
-53.880937
 20
73.18144
 30
0.0
 11
-53.880937
 21
-6.81856
 31
0.0
  0
LINE
  5
261
330
1D
100
AcDbEntity
  8
型材断面
  6
DOT
100
AcDbLine
 10
-57.630937
 20
73.18144
 30
0.0
 11
-57.630937
 21
-6.81856
 31
0.0
  0
LWPOLYLINE
  5
262
330
1D
100
AcDbEntity
  8
型材断面
  6
Continuous
100
AcDbPolyline
 90
        3
 70
     0
 43
0.0
 10
-97.55594000000001
 20
-72.258815
 10
-97.55594000000001
 20
-72.78417
 10
-97.75594
 20
-72.98417000000001
  0
LINE
  5
267
330
1D
100
AcDbEntity
  8
型材断面
  6
Continuous
100
AcDbLine
 10
-97.75594
 20
-75.509173
 30
0.0
 11
-97.75594
 21
-72.98417000000001
 31
0.0
  0
LWPOLYLINE
  5
268
330
1D
100
AcDbEntity
  8
型材断面
  6
Continuous
100
AcDbPolyline
 90
        3
 70
     0
 43
0.0
 10
-13.955935
 20
-72.258815
 10
-13.955935
 20
-72.78417
 10
-13.755935
 20
-72.98417000000001
  0
LINE
  5
26D
330
1D
100
AcDbEntity
  8
型材断面
  6
Continuous
100
AcDbLine
 10
-97.75594
 20
-72.98417000000001
 30
0.0
 11
-13.755935
 21
-72.98417000000001
 31
0.0
  0
LINE
  5
26E
330
1D
100
AcDbEntity
  8
型材断面
  6
Continuous
100
AcDbLine
 10
-97.55594000000001
 20
-72.78417
 30
0.0
 11
-13.955935
 21
-72.78417
 31
0.0
  0
LINE
  5
26F
330
1D
100
AcDbEntity
  8
型材断面
  6
Continuous
100
AcDbLine
 10
-13.755935
 20
-75.509173
 30
0.0
 11
-13.755935
 21
-72.98417000000001
 31
0.0
  0
LINE
  5
270
330
1D
100
AcDbEntity
  8
ガラス
  6
Continuous
100
AcDbLine
 10
75.872727
 20
33.814635
 30
0.0
 11
155.372727
 21
33.814635
 31
0.0
  0
LINE
  5
271
330
1D
100
AcDbEntity
  8
ガラス
  6
Continuous
100
AcDbLine
 10
155.372727
 20
33.814635
 30
0.0
 11
155.372727
 21
72.764635
 31
0.0
  0
LINE
  5
272
330
1D
100
AcDbEntity
  8
ガラス
  6
Continuous
100
AcDbLine
 10
75.872727
 20
33.814635
 30
0.0
 11
75.872727
 21
72.764635
 31
0.0
  0
LINE
  5
273
330
1D
100
AcDbEntity
  8
ガラス
  6
Continuous
100
AcDbLine
 10
155.372727
 20
72.764635
 30
0.0
 11
75.872727
 21
72.764635
 31
0.0
  0
CIRCLE
  5
274
330
1D
100
AcDbEntity
  8
ボルト／ビス
  6
Continuous
100
AcDbCircle
 10
-55.755937
 20
-7.81856
 30
0.0
 40
0.288675
  0
CIRCLE
  5
275
330
1D
100
AcDbEntity
  8
ボルト／ビス
  6
Continuous
100
AcDbCircle
 10
-55.755937
 20
-7.81856
 30
0.0
 40
0.455885
  0
CIRCLE
  5
276
330
1D
100
AcDbEntity
  8
ボルト／ビス
  6
Continuous
100
AcDbCircle
 10
-70.755937
 20
-7.81856
 30
0.0
 40
0.288675
  0
CIRCLE
  5
277
330
1D
100
AcDbEntity
  8
ボルト／ビス
  6
Continuous
100
AcDbCircle
 10
-70.755937
 20
-7.81856
 30
0.0
 40
0.455885
  0
CIRCLE
  5
278
330
1D
100
AcDbEntity
  8
ボルト／ビス
  6
Continuous
100
AcDbCircle
 10
-85.755937
 20
-7.81856
 30
0.0
 40
0.288675
  0
CIRCLE
  5
279
330
1D
100
AcDbEntity
  8
ボルト／ビス
  6
Continuous
100
AcDbCircle
 10
-85.755937
 20
-7.81856
 30
0.0
 40
0.455885
  0
CIRCLE
  5
27A
330
1D
100
AcDbEntity
  8
ボルト／ビス
  6
Continuous
100
AcDbCircle
 10
-96.755937
 20
33.18144
 30
0.0
 40
0.288675
  0
CIRCLE
  5
27B
330
1D
100
AcDbEntity
  8
ボルト／ビス
  6
Continuous
100
AcDbCircle
 10
-96.755937
 20
33.18144
 30
0.0
 40
0.455885
  0
CIRCLE
  5
27C
330
1D
100
AcDbEntity
  8
ボルト／ビス
  6
Continuous
100
AcDbCircle
 10
-96.755937
 20
18.18144
 30
0.0
 40
0.288675
  0
CIRCLE
  5
27D
330
1D
100
AcDbEntity
  8
ボルト／ビス
  6
Continuous
100
AcDbCircle
 10
-96.755937
 20
18.18144
 30
0.0
 40
0.455885
  0
CIRCLE
  5
27E
330
1D
100
AcDbEntity
  8
ボルト／ビス
  6
Continuous
100
AcDbCircle
 10
-96.755937
 20
3.18144
 30
0.0
 40
0.288675
  0
CIRCLE
  5
27F
330
1D
100
AcDbEntity
  8
ボルト／ビス
  6
Continuous
100
AcDbCircle
 10
-96.755937
 20
3.18144
 30
0.0
 40
0.455885
  0
CIRCLE
  5
280
330
1D
100
AcDbEntity
  8
ボルト／ビス
  6
Continuous
100
AcDbCircle
 10
-70.755937
 20
74.18144
 30
0.0
 40
0.288675
  0
CIRCLE
  5
281
330
1D
100
AcDbEntity
  8
ボルト／ビス
  6
Continuous
100
AcDbCircle
 10
-70.755937
 20
74.18144
 30
0.0
 40
0.455885
  0
CIRCLE
  5
282
330
1D
100
AcDbEntity
  8
ボルト／ビス
  6
Continuous
100
AcDbCircle
 10
-85.755937
 20
74.18144
 30
0.0
 40
0.288675
  0
CIRCLE
  5
283
330
1D
100
AcDbEntity
  8
ボルト／ビス
  6
Continuous
100
AcDbCircle
 10
-85.755937
 20
74.18144
 30
0.0
 40
0.455885
  0
CIRCLE
  5
284
330
1D
100
AcDbEntity
  8
ボルト／ビス
  6
Continuous
100
AcDbCircle
 10
-96.755937
 20
48.18144
 30
0.0
 40
0.288675
  0
CIRCLE
  5
285
330
1D
100
AcDbEntity
  8
ボルト／ビス
  6
Continuous
100
AcDbCircle
 10
-96.755937
 20
48.18144
 30
0.0
 40
0.455885
  0
CIRCLE
  5
286
330
1D
100
AcDbEntity
  8
ボルト／ビス
  6
Continuous
100
AcDbCircle
 10
-96.755937
 20
63.18144
 30
0.0
 40
0.288675
  0
CIRCLE
  5
287
330
1D
100
AcDbEntity
  8
ボルト／ビス
  6
Continuous
100
AcDbCircle
 10
-96.755937
 20
63.18144
 30
0.0
 40
0.455885
  0
CIRCLE
  5
288
330
1D
100
AcDbEntity
  8
ボルト／ビス
  6
Continuous
100
AcDbCircle
 10
-40.755937
 20
-7.81856
 30
0.0
 40
0.288675
  0
CIRCLE
  5
289
330
1D
100
AcDbEntity
  8
ボルト／ビス
  6
Continuous
100
AcDbCircle
 10
-40.755937
 20
-7.81856
 30
0.0
 40
0.455885
  0
CIRCLE
  5
28A
330
1D
100
AcDbEntity
  8
ボルト／ビス
  6
Continuous
100
AcDbCircle
 10
-25.755937
 20
-7.81856
 30
0.0
 40
0.288675
  0
CIRCLE
  5
28B
330
1D
100
AcDbEntity
  8
ボルト／ビス
  6
Continuous
100
AcDbCircle
 10
-25.755937
 20
-7.81856
 30
0.0
 40
0.455885
  0
CIRCLE
  5
28C
330
1D
100
AcDbEntity
  8
ボルト／ビス
  6
Continuous
100
AcDbCircle
 10
-14.755937
 20
18.18144
 30
0.0
 40
0.288675
  0
CIRCLE
  5
28D
330
1D
100
AcDbEntity
  8
ボルト／ビス
  6
Continuous
100
AcDbCircle
 10
-14.755937
 20
18.18144
 30
0.0
 40
0.455885
  0
CIRCLE
  5
28E
330
1D
100
AcDbEntity
  8
ボルト／ビス
  6
Continuous
100
AcDbCircle
 10
-14.755937
 20
3.18144
 30
0.0
 40
0.288675
  0
CIRCLE
  5
28F
330
1D
100
AcDbEntity
  8
ボルト／ビス
  6
Continuous
100
AcDbCircle
 10
-14.755937
 20
3.18144
 30
0.0
 40
0.455885
  0
CIRCLE
  5
290
330
1D
100
AcDbEntity
  8
ボルト／ビス
  6
Continuous
100
AcDbCircle
 10
-40.755937
 20
74.18144
 30
0.0
 40
0.288675
  0
CIRCLE
  5
291
330
1D
100
AcDbEntity
  8
ボルト／ビス
  6
Continuous
100
AcDbCircle
 10
-40.755937
 20
74.18144
 30
0.0
 40
0.455885
  0
CIRCLE
  5
292
330
1D
100
AcDbEntity
  8
ボルト／ビス
  6
Continuous
100
AcDbCircle
 10
-25.755937
 20
74.18144
 30
0.0
 40
0.288675
  0
CIRCLE
  5
293
330
1D
100
AcDbEntity
  8
ボルト／ビス
  6
Continuous
100
AcDbCircle
 10
-25.755937
 20
74.18144
 30
0.0
 40
0.455885
  0
CIRCLE
  5
294
330
1D
100
AcDbEntity
  8
ボルト／ビス
  6
Continuous
100
AcDbCircle
 10
-14.755937
 20
48.18144
 30
0.0
 40
0.288675
  0
CIRCLE
  5
295
330
1D
100
AcDbEntity
  8
ボルト／ビス
  6
Continuous
100
AcDbCircle
 10
-14.755937
 20
48.18144
 30
0.0
 40
0.455885
  0
CIRCLE
  5
296
330
1D
100
AcDbEntity
  8
ボルト／ビス
  6
Continuous
100
AcDbCircle
 10
-14.755937
 20
63.18144
 30
0.0
 40
0.288675
  0
CIRCLE
  5
297
330
1D
100
AcDbEntity
  8
ボルト／ビス
  6
Continuous
100
AcDbCircle
 10
-14.755937
 20
63.18144
 30
0.0
 40
0.455885
  0
CIRCLE
  5
298
330
1D
100
AcDbEntity
  8
ボルト／ビス
  6
Continuous
100
AcDbCircle
 10
-14.755937
 20
33.18144
 30
0.0
 40
0.288675
  0
CIRCLE
  5
299
330
1D
100
AcDbEntity
  8
ボルト／ビス
  6
Continuous
100
AcDbCircle
 10
-14.755937
 20
33.18144
 30
0.0
 40
0.455885
  0
CIRCLE
  5
29A
330
1D
100
AcDbEntity
  8
ボルト／ビス
  6
Continuous
100
AcDbCircle
 10
-55.755937
 20
74.18144
 30
0.0
 40
0.288675
  0
CIRCLE
  5
29B
330
1D
100
AcDbEntity
  8
ボルト／ビス
  6
Continuous
100
AcDbCircle
 10
-55.755937
 20
74.18144
 30
0.0
 40
0.455885
  0
INSERT
  5
29C
330
1D
100
AcDbEntity
  8
文字
  6
Continuous
100
AcDbBlockReference
  2
*U1
 10
0.0
 20
0.0
 30
0.0
  0
INSERT
  5
29D
330
1D
100
AcDbEntity
  8
文字
  6
Continuous
100
AcDbBlockReference
  2
*U2
 10
0.0
 20
0.0
 30
0.0
  0
INSERT
  5
29E
330
1D
100
AcDbEntity
  8
文字
  6
Continuous
100
AcDbBlockReference
  2
*U3
 10
0.0
 20
0.0
 30
0.0
  0
INSERT
  5
29F
330
1D
100
AcDbEntity
  8
文字
  6
Continuous
100
AcDbBlockReference
  2
*U4
 10
0.0
 20
0.0
 30
0.0
  0
INSERT
  5
2A0
330
1D
100
AcDbEntity
  8
文字
  6
Continuous
100
AcDbBlockReference
  2
*U5
 10
0.0
 20
0.0
 30
0.0
  0
INSERT
  5
2A1
330
1D
100
AcDbEntity
  8
文字
  6
Continuous
100
AcDbBlockReference
  2
*U6
 10
0.0
 20
0.0
 30
0.0
  0
INSERT
  5
2A2
330
1D
100
AcDbEntity
  8
文字
  6
Continuous
100
AcDbBlockReference
  2
*U7
 10
0.0
 20
0.0
 30
0.0
  0
INSERT
  5
2A3
330
1D
100
AcDbEntity
  8
文字
  6
Continuous
100
AcDbBlockReference
  2
*U8
 10
0.0
 20
0.0
 30
0.0
  0
INSERT
  5
2A4
330
1D
100
AcDbEntity
  8
文字
  6
Continuous
100
AcDbBlockReference
  2
*U9
 10
0.0
 20
0.0
 30
0.0
  0
INSERT
  5
2A5
330
1D
100
AcDbEntity
  8
文字
  6
Continuous
100
AcDbBlockReference
  2
*U10
 10
0.0
 20
0.0
 30
0.0
  0
INSERT
  5
2A6
330
1D
100
AcDbEntity
  8
文字
  6
Continuous
100
AcDbBlockReference
  2
*U11
 10
0.0
 20
0.0
 30
0.0
  0
INSERT
  5
2A7
330
1D
100
AcDbEntity
  8
文字
  6
Continuous
100
AcDbBlockReference
  2
*U12
 10
0.0
 20
0.0
 30
0.0
  0
INSERT
  5
2A8
330
1D
100
AcDbEntity
  8
文字
  6
Continuous
100
AcDbBlockReference
  2
*U13
 10
0.0
 20
0.0
 30
0.0
  0
INSERT
  5
2A9
330
1D
100
AcDbEntity
  8
文字
  6
Continuous
100
AcDbBlockReference
  2
*U14
 10
0.0
 20
0.0
 30
0.0
  0
INSERT
  5
2AA
330
1D
100
AcDbEntity
  8
文字
  6
Continuous
100
AcDbBlockReference
  2
*U15
 10
0.0
 20
0.0
 30
0.0
  0
INSERT
  5
2AB
330
1D
100
AcDbEntity
  8
文字
  6
Continuous
100
AcDbBlockReference
  2
*U16
 10
0.0
 20
0.0
 30
0.0
  0
INSERT
  5
2AC
330
1D
100
AcDbEntity
  8
文字
  6
Continuous
100
AcDbBlockReference
  2
*U17
 10
0.0
 20
0.0
 30
0.0
  0
INSERT
  5
2AD
330
1D
100
AcDbEntity
  8
文字
  6
Continuous
100
AcDbBlockReference
  2
*U18
 10
0.0
 20
0.0
 30
0.0
  0
INSERT
  5
2AE
330
1D
100
AcDbEntity
  8
文字
  6
Continuous
100
AcDbBlockReference
  2
*U19
 10
0.0
 20
0.0
 30
0.0
  0
INSERT
  5
2AF
330
1D
100
AcDbEntity
  8
文字
  6
Continuous
100
AcDbBlockReference
  2
*U20
 10
0.0
 20
0.0
 30
0.0
  0
TEXT
  5
2B0
330
1D
100
AcDbEntity
  8
文字
  6
Continuous
100
AcDbText
 10
22.25
 20
-16.15
 30
0.0
 40
3.0
  1
は排水穴位置を示す
  7
TextStyle03
 72
     5
 11
52.25
 21
-16.15
 31
0.0
100
AcDbText
  0
TEXT
  5
2B1
330
1D
100
AcDbEntity
  8
文字
  6
Continuous
100
AcDbText
 10
87.77500000000001
 20
98.575
 30
0.0
 40
5.0
  1
ＮＳコード：ＮＳＫ
  7
TextStyle03
 72
     5
 11
137.775
 21
98.575
 31
0.0
100
AcDbText
  0
TEXT
  5
2B2
330
1D
100
AcDbEntity
  8
文字
  6
Continuous
100
AcDbText
 10
141.45
 20
37.5
 30
0.0
 40
3.0
  1
×２枚
  7
TextStyle03
 72
     5
 11
151.2
 21
37.5
 31
0.0
100
AcDbText
  0
TEXT
  5
2B3
330
1D
100
AcDbEntity
  8
文字
  6
Continuous
100
AcDbText
 10
134.3
 20
41.525
 30
0.0
 40
3.0
  1
網入り6.8t
  7
TextStyle03
 72
     5
 11
150.9875
 21
41.525
 31
0.0
100
AcDbText
  0
TEXT
  5
2B4
330
1D
100
AcDbEntity
  8
文字
  6
Continuous
100
AcDbText
 10
-116.0
 20
106.125
 30
0.0
 40
3.0
  1
アンカーピッチ
  7
TextStyle03
 72
     5
 11
-92.75
 21
106.125
 31
0.0
100
AcDbText
  0
TEXT
  5
2B5
330
1D
100
AcDbEntity
  8
文字
  6
Continuous
100
AcDbText
 10
-128.0
 20
-9.9
 30
0.0
 40
3.0
  1
アンカーピッチ
 50
90.0
  7
TextStyle03
 72
     5
 11
-128.0
 21
13.35
 31
0.0
100
AcDbText
  0
TEXT
  5
2B6
330
1D
100
AcDbEntity
  8
文字
  6
Continuous
100
AcDbText
 10
16.65
 20
-24.675
 30
0.0
 40
3.0
  1
アンカー数量　１０ヶ所
  7
TextStyle03
 72
     5
 11
53.4
 21
-24.675
 31
0.0
100
AcDbText
  0
TEXT
  5
2B7
330
1D
100
AcDbEntity
  8
文字
  6
Continuous
100
AcDbText
 10
88.625
 20
120.7
 30
0.0
 40
5.0
  1
シリーズ：ＴＤ１Ｋ
  7
TextStyle03
 72
     5
 11
138.625
 21
120.7
 31
0.0
100
AcDbText
  0
TEXT
  5
2B8
330
1D
100
AcDbEntity
  8
文字
  6
Continuous
100
AcDbText
 10
88.625
 20
115.075
 30
0.0
 40
5.0
  1
　　　　　（固定）1600×1600タイプ
  7
TextStyle03
 72
     5
 11
183.625
 21
115.075
 31
0.0
100
AcDbText
  0
TEXT
  5
2B9
330
1D
100
AcDbEntity
  8
文字
  6
Continuous
100
AcDbText
 10
88.625
 20
109.45
 30
0.0
 40
5.0
  1
図面名　：外観姿図
  7
TextStyle03
 72
     5
 11
138.625
 21
109.45
 31
0.0
100
AcDbText
  0
TEXT
  5
2BA
330
1D
100
AcDbEntity
  8
文字
  6
Continuous
100
AcDbText
 10
88.625
 20
103.825
 30
0.0
 40
5.0
  1
　　　　　　
  7
TextStyle03
 72
     5
 11
121.75
 21
103.825
 31
0.0
100
AcDbText
  0
TEXT
  5
2BB
330
1D
100
AcDbEntity
  8
文字
  6
Continuous
100
AcDbText
 10
-58.1
 20
13.475
 30
0.0
 40
3.0
  1
中桟
 50
90.0
  7
TextStyle03
 72
     5
 11
-58.1
 21
19.85
 31
0.0
100
AcDbText
  0
INSERT
  5
2BC
330
1D
100
AcDbEntity
  8
寸法
  6
Continuous
100
AcDbBlockReference
  2
*U21
 10
0.0
 20
0.0
 30
0.0
  0
INSERT
  5
2BD
330
1D
100
AcDbEntity
  8
寸法
  6
Continuous
100
AcDbBlockReference
  2
*U22
 10
0.0
 20
0.0
 30
0.0
  0
INSERT
  5
2BE
330
1D
100
AcDbEntity
  8
寸法
  6
Continuous
100
AcDbBlockReference
  2
*U43
 10
0.0
 20
0.0
 30
0.0
  0
INSERT
  5
2BF
330
1D
100
AcDbEntity
  8
寸法
  6
Continuous
100
AcDbBlockReference
  2
*U44
 10
0.0
 20
0.0
 30
0.0
  0
INSERT
  5
2C0
330
1D
100
AcDbEntity
  8
寸法
  6
Continuous
100
AcDbBlockReference
  2
*U45
 10
0.0
 20
0.0
 30
0.0
  0
INSERT
  5
2C1
330
1D
100
AcDbEntity
  8
寸法
  6
Continuous
100
AcDbBlockReference
  2
*U46
 10
0.0
 20
0.0
 30
0.0
  0
INSERT
  5
2C2
330
1D
100
AcDbEntity
  8
寸法
  6
Continuous
100
AcDbBlockReference
  2
*U47
 10
0.0
 20
0.0
 30
0.0
  0
INSERT
  5
2C3
330
1D
100
AcDbEntity
  8
寸法
  6
Continuous
100
AcDbBlockReference
  2
*U48
 10
0.0
 20
0.0
 30
0.0
  0
INSERT
  5
2C4
330
1D
100
AcDbEntity
  8
寸法
  6
Continuous
100
AcDbBlockReference
  2
*U49
 10
0.0
 20
0.0
 30
0.0
  0
INSERT
  5
2C5
330
1D
100
AcDbEntity
  8
寸法
  6
Continuous
100
AcDbBlockReference
  2
*U50
 10
0.0
 20
0.0
 30
0.0
  0
LINE
  5
2C6
330
1D
100
AcDbEntity
  8
別途部材
  6
Continuous
100
AcDbLine
 10
-98.855937
 20
-9.918559999999999
 30
0.0
 11
-98.255937
 21
-9.31856
 31
0.0
  0
LINE
  5
2C7
330
1D
100
AcDbEntity
  8
別途部材
  6
Continuous
100
AcDbLine
 10
-95.755937
 20
-6.81856
 30
0.0
 11
-83.667053
 21
5.270325
 31
0.0
  0
LINE
  5
2C8
330
1D
100
AcDbEntity
  8
別途部材
  6
Continuous
 62
    96
100
AcDbLine
 10
-98.255937
 20
-70.758815
 30
0.0
 11
-98.855937
 21
-72.258815
 31
0.0
  0
LINE
  5
2C9
330
1D
100
AcDbEntity
  8
別途部材
  6
Continuous
 62
    96
100
AcDbLine
 10
-98.255937
 20
-70.758815
 30
0.0
 11
-55.755937
 21
-70.758815
 31
0.0
  0
LINE
  5
2CA
330
1D
100
AcDbEntity
  8
別途部材
  6
Continuous
100
AcDbLine
 10
-98.855937
 20
-72.258815
 30
0.0
 11
-55.755937
 21
-72.258815
 31
0.0
  0
LINE
  5
2CB
330
1D
100
AcDbEntity
  8
別途部材
  6
Continuous
 62
    96
100
AcDbLine
 10
-13.255937
 20
-70.758815
 30
0.0
 11
-12.655937
 21
-72.258815
 31
0.0
  0
LINE
  5
2CC
330
1D
100
AcDbEntity
  8
別途部材
  6
Continuous
 62
    96
100
AcDbLine
 10
-13.255937
 20
-70.758815
 30
0.0
 11
-55.755937
 21
-70.758815
 31
0.0
  0
LINE
  5
2CD
330
1D
100
AcDbEntity
  8
別途部材
  6
Continuous
100
AcDbLine
 10
-12.655937
 20
-72.258815
 30
0.0
 11
-55.755937
 21
-72.258815
 31
0.0
  0
ARC
  5
2CE
330
1D
100
AcDbEntity
  8
別途部材
  6
Continuous
100
AcDbCircle
 10
-55.755937
 20
-95.06437099999999
 30
0.0
 40
46.805555
100
AcDbArc
 50
31.284493
 51
148.715507
  0
LINE
  5
2CF
330
1D
100
AcDbEntity
  8
別途部材
  6
Continuous
100
AcDbLine
 10
-98.255937
 20
-9.31856
 30
0.0
 11
-55.755937
 21
-9.31856
 31
0.0
  0
LINE
  5
2D0
330
1D
100
AcDbEntity
  8
別途部材
  6
Continuous
100
AcDbLine
 10
-98.855937
 20
-9.918559999999999
 30
0.0
 11
-55.755937
 21
-9.918559999999999
 31
0.0
  0
LINE
  5
2D1
330
1D
100
AcDbEntity
  8
別途部材
  6
Continuous
100
AcDbLine
 10
-98.855937
 20
-9.918559999999999
 30
0.0
 11
-98.855937
 21
33.18144
 31
0.0
  0
LINE
  5
2D2
330
1D
100
AcDbEntity
  8
別途部材
  6
Continuous
100
AcDbLine
 10
-98.255937
 20
-9.31856
 30
0.0
 11
-98.255937
 21
33.18144
 31
0.0
  0
LINE
  5
2D3
330
1D
100
AcDbEntity
  8
別途部材
  6
Continuous
100
AcDbLine
 10
-98.855937
 20
76.28144
 30
0.0
 11
-98.255937
 21
75.68144
 31
0.0
  0
LINE
  5
2D4
330
1D
100
AcDbEntity
  8
別途部材
  6
Continuous
100
AcDbLine
 10
-95.755937
 20
73.18144
 30
0.0
 11
-83.667053
 21
61.092555
 31
0.0
  0
LINE
  5
2D5
330
1D
100
AcDbEntity
  8
別途部材
  6
Continuous
100
AcDbLine
 10
-98.255937
 20
75.68144
 30
0.0
 11
-55.755937
 21
75.68144
 31
0.0
  0
LINE
  5
2D6
330
1D
100
AcDbEntity
  8
別途部材
  6
Continuous
100
AcDbLine
 10
-98.855937
 20
76.28144
 30
0.0
 11
-55.755937
 21
76.28144
 31
0.0
  0
LINE
  5
2D7
330
1D
100
AcDbEntity
  8
別途部材
  6
Continuous
100
AcDbLine
 10
-98.855937
 20
76.28144
 30
0.0
 11
-98.855937
 21
33.18144
 31
0.0
  0
LINE
  5
2D8
330
1D
100
AcDbEntity
  8
別途部材
  6
Continuous
100
AcDbLine
 10
-98.255937
 20
75.68144
 30
0.0
 11
-98.255937
 21
33.18144
 31
0.0
  0
LINE
  5
2D9
330
1D
100
AcDbEntity
  8
別途部材
  6
Continuous
100
AcDbLine
 10
-12.655937
 20
-9.918559999999999
 30
0.0
 11
-13.255937
 21
-9.31856
 31
0.0
  0
LINE
  5
2DA
330
1D
100
AcDbEntity
  8
別途部材
  6
Continuous
100
AcDbLine
 10
-15.755937
 20
-6.81856
 30
0.0
 11
-27.844823
 21
5.270325
 31
0.0
  0
LINE
  5
2DB
330
1D
100
AcDbEntity
  8
別途部材
  6
Continuous
100
AcDbLine
 10
-13.255937
 20
-9.31856
 30
0.0
 11
-55.755937
 21
-9.31856
 31
0.0
  0
LINE
  5
2DC
330
1D
100
AcDbEntity
  8
別途部材
  6
Continuous
100
AcDbLine
 10
-12.655937
 20
-9.918559999999999
 30
0.0
 11
-55.755937
 21
-9.918559999999999
 31
0.0
  0
LINE
  5
2DD
330
1D
100
AcDbEntity
  8
別途部材
  6
Continuous
100
AcDbLine
 10
-12.655937
 20
-9.918559999999999
 30
0.0
 11
-12.655937
 21
33.18144
 31
0.0
  0
LINE
  5
2DE
330
1D
100
AcDbEntity
  8
別途部材
  6
Continuous
100
AcDbLine
 10
-13.255937
 20
-9.31856
 30
0.0
 11
-13.255937
 21
33.18144
 31
0.0
  0
LINE
  5
2DF
330
1D
100
AcDbEntity
  8
別途部材
  6
Continuous
100
AcDbLine
 10
-12.655937
 20
76.28144
 30
0.0
 11
-13.255937
 21
75.68144
 31
0.0
  0
LINE
  5
2E0
330
1D
100
AcDbEntity
  8
別途部材
  6
Continuous
100
AcDbLine
 10
-15.755937
 20
73.18144
 30
0.0
 11
-27.844823
 21
61.092555
 31
0.0
  0
LINE
  5
2E1
330
1D
100
AcDbEntity
  8
別途部材
  6
Continuous
100
AcDbLine
 10
-13.255937
 20
75.68144
 30
0.0
 11
-55.755937
 21
75.68144
 31
0.0
  0
LINE
  5
2E2
330
1D
100
AcDbEntity
  8
別途部材
  6
Continuous
100
AcDbLine
 10
-12.655937
 20
76.28144
 30
0.0
 11
-55.755937
 21
76.28144
 31
0.0
  0
LINE
  5
2E3
330
1D
100
AcDbEntity
  8
別途部材
  6
Continuous
100
AcDbLine
 10
-12.655937
 20
76.28144
 30
0.0
 11
-12.655937
 21
33.18144
 31
0.0
  0
LINE
  5
2E4
330
1D
100
AcDbEntity
  8
別途部材
  6
Continuous
100
AcDbLine
 10
-13.255937
 20
75.68144
 30
0.0
 11
-13.255937
 21
33.18144
 31
0.0
  0
INSERT
  5
2E5
330
1D
100
AcDbEntity
  8
別途部材
  6
DOT
100
AcDbBlockReference
  2
*U51
 10
0.0
 20
0.0
 30
0.0
  0
INSERT
  5
2E6
330
1D
100
AcDbEntity
  8
別途部材
  6
DOT
100
AcDbBlockReference
  2
*U52
 10
0.0
 20
0.0
 30
0.0
  0
ENDSEC
  0
SECTION
  2
OBJECTS
  0
DICTIONARY
  5
C
330
0
100
AcDbDictionary
281
     1
  3
ACAD_GROUP
350
D
  3
ACAD_LAYOUT
350
1A
  3
ACAD_MLINESTYLE
350
17
  3
ACAD_PLOTSETTINGS
350
19
  3
ACAD_PLOTSTYLENAME
350
E
  0
DICTIONARY
  5
D
102
{ACAD_REACTORS
330
C
102
}
330
C
100
AcDbDictionary
281
     1
  0
DICTIONARY
  5
1A
102
{ACAD_REACTORS
330
C
102
}
330
C
100
AcDbDictionary
281
     1
  3
Layout1
350
1C
  3
Model
350
1E
  0
DICTIONARY
  5
17
102
{ACAD_REACTORS
330
C
102
}
330
C
100
AcDbDictionary
281
     1
  3
Standard
350
18
  0
DICTIONARY
  5
19
102
{ACAD_REACTORS
330
C
102
}
330
C
100
AcDbDictionary
281
     1
  0
ACDBDICTIONARYWDFLT
  5
E
102
{ACAD_REACTORS
330
C
102
}
330
C
100
AcDbDictionary
281
     1
  3
Normal
350
F
100
AcDbDictionaryWithDefault
340
F
  0
LAYOUT
  5
1C
102
{ACAD_REACTORS
330
1A
102
}
330
1A
100
AcDbPlotSettings
  1

  2

  4

  6

 40
0.0
 41
0.0
 42
0.0
 43
0.0
 44
0.0
 45
0.0
 46
0.0
 47
0.0
 48
0.0
 49
0.0
140
0.0
141
0.0
142
1.0
143
1.0
 70
   688
 72
     0
 73
     0
 74
     5
  7

 75
    16
 76
     0
 77
     2
 78
   300
147
1.0
148
0.0
149
0.0
100
AcDbLayout
  1
Layout1
 70
     1
 71
     1
 10
0.0
 20
0.0
 11
12.0
 21
9.0
 12
0.0
 22
0.0
 32
0.0
 14
1.000000000000000E+20
 24
1.000000000000000E+20
 34
1.000000000000000E+20
 15
-1.000000000000000E+20
 25
-1.000000000000000E+20
 35
-1.000000000000000E+20
146
0.0
 13
0.0
 23
0.0
 33
0.0
 16
1.0
 26
0.0
 36
0.0
 17
0.0
 27
1.0
 37
0.0
 76
     0
330
1B
  0
LAYOUT
  5
1E
102
{ACAD_REACTORS
330
1A
102
}
330
1A
100
AcDbPlotSettings
  1

  2

  4

  6

 40
0.0
 41
0.0
 42
0.0
 43
0.0
 44
0.0
 45
0.0
 46
0.0
 47
0.0
 48
0.0
 49
0.0
140
0.0
141
0.0
142
1.0
143
1.0
 70
  1712
 72
     0
 73
     0
 74
     0
  7

 75
     0
 76
     0
 77
     2
 78
   300
147
1.0
148
0.0
149
0.0
100
AcDbLayout
  1
Model
 70
     1
 71
     0
 10
0.0
 20
0.0
 11
0.0
 21
0.0
 12
0.0
 22
0.0
 32
0.0
 14
-210.0
 24
-148.5
 34
0.0
 15
210.0
 25
148.5
 35
0.0
146
0.0
 13
0.0
 23
0.0
 33
0.0
 16
1.0
 26
0.0
 36
0.0
 17
0.0
 27
1.0
 37
0.0
 76
     0
330
1D
  0
MLINESTYLE
  5
18
102
{ACAD_REACTORS
330
17
102
}
330
17
100
AcDbMlineStyle
  2
Standard
 70
     0
  3

 62
   256
 51
90.0
 52
90.0
 71
     2
 49
0.5
 62
   256
  6
BYLAYER
 49
-0.5
 62
   256
  6
BYLAYER
  0
ACDBPLACEHOLDER
  5
F
102
{ACAD_REACTORS
330
E
102
}
330
E
  0
ENDSEC
  0
EOF
