  0
SECTION
  2
HEADER
  9
$ACADVER
  1
AC1018
  9
$ACADMAINTVER
 70
     0
  9
$DWGCODEPAGE
  3
ANSI_932
  9
$INSBASE
 10
0.0
 20
0.0
 30
0.0
  9
$EXTMIN
 10
-210.0
 20
-148.5
 30
0.0
  9
$EXTMAX
 10
210.0
 20
148.5
 30
0.0
  9
$LIMMIN
 10
0.0
 20
0.0
  9
$LIMMAX
 10
12.0
 20
9.0
  9
$ORTHOMODE
 70
     0
  9
$REGENMODE
 70
     1
  9
$FILLMODE
 70
     1
  9
$QTEXTMODE
 70
     0
  9
$MIRRTEXT
 70
     1
  9
$LTSCALE
 40
10.0
  9
$ATTMODE
 70
     1
  9
$TEXTSIZE
 40
0.2
  9
$TRACEWID
 40
0.05
  9
$TEXTSTYLE
  7
STANDARD
  9
$CLAYER
  8
0
  9
$CELTYPE
  6
ByBlock
  9
$CECOLOR
 62
   256
  9
$CELTSCALE
 40
1.0
  9
$DISPSILH
 70
     0
  9
$DIMSCALE
 40
1.0
  9
$DIMASZ
 40
0.18
  9
$DIMEXO
 40
0.0625
  9
$DIMDLI
 40
0.38
  9
$DIMRND
 40
0.0
  9
$DIMDLE
 40
0.0
  9
$DIMEXE
 40
0.18
  9
$DIMTP
 40
0.0
  9
$DIMTM
 40
0.0
  9
$DIMTXT
 40
0.18
  9
$DIMCEN
 40
0.09
  9
$DIMTSZ
 40
0.0
  9
$DIMTOL
 70
     0
  9
$DIMLIM
 70
     0
  9
$DIMTIH
 70
     1
  9
$DIMTOH
 70
     1
  9
$DIMSE1
 70
     0
  9
$DIMSE2
 70
     0
  9
$DIMTAD
 70
     0
  9
$DIMZIN
 70
     0
  9
$DIMBLK
  1

  9
$DIMASO
 70
     1
  9
$DIMSHO
 70
     1
  9
$DIMPOST
  1

  9
$DIMAPOST
  1

  9
$DIMALT
 70
     0
  9
$DIMALTD
 70
     2
  9
$DIMALTF
 40
25.4
  9
$DIMLFAC
 40
1.0
  9
$DIMTOFL
 70
     0
  9
$DIMTVP
 40
0.0
  9
$DIMTIX
 70
     0
  9
$DIMSOXD
 70
     0
  9
$DIMSAH
 70
     0
  9
$DIMBLK1
  1

  9
$DIMBLK2
  1

  9
$DIMSTYLE
  2
Standard
  9
$DIMCLRD
 70
     0
  9
$DIMCLRE
 70
     0
  9
$DIMCLRT
 70
     0
  9
$DIMTFAC
 40
1.0
  9
$DIMGAP
 40
0.09
  9
$DIMJUST
 70
     0
  9
$DIMSD1
 70
     0
  9
$DIMSD2
 70
     0
  9
$DIMTOLJ
 70
     1
  9
$DIMTZIN
 70
     0
  9
$DIMALTZ
 70
     0
  9
$DIMALTTZ
 70
     0
  9
$DIMUPT
 70
     0
  9
$DIMDEC
 70
     4
  9
$DIMTDEC
 70
     4
  9
$DIMALTU
 70
     2
  9
$DIMALTTD
 70
     2
  9
$DIMTXSTY
  7
STANDARD
  9
$DIMAUNIT
 70
     0
  9
$DIMADEC
 70
     0
  9
$DIMALTRND
 40
0.0
  9
$DIMAZIN
 70
     0
  9
$DIMDSEP
 70
    46
  9
$DIMATFIT
 70
     3
  9
$DIMFRAC
 70
     0
  9
$DIMLDRBLK
  1

  9
$DIMLUNIT
 70
     2
  9
$DIMLWD
 70
    -2
  9
$DIMLWE
 70
    -2
  9
$DIMTMOVE
 70
     0
  9
$LUNITS
 70
     2
  9
$LUPREC
 70
     4
  9
$SKETCHINC
 40
0.1
  9
$FILLETRAD
 40
0.5
  9
$AUNITS
 70
     0
  9
$AUPREC
 70
     0
  9
$MENU
  1
.
  9
$ELEVATION
 40
0.0
  9
$PELEVATION
 40
0.0
  9
$THICKNESS
 40
0.0
  9
$LIMCHECK
 70
     0
  9
$CHAMFERA
 40
0.5
  9
$CHAMFERB
 40
0.5
  9
$CHAMFERC
 40
1.0
  9
$CHAMFERD
 40
0.0
  9
$SKPOLY
 70
     0
  9
$TDCREATE
 40
2460242.402579745
  9
$TDUCREATE
 40
2460242.027579745
  9
$TDUPDATE
 40
2460242.402579757
  9
$TDUUPDATE
 40
2460242.027579757
  9
$TDINDWG
 40
0.0000000116
  9
$TDUSRTIMER
 40
0.0000000116
  9
$USRTIMER
 70
     1
  9
$ANGBASE
 50
0.0
  9
$ANGDIR
 70
     0
  9
$PDMODE
 70
    32
  9
$PDSIZE
 40
1.5
  9
$PLINEWID
 40
0.0
  9
$SPLFRAME
 70
     0
  9
$SPLINETYPE
 70
     6
  9
$SPLINESEGS
 70
     8
  9
$HANDSEED
  5
297
  9
$SURFTAB1
 70
     6
  9
$SURFTAB2
 70
     6
  9
$SURFTYPE
 70
     6
  9
$SURFU
 70
     6
  9
$SURFV
 70
     6
  9
$UCSBASE
  2

  9
$UCSNAME
  2

  9
$UCSORG
 10
0.0
 20
0.0
 30
0.0
  9
$UCSXDIR
 10
1.0
 20
0.0
 30
0.0
  9
$UCSYDIR
 10
0.0
 20
1.0
 30
0.0
  9
$UCSORTHOREF
  2

  9
$UCSORTHOVIEW
 70
     0
  9
$UCSORGTOP
 10
0.0
 20
0.0
 30
0.0
  9
$UCSORGBOTTOM
 10
0.0
 20
0.0
 30
0.0
  9
$UCSORGLEFT
 10
0.0
 20
0.0
 30
0.0
  9
$UCSORGRIGHT
 10
0.0
 20
0.0
 30
0.0
  9
$UCSORGFRONT
 10
0.0
 20
0.0
 30
0.0
  9
$UCSORGBACK
 10
0.0
 20
0.0
 30
0.0
  9
$PUCSBASE
  2

  9
$PUCSNAME
  2

  9
$PUCSORG
 10
0.0
 20
0.0
 30
0.0
  9
$PUCSXDIR
 10
1.0
 20
0.0
 30
0.0
  9
$PUCSYDIR
 10
0.0
 20
1.0
 30
0.0
  9
$PUCSORTHOREF
  2

  9
$PUCSORTHOVIEW
 70
     0
  9
$PUCSORGTOP
 10
0.0
 20
0.0
 30
0.0
  9
$PUCSORGBOTTOM
 10
0.0
 20
0.0
 30
0.0
  9
$PUCSORGLEFT
 10
0.0
 20
0.0
 30
0.0
  9
$PUCSORGRIGHT
 10
0.0
 20
0.0
 30
0.0
  9
$PUCSORGFRONT
 10
0.0
 20
0.0
 30
0.0
  9
$PUCSORGBACK
 10
0.0
 20
0.0
 30
0.0
  9
$USERI1
 70
     0
  9
$USERI2
 70
     0
  9
$USERI3
 70
     0
  9
$USERI4
 70
     0
  9
$USERI5
 70
     0
  9
$USERR1
 40
0.0
  9
$USERR2
 40
0.0
  9
$USERR3
 40
0.0
  9
$USERR4
 40
0.0
  9
$USERR5
 40
0.0
  9
$WORLDVIEW
 70
     1
  9
$SHADEDGE
 70
     3
  9
$SHADEDIF
 70
    70
  9
$TILEMODE
 70
     1
  9
$MAXACTVP
 70
    64
  9
$PINSBASE
 10
0.0
 20
0.0
 30
0.0
  9
$PLIMCHECK
 70
     0
  9
$PEXTMIN
 10
1.000000000000000E+20
 20
1.000000000000000E+20
 30
1.000000000000000E+20
  9
$PEXTMAX
 10
-1.000000000000000E+20
 20
-1.000000000000000E+20
 30
-1.000000000000000E+20
  9
$PLIMMIN
 10
0.0
 20
0.0
  9
$PLIMMAX
 10
12.0
 20
9.0
  9
$UNITMODE
 70
     0
  9
$VISRETAIN
 70
     1
  9
$PLINEGEN
 70
     0
  9
$PSLTSCALE
 70
     1
  9
$TREEDEPTH
 70
  3020
  9
$CMLSTYLE
  2
Standard
  9
$CMLJUST
 70
     0
  9
$CMLSCALE
 40
1.0
  9
$PROXYGRAPHICS
 70
     1
  9
$MEASUREMENT
 70
     0
  9
$CELWEIGHT
370
    -1
  9
$ENDCAPS
280
     0
  9
$JOINSTYLE
280
     0
  9
$LWDISPLAY
290
     0
  9
$INSUNITS
 70
     0
  9
$HYPERLINKBASE
  1

  9
$STYLESHEET
  1

  9
$XEDIT
290
     1
  9
$CEPSNTYPE
380
     0
  9
$PSTYLEMODE
290
     1
  9
$FINGERPRINTGUID
  2
{85BBCA87-21E3-44C2-B7F4-A8D111EA2F93}
  9
$VERSIONGUID
  2
{FAEB1C32-E019-11D5-929B-00C0DF256EC4}
  9
$EXTNAMES
290
     1
  9
$PSVPSCALE
 40
0.0
  9
$OLESTARTUP
290
     0
  9
$SORTENTS
280
   127
  9
$INDEXCTL
280
     0
  9
$HIDETEXT
280
     1
  9
$XCLIPFRAME
290
     0
  9
$HALOGAP
280
     0
  9
$OBSCOLOR
 70
   257
  9
$OBSLTYPE
280
     0
  9
$INTERSECTIONDISPLAY
280
     0
  9
$INTERSECTIONCOLOR
 70
   257
  9
$DIMASSOC
280
     2
  9
$PROJECTNAME
  1

  0
ENDSEC
  0
SECTION
  2
CLASSES
  0
CLASS
  1
ACDBDICTIONARYWDFLT
  2
AcDbDictionaryWithDefault
  3
ObjectDBX Classes
 90
        0
 91
        3
280
     0
281
     0
  0
ENDSEC
  0
SECTION
  2
TABLES
  0
TABLE
  2
VPORT
  5
8
330
0
100
AcDbSymbolTable
 70
     1
  0
VPORT
  5
292
330
8
100
AcDbSymbolTableRecord
100
AcDbViewportTableRecord
  2
*Active
 70
     0
 10
0.0
 20
0.0
 11
1.0
 21
1.0
 12
10.42990654205607
 22
4.5
 13
0.0
 23
0.0
 14
0.5
 24
0.5
 15
0.5
 25
0.5
 16
0.0
 26
0.0
 36
1.0
 17
0.0
 27
0.0
 37
0.0
 40
9.0
 41
1.972972972850329
 42
50.0
 43
0.0
 44
0.0
 50
0.0
 51
0.0
 71
     0
 72
   100
 73
     1
 74
     3
 75
     0
 76
     0
 77
     0
 78
     0
281
     0
 65
     1
110
0.0
120
0.0
130
0.0
111
1.0
121
0.0
131
0.0
112
0.0
122
1.0
132
0.0
 79
     0
146
0.0
  0
ENDTAB
  0
TABLE
  2
LTYPE
  5
5
330
0
100
AcDbSymbolTable
 70
     9
  0
LTYPE
  5
14
330
5
100
AcDbSymbolTableRecord
100
AcDbLinetypeTableRecord
  2
ByBlock
 70
     0
  3

 72
    65
 73
     0
 40
0.0
  0
LTYPE
  5
15
330
5
100
AcDbSymbolTableRecord
100
AcDbLinetypeTableRecord
  2
ByLayer
 70
     0
  3

 72
    65
 73
     0
 40
0.0
  0
LTYPE
  5
16
330
5
100
AcDbSymbolTableRecord
100
AcDbLinetypeTableRecord
  2
CONTINUOUS
 70
     0
  3
実線
 72
    65
 73
     0
 40
0.0
  0
LTYPE
  5
21
330
5
100
AcDbSymbolTableRecord
100
AcDbLinetypeTableRecord
  2
DASHED
 70
     0
  3
破線A
 72
    65
 73
     2
 40
0.6000000000000001
 49
0.4
 74
     0
 49
-0.2
 74
     0
  0
LTYPE
  5
22
330
5
100
AcDbSymbolTableRecord
100
AcDbLinetypeTableRecord
  2
DASHEDX2
 70
     0
  3
破線B
 72
    65
 73
     2
 40
1.3
 49
0.9
 74
     0
 49
-0.4
 74
     0
  0
LTYPE
  5
23
330
5
100
AcDbSymbolTableRecord
100
AcDbLinetypeTableRecord
  2
DASHDOT
 70
     0
  3
１点鎖線A
 72
    65
 73
     4
 40
0.5375
 49
0.375
 74
     0
 49
-0.05
 74
     0
 49
0.0625
 74
     0
 49
-0.05
 74
     0
  0
LTYPE
  5
24
330
5
100
AcDbSymbolTableRecord
100
AcDbLinetypeTableRecord
  2
DASHDOTX2
 70
     0
  3
１点鎖線B
 72
    65
 73
     4
 40
1.075
 49
0.75
 74
     0
 49
-0.1
 74
     0
 49
0.125
 74
     0
 49
-0.1
 74
     0
  0
LTYPE
  5
25
330
5
100
AcDbSymbolTableRecord
100
AcDbLinetypeTableRecord
  2
DIVIDE2
 70
     0
  3
２点鎖線A
 72
    65
 73
     6
 40
0.5125
 49
0.3
 74
     0
 49
-0.0375
 74
     0
 49
0.05
 74
     0
 49
-0.0375
 74
     0
 49
0.05
 74
     0
 49
-0.0375
 74
     0
  0
LTYPE
  5
26
330
5
100
AcDbSymbolTableRecord
100
AcDbLinetypeTableRecord
  2
DIVIDE
 70
     0
  3
２点鎖線B
 72
    65
 73
     6
 40
1.05
 49
0.55
 74
     0
 49
-0.1
 74
     0
 49
0.1
 74
     0
 49
-0.1
 74
     0
 49
0.1
 74
     0
 49
-0.1
 74
     0
  0
LTYPE
  5
27
330
5
100
AcDbSymbolTableRecord
100
AcDbLinetypeTableRecord
  2
DOT
 70
     0
  3
点線A
 72
    65
 73
     2
 40
0.1125
 49
0.0625
 74
     0
 49
-0.05
 74
     0
  0
LTYPE
  5
28
330
5
100
AcDbSymbolTableRecord
100
AcDbLinetypeTableRecord
  2
DOTX2
 70
     0
  3
点線B
 72
    65
 73
     2
 40
0.275
 49
0.15
 74
     0
 49
-0.125
 74
     0
  0
ENDTAB
  0
TABLE
  2
LAYER
  5
2
330
0
100
AcDbSymbolTable
 70
    34
  0
LAYER
  5
10
330
2
100
AcDbSymbolTableRecord
100
AcDbLayerTableRecord
  2
0
 70
     0
 62
    17
  6
CONTINUOUS
370
    -3
390
F
  0
LAYER
  5
2F
330
2
100
AcDbSymbolTableRecord
100
AcDbLayerTableRecord
  2
通り芯
 70
     0
 62
    15
  6
CONTINUOUS
370
    -3
390
F
  0
LAYER
  5
30
330
2
100
AcDbSymbolTableRecord
100
AcDbLayerTableRecord
  2
補助線
 70
     0
 62
    16
  6
DOT
370
    -3
390
F
  0
LAYER
  5
31
330
2
100
AcDbSymbolTableRecord
100
AcDbLayerTableRecord
  2
躯体
 70
     0
 62
    31
  6
CONTINUOUS
370
    -3
390
F
  0
LAYER
  5
32
330
2
100
AcDbSymbolTableRecord
100
AcDbLayerTableRecord
  2
型材
 70
     0
 62
    32
  6
CONTINUOUS
370
    -3
390
F
  0
LAYER
  5
33
330
2
100
AcDbSymbolTableRecord
100
AcDbLayerTableRecord
  2
型材断面
 70
     0
 62
    47
  6
CONTINUOUS
370
    -3
390
F
  0
LAYER
  5
34
330
2
100
AcDbSymbolTableRecord
100
AcDbLayerTableRecord
  2
ガラス
 70
     0
 62
    48
  6
CONTINUOUS
370
    -3
390
F
  0
LAYER
  5
35
330
2
100
AcDbSymbolTableRecord
100
AcDbLayerTableRecord
  2
ゴム等
 70
     0
 62
    63
  6
CONTINUOUS
370
    -3
390
F
  0
LAYER
  5
36
330
2
100
AcDbSymbolTableRecord
100
AcDbLayerTableRecord
  2
ボルト／ビス
 70
     0
 62
    64
  6
CONTINUOUS
370
    -3
390
F
  0
LAYER
  5
37
330
2
100
AcDbSymbolTableRecord
100
AcDbLayerTableRecord
  2
文字
 70
     0
 62
    79
  6
CONTINUOUS
370
    -3
390
F
  0
LAYER
  5
38
330
2
100
AcDbSymbolTableRecord
100
AcDbLayerTableRecord
  2
寸法
 70
     0
 62
    80
  6
CONTINUOUS
370
    -3
390
F
  0
LAYER
  5
39
330
2
100
AcDbSymbolTableRecord
100
AcDbLayerTableRecord
  2
ﾊｯﾁﾝｸﾞ
 70
     0
 62
    95
  6
CONTINUOUS
370
    -3
390
F
  0
LAYER
  5
3A
330
2
100
AcDbSymbolTableRecord
100
AcDbLayerTableRecord
  2
別途部材
 70
     0
 62
    96
  6
CONTINUOUS
370
    -3
390
F
  0
LAYER
  5
3B
330
2
100
AcDbSymbolTableRecord
100
AcDbLayerTableRecord
  2
曲げ物
 70
     0
 62
   111
  6
CONTINUOUS
370
    -3
390
F
  0
LAYER
  5
3C
330
2
100
AcDbSymbolTableRecord
100
AcDbLayerTableRecord
  2
鉄骨等
 70
     0
 62
   112
  6
CONTINUOUS
370
    -3
390
F
  0
LAYER
  5
3D
330
2
100
AcDbSymbolTableRecord
100
AcDbLayerTableRecord
  2
St
 70
     0
 62
   127
  6
CONTINUOUS
370
    -3
390
F
  0
LAYER
  5
3E
330
2
100
AcDbSymbolTableRecord
100
AcDbLayerTableRecord
  2
その他部品等
 70
     0
 62
   128
  6
CONTINUOUS
370
    -3
390
F
  0
LAYER
  5
3F
330
2
100
AcDbSymbolTableRecord
100
AcDbLayerTableRecord
  2
ｶﾞｽｹｯﾄ
 70
     0
 62
   143
  6
CONTINUOUS
370
    -3
390
F
  0
LAYER
  5
40
330
2
100
AcDbSymbolTableRecord
100
AcDbLayerTableRecord
  2
ｽｹｯﾁ
 70
     0
 62
    14
  6
CONTINUOUS
370
    -3
390
F
  0
LAYER
  5
42
330
2
100
AcDbSymbolTableRecord
100
AcDbLayerTableRecord
  2
1
 70
     0
 62
    30
  6
CONTINUOUS
370
    -3
390
F
  0
LAYER
  5
43
330
2
100
AcDbSymbolTableRecord
100
AcDbLayerTableRecord
  2
4
 70
     0
 62
    33
  6
CONTINUOUS
370
    -3
390
F
  0
LAYER
  5
44
330
2
100
AcDbSymbolTableRecord
100
AcDbLayerTableRecord
  2
ﾚｲﾔ3
 70
     0
 62
    46
  6
CONTINUOUS
370
    -3
390
F
  0
LAYER
  5
45
330
2
100
AcDbSymbolTableRecord
100
AcDbLayerTableRecord
  2
外形線
 70
     0
 62
    49
  6
CONTINUOUS
370
    -3
390
F
  0
LAYER
  5
46
330
2
100
AcDbSymbolTableRecord
100
AcDbLayerTableRecord
  2
部品
 70
     0
 62
    14
  6
CONTINUOUS
370
    -3
390
F
  0
LAYER
  5
47
330
2
100
AcDbSymbolTableRecord
100
AcDbLayerTableRecord
  2
サッシ芯
 70
     0
 62
    17
  6
DASHDOTX2
370
    -3
390
F
  0
LAYER
  5
48
330
2
100
AcDbSymbolTableRecord
100
AcDbLayerTableRecord
  2
寸法線
 70
     0
 62
    62
  6
CONTINUOUS
370
    -3
390
F
  0
LAYER
  5
49
330
2
100
AcDbSymbolTableRecord
100
AcDbLayerTableRecord
  2
姿図外形線
 70
     0
 62
    65
  6
CONTINUOUS
370
    -3
390
F
  0
LAYER
  5
4A
330
2
100
AcDbSymbolTableRecord
100
AcDbLayerTableRecord
  2
姿補助線
 70
     0
 62
    30
  6
CONTINUOUS
370
    -3
390
F
  0
LAYER
  5
4B
330
2
100
AcDbSymbolTableRecord
100
AcDbLayerTableRecord
  2
透視線
 70
     0
 62
    78
  6
DOT
370
    -3
390
F
  0
LAYER
  5
4C
330
2
100
AcDbSymbolTableRecord
100
AcDbLayerTableRecord
  2
用紙
 70
     0
 62
    81
  6
CONTINUOUS
370
    -3
390
F
  0
LAYER
  5
4D
330
2
100
AcDbSymbolTableRecord
100
AcDbLayerTableRecord
  2
実線図枠
 70
     0
 62
    94
  6
CONTINUOUS
370
    -3
390
F
  0
LAYER
  5
4E
330
2
100
AcDbSymbolTableRecord
100
AcDbLayerTableRecord
  2
補助図枠
 70
     0
 62
    97
  6
CONTINUOUS
370
    -3
390
F
  0
LAYER
  5
4F
330
2
100
AcDbSymbolTableRecord
100
AcDbLayerTableRecord
  2
建具記号
 70
     0
 62
   110
  6
CONTINUOUS
370
    -3
390
F
  0
LAYER
  5
50
330
2
100
AcDbSymbolTableRecord
100
AcDbLayerTableRecord
  2
補助文字
 70
     0
 62
   113
  6
CONTINUOUS
370
    -3
390
F
  0
ENDTAB
  0
TABLE
  2
STYLE
  5
3
330
0
100
AcDbSymbolTable
 70
    10
  0
STYLE
  5
11
330
3
100
AcDbSymbolTableRecord
100
AcDbTextStyleTableRecord
  2
STANDARD
 70
     0
 40
1.0
 41
1.0
 50
0.0
 71
     0
 42
1.0
  3
TXT
  4
BIGFONT
  0
STYLE
  5
52
330
3
100
AcDbSymbolTableRecord
100
AcDbTextStyleTableRecord
  2
TATE
 70
     4
 40
1.0
 41
1.0
 50
0.0
 71
     0
 42
1.0
  3
TXT
  4
BIGFONT
  0
STYLE
  5
53
330
3
100
AcDbSymbolTableRecord
100
AcDbTextStyleTableRecord
  2
TextStyle03
 70
     0
 40
1.0
 41
1.0
 50
0.0
 71
     0
 42
1.0
  3
MONOTXT
  4
BIGFONT
  0
STYLE
  5
54
330
3
100
AcDbSymbolTableRecord
100
AcDbTextStyleTableRecord
  2
TextStyle04
 70
     0
 40
1.0
 41
1.0
 50
0.0
 71
     0
 42
1.0
  3
MONOTXT
  4
BIGFONT
  0
STYLE
  5
55
330
3
100
AcDbSymbolTableRecord
100
AcDbTextStyleTableRecord
  2
TextStyle05
 70
     0
 40
1.0
 41
1.0
 50
0.0
 71
     0
 42
1.0
  3
MONOTXT
  4
BIGFONT
  0
STYLE
  5
56
330
3
100
AcDbSymbolTableRecord
100
AcDbTextStyleTableRecord
  2
TextStyle06
 70
     0
 40
1.0
 41
1.0
 50
0.0
 71
     0
 42
1.0
  3
MONOTXT
  4
BIGFONT
  0
STYLE
  5
57
330
3
100
AcDbSymbolTableRecord
100
AcDbTextStyleTableRecord
  2
TextStyle07
 70
     0
 40
1.0
 41
1.0
 50
0.0
 71
     0
 42
1.0
  3
MONOTXT
  4
BIGFONT
  0
STYLE
  5
58
330
3
100
AcDbSymbolTableRecord
100
AcDbTextStyleTableRecord
  2
TextStyle08
 70
     0
 40
1.0
 41
1.0
 50
0.0
 71
     0
 42
1.0
  3
MONOTXT
  4
BIGFONT
  0
STYLE
  5
59
330
3
100
AcDbSymbolTableRecord
100
AcDbTextStyleTableRecord
  2
TextStyle09
 70
     0
 40
1.0
 41
1.0
 50
0.0
 71
     0
 42
1.0
  3
MONOTXT
  4
BIGFONT
  0
STYLE
  5
5A
330
3
100
AcDbSymbolTableRecord
100
AcDbTextStyleTableRecord
  2
TextStyle10
 70
     0
 40
1.0
 41
1.0
 50
0.0
 71
     0
 42
1.0
  3
MONOTXT
  4
BIGFONT
  0
ENDTAB
  0
TABLE
  2
VIEW
  5
6
330
0
100
AcDbSymbolTable
 70
     0
  0
ENDTAB
  0
TABLE
  2
UCS
  5
7
330
0
100
AcDbSymbolTable
 70
     0
  0
ENDTAB
  0
TABLE
  2
APPID
  5
9
330
0
100
AcDbSymbolTable
 70
     1
  0
APPID
  5
12
330
9
100
AcDbSymbolTableRecord
100
AcDbRegAppTableRecord
  2
ACAD
 70
     0
  0
ENDTAB
  0
TABLE
  2
DIMSTYLE
  5
A
330
0
100
AcDbSymbolTable
 70
     1
100
AcDbDimStyleTable
  0
DIMSTYLE
105
5B
330
A
100
AcDbSymbolTableRecord
100
AcDbDimStyleTableRecord
  2
Standard
 70
     0
340
11
  0
ENDTAB
  0
TABLE
  2
BLOCK_RECORD
  5
1
330
0
100
AcDbSymbolTable
 70
    44
  0
BLOCK_RECORD
  5
1D
330
1
100
AcDbSymbolTableRecord
100
AcDbBlockTableRecord
  2
*Model_Space
340
1E
  0
BLOCK_RECORD
  5
1B
330
1
100
AcDbSymbolTableRecord
100
AcDbBlockTableRecord
  2
*Paper_Space
340
1C
  0
BLOCK_RECORD
  5
5D
330
1
100
AcDbSymbolTableRecord
100
AcDbBlockTableRecord
  2
*U0
340
0
102
{BLKREFS
331
1EB
102
}
  0
BLOCK_RECORD
  5
66
330
1
100
AcDbSymbolTableRecord
100
AcDbBlockTableRecord
  2
*U1
340
0
102
{BLKREFS
331
268
102
}
  0
BLOCK_RECORD
  5
6F
330
1
100
AcDbSymbolTableRecord
100
AcDbBlockTableRecord
  2
*U2
340
0
102
{BLKREFS
331
269
102
}
  0
BLOCK_RECORD
  5
77
330
1
100
AcDbSymbolTableRecord
100
AcDbBlockTableRecord
  2
*U3
340
0
102
{BLKREFS
331
24D
102
}
  0
BLOCK_RECORD
  5
82
330
1
100
AcDbSymbolTableRecord
100
AcDbBlockTableRecord
  2
*U4
340
0
102
{BLKREFS
331
78
102
}
  0
BLOCK_RECORD
  5
87
330
1
100
AcDbSymbolTableRecord
100
AcDbBlockTableRecord
  2
*U5
340
0
102
{BLKREFS
331
24E
102
}
  0
BLOCK_RECORD
  5
92
330
1
100
AcDbSymbolTableRecord
100
AcDbBlockTableRecord
  2
*U6
340
0
102
{BLKREFS
331
88
102
}
  0
BLOCK_RECORD
  5
97
330
1
100
AcDbSymbolTableRecord
100
AcDbBlockTableRecord
  2
*U7
340
0
102
{BLKREFS
331
24F
102
}
  0
BLOCK_RECORD
  5
A2
330
1
100
AcDbSymbolTableRecord
100
AcDbBlockTableRecord
  2
*U8
340
0
102
{BLKREFS
331
250
102
}
  0
BLOCK_RECORD
  5
AD
330
1
100
AcDbSymbolTableRecord
100
AcDbBlockTableRecord
  2
*U9
340
0
102
{BLKREFS
331
98
102
}
  0
BLOCK_RECORD
  5
B2
330
1
100
AcDbSymbolTableRecord
100
AcDbBlockTableRecord
  2
*U10
340
0
102
{BLKREFS
331
A3
102
}
  0
BLOCK_RECORD
  5
B7
330
1
100
AcDbSymbolTableRecord
100
AcDbBlockTableRecord
  2
*U11
340
0
102
{BLKREFS
331
251
102
}
  0
BLOCK_RECORD
  5
C2
330
1
100
AcDbSymbolTableRecord
100
AcDbBlockTableRecord
  2
*U12
340
0
102
{BLKREFS
331
252
102
}
  0
BLOCK_RECORD
  5
CD
330
1
100
AcDbSymbolTableRecord
100
AcDbBlockTableRecord
  2
*U13
340
0
102
{BLKREFS
331
B8
102
}
  0
BLOCK_RECORD
  5
D2
330
1
100
AcDbSymbolTableRecord
100
AcDbBlockTableRecord
  2
*U14
340
0
102
{BLKREFS
331
C3
102
}
  0
BLOCK_RECORD
  5
D7
330
1
100
AcDbSymbolTableRecord
100
AcDbBlockTableRecord
  2
*U15
340
0
102
{BLKREFS
331
253
102
}
  0
BLOCK_RECORD
  5
E2
330
1
100
AcDbSymbolTableRecord
100
AcDbBlockTableRecord
  2
*U16
340
0
102
{BLKREFS
331
254
102
}
  0
BLOCK_RECORD
  5
ED
330
1
100
AcDbSymbolTableRecord
100
AcDbBlockTableRecord
  2
*U17
340
0
102
{BLKREFS
331
D8
102
}
  0
BLOCK_RECORD
  5
F2
330
1
100
AcDbSymbolTableRecord
100
AcDbBlockTableRecord
  2
*U18
340
0
102
{BLKREFS
331
E3
102
}
  0
BLOCK_RECORD
  5
F7
330
1
100
AcDbSymbolTableRecord
100
AcDbBlockTableRecord
  2
*U19
340
0
102
{BLKREFS
331
255
102
}
  0
BLOCK_RECORD
  5
102
330
1
100
AcDbSymbolTableRecord
100
AcDbBlockTableRecord
  2
*U20
340
0
102
{BLKREFS
331
256
102
}
  0
BLOCK_RECORD
  5
10D
330
1
100
AcDbSymbolTableRecord
100
AcDbBlockTableRecord
  2
*U21
340
0
102
{BLKREFS
331
F8
102
}
  0
BLOCK_RECORD
  5
112
330
1
100
AcDbSymbolTableRecord
100
AcDbBlockTableRecord
  2
*U22
340
0
102
{BLKREFS
331
103
102
}
  0
BLOCK_RECORD
  5
117
330
1
100
AcDbSymbolTableRecord
100
AcDbBlockTableRecord
  2
*U23
340
0
102
{BLKREFS
331
257
102
}
  0
BLOCK_RECORD
  5
122
330
1
100
AcDbSymbolTableRecord
100
AcDbBlockTableRecord
  2
*U24
340
0
102
{BLKREFS
331
258
102
}
  0
BLOCK_RECORD
  5
12D
330
1
100
AcDbSymbolTableRecord
100
AcDbBlockTableRecord
  2
*U25
340
0
102
{BLKREFS
331
118
102
}
  0
BLOCK_RECORD
  5
132
330
1
100
AcDbSymbolTableRecord
100
AcDbBlockTableRecord
  2
*U26
340
0
102
{BLKREFS
331
123
102
}
  0
BLOCK_RECORD
  5
137
330
1
100
AcDbSymbolTableRecord
100
AcDbBlockTableRecord
  2
*U27
340
0
102
{BLKREFS
331
259
102
}
  0
BLOCK_RECORD
  5
142
330
1
100
AcDbSymbolTableRecord
100
AcDbBlockTableRecord
  2
*U28
340
0
102
{BLKREFS
331
25A
102
}
  0
BLOCK_RECORD
  5
14D
330
1
100
AcDbSymbolTableRecord
100
AcDbBlockTableRecord
  2
*U29
340
0
102
{BLKREFS
331
138
102
}
  0
BLOCK_RECORD
  5
152
330
1
100
AcDbSymbolTableRecord
100
AcDbBlockTableRecord
  2
*U30
340
0
102
{BLKREFS
331
143
102
}
  0
BLOCK_RECORD
  5
157
330
1
100
AcDbSymbolTableRecord
100
AcDbBlockTableRecord
  2
*U31
340
0
102
{BLKREFS
331
25B
102
}
  0
BLOCK_RECORD
  5
162
330
1
100
AcDbSymbolTableRecord
100
AcDbBlockTableRecord
  2
*U32
340
0
102
{BLKREFS
331
25C
102
}
  0
BLOCK_RECORD
  5
16D
330
1
100
AcDbSymbolTableRecord
100
AcDbBlockTableRecord
  2
*U33
340
0
102
{BLKREFS
331
158
102
}
  0
BLOCK_RECORD
  5
172
330
1
100
AcDbSymbolTableRecord
100
AcDbBlockTableRecord
  2
*U34
340
0
102
{BLKREFS
331
163
102
}
  0
BLOCK_RECORD
  5
177
330
1
100
AcDbSymbolTableRecord
100
AcDbBlockTableRecord
  2
*U35
340
0
102
{BLKREFS
331
26A
102
}
  0
BLOCK_RECORD
  5
180
330
1
100
AcDbSymbolTableRecord
100
AcDbBlockTableRecord
  2
*U36
340
0
102
{BLKREFS
331
26B
102
}
  0
BLOCK_RECORD
  5
189
330
1
100
AcDbSymbolTableRecord
100
AcDbBlockTableRecord
  2
*U37
340
0
102
{BLKREFS
331
26C
102
}
  0
BLOCK_RECORD
  5
192
330
1
100
AcDbSymbolTableRecord
100
AcDbBlockTableRecord
  2
*U38
340
0
102
{BLKREFS
331
26D
102
}
  0
BLOCK_RECORD
  5
19A
330
1
100
AcDbSymbolTableRecord
100
AcDbBlockTableRecord
  2
*U39
340
0
102
{BLKREFS
331
26E
102
}
  0
BLOCK_RECORD
  5
1A2
330
1
100
AcDbSymbolTableRecord
100
AcDbBlockTableRecord
  2
*U40
340
0
102
{BLKREFS
331
26F
102
}
  0
BLOCK_RECORD
  5
1AB
330
1
100
AcDbSymbolTableRecord
100
AcDbBlockTableRecord
  2
*U41
340
0
102
{BLKREFS
331
270
102
}
  0
BLOCK_RECORD
  5
1B4
330
1
100
AcDbSymbolTableRecord
100
AcDbBlockTableRecord
  2
*U42
340
0
102
{BLKREFS
331
290
102
}
  0
BLOCK_RECORD
  5
1CD
330
1
100
AcDbSymbolTableRecord
100
AcDbBlockTableRecord
  2
*U43
340
0
102
{BLKREFS
331
291
102
}
  0
ENDTAB
  0
ENDSEC
  0
SECTION
  2
BLOCKS
  0
BLOCK
  5
293
330
1D
100
AcDbEntity
  8
0
100
AcDbBlockBegin
  2
*Model_Space
 70
     0
 71
     0
 10
0.0
 20
0.0
 30
0.0
  3
*Model_Space
  1

  0
ENDBLK
  5
294
330
1D
100
AcDbEntity
  8
0
100
AcDbBlockEnd
  0
BLOCK
  5
295
330
1B
100
AcDbEntity
 67
     1
  8
0
100
AcDbBlockBegin
  2
*Paper_Space
 70
     0
 71
     0
 10
0.0
 20
0.0
 30
0.0
  3
*Paper_Space
  1

  0
ENDBLK
  5
296
330
1B
100
AcDbEntity
 67
     1
  8
0
100
AcDbBlockEnd
  0
BLOCK
  5
5C
330
5D
100
AcDbEntity
  8
0
100
AcDbBlockBegin
  2
*U0
 70
     1
 71
     0
 10
0.0
 20
0.0
 30
0.0
  3
*U0
  1

  0
LINE
  5
5E
330
5D
100
AcDbEntity
  8
型材断面
  6
Continuous
100
AcDbLine
 10
195.0
 20
133.5
 30
0.0
 11
195.0
 21
-133.5
 31
0.0
  0
LINE
  5
5F
330
5D
100
AcDbEntity
  8
型材断面
  6
Continuous
100
AcDbLine
 10
195.0
 20
-133.5
 30
0.0
 11
-185.0
 21
-133.5
 31
0.0
  0
LINE
  5
60
330
5D
100
AcDbEntity
  8
型材断面
  6
Continuous
100
AcDbLine
 10
-185.0
 20
-133.5
 30
0.0
 11
-185.0
 21
133.5
 31
0.0
  0
LINE
  5
61
330
5D
100
AcDbEntity
  8
型材断面
  6
Continuous
100
AcDbLine
 10
195.0
 20
133.5
 30
0.0
 11
-185.0
 21
133.5
 31
0.0
  0
LINE
  5
62
330
5D
100
AcDbEntity
  8
型材断面
  6
Continuous
100
AcDbLine
 10
145.0
 20
-133.5
 30
0.0
 11
145.0
 21
-118.5
 31
0.0
  0
LINE
  5
63
330
5D
100
AcDbEntity
  8
型材断面
  6
Continuous
100
AcDbLine
 10
195.0
 20
-118.5
 30
0.0
 11
145.0
 21
-118.5
 31
0.0
  0
ENDBLK
  5
64
330
5D
100
AcDbEntity
  8
0
100
AcDbBlockEnd
  0
BLOCK
  5
65
330
66
100
AcDbEntity
  8
0
100
AcDbBlockBegin
  2
*U1
 70
     1
 71
     0
 10
0.0
 20
0.0
 30
0.0
  3
*U1
  1

  0
LINE
  5
67
330
66
100
AcDbEntity
  8
寸法
  6
ByBlock
 62
     0
100
AcDbLine
 10
-95.755937
 20
-35.080245
 30
0.0
 11
-95.755937
 21
-33.416065
 31
0.0
  0
LINE
  5
68
330
66
100
AcDbEntity
  8
寸法
  6
ByBlock
 62
     0
100
AcDbLine
 10
-30.755937
 20
-35.080245
 30
0.0
 11
-30.755937
 21
-33.416065
 31
0.0
  0
LINE
  5
69
330
66
100
AcDbEntity
  8
寸法
  6
ByBlock
 62
     0
100
AcDbLine
 10
-95.755937
 20
-33.416065
 30
0.0
 11
-30.755937
 21
-33.416065
 31
0.0
  0
POINT
  5
6A
330
66
100
AcDbEntity
  8
寸法
 62
     0
100
AcDbPoint
 10
-95.755937
 20
-33.416065
 30
0.0
  0
POINT
  5
6B
330
66
100
AcDbEntity
  8
寸法
 62
     0
100
AcDbPoint
 10
-30.755937
 20
-33.416065
 30
0.0
  0
TEXT
  5
6C
330
66
100
AcDbEntity
  8
寸法
  6
Continuous
 62
     0
100
AcDbText
 10
-74.99375000000001
 20
-33.05
 30
0.0
 40
3.0
  1
呼称寸法　1300
  7
TextStyle03
 72
     5
 11
-51.55625
 21
-33.05
 31
0.0
100
AcDbText
  0
ENDBLK
  5
6D
330
66
100
AcDbEntity
  8
0
100
AcDbBlockEnd
  0
BLOCK
  5
6E
330
6F
100
AcDbEntity
  8
0
100
AcDbBlockBegin
  2
*U2
 70
     1
 71
     0
 10
0.0
 20
0.0
 30
0.0
  3
*U2
  1

  0
LINE
  5
70
330
6F
100
AcDbEntity
  8
寸法
  6
ByBlock
 62
     0
100
AcDbLine
 10
-62.255935
 20
-52.069873
 30
0.0
 11
-10.143282
 21
-52.069873
 31
0.0
  0
LINE
  5
71
330
6F
100
AcDbEntity
  8
寸法
  6
ByBlock
 62
     0
100
AcDbLine
 10
-10.143282
 20
-69.569873
 30
0.0
 11
-10.143282
 21
-52.069873
 31
0.0
  0
POINT
  5
72
330
6F
100
AcDbEntity
  8
寸法
 62
     0
100
AcDbPoint
 10
-10.143282
 20
-69.569873
 30
0.0
  0
POINT
  5
73
330
6F
100
AcDbEntity
  8
寸法
 62
     0
100
AcDbPoint
 10
-10.143282
 20
-52.069873
 30
0.0
  0
TEXT
  5
74
330
6F
100
AcDbEntity
  8
寸法
  6
Continuous
 62
     0
100
AcDbText
 10
-10.525
 20
-63.2875
 30
0.0
 40
3.0
  1
350
 50
90.0
  7
TextStyle03
 72
     5
 11
-10.525
 21
-58.4125
 31
0.0
100
AcDbText
  0
ENDBLK
  5
75
330
6F
100
AcDbEntity
  8
0
100
AcDbBlockEnd
  0
BLOCK
  5
76
330
77
100
AcDbEntity
  8
0
100
AcDbBlockBegin
  2
*U3
 70
     1
 71
     0
 10
0.0
 20
0.0
 30
0.0
  3
*U3
  1

  0
INSERT
  5
78
330
77
100
AcDbEntity
  8
補助線
  6
Continuous
100
AcDbBlockReference
  2
*U4
 10
0.0
 20
0.0
 30
0.0
  0
LINE
  5
79
330
77
100
AcDbEntity
  8
ボルト／ビス
  6
Continuous
100
AcDbLine
 10
-55.755937
 20
60.659058
 30
0.0
 11
-56.005937
 21
60.51472
 31
0.0
  0
LINE
  5
7A
330
77
100
AcDbEntity
  8
ボルト／ビス
  6
Continuous
100
AcDbLine
 10
-55.755937
 20
60.659058
 30
0.0
 11
-55.505937
 21
60.51472
 31
0.0
  0
LINE
  5
7B
330
77
100
AcDbEntity
  8
ボルト／ビス
  6
Continuous
100
AcDbLine
 10
-56.005937
 20
60.226045
 30
0.0
 11
-55.755937
 21
60.081708
 31
0.0
  0
LINE
  5
7C
330
77
100
AcDbEntity
  8
ボルト／ビス
  6
Continuous
100
AcDbLine
 10
-55.505937
 20
60.226045
 30
0.0
 11
-55.755937
 21
60.081708
 31
0.0
  0
CIRCLE
  5
7D
330
77
100
AcDbEntity
  8
ボルト／ビス
  6
Continuous
100
AcDbCircle
 10
-55.755937
 20
60.370383
 30
0.0
 40
0.25
  0
LINE
  5
7E
330
77
100
AcDbEntity
  8
ボルト／ビス
  6
Continuous
100
AcDbLine
 10
-55.505937
 20
60.51472
 30
0.0
 11
-55.505937
 21
60.226045
 31
0.0
  0
LINE
  5
7F
330
77
100
AcDbEntity
  8
ボルト／ビス
  6
Continuous
100
AcDbLine
 10
-56.005937
 20
60.226045
 30
0.0
 11
-56.005937
 21
60.51472
 31
0.0
  0
ENDBLK
  5
80
330
77
100
AcDbEntity
  8
0
100
AcDbBlockEnd
  0
BLOCK
  5
81
330
82
100
AcDbEntity
  8
0
100
AcDbBlockBegin
  2
*U4
 70
     1
 71
     0
 10
0.0
 20
0.0
 30
0.0
  3
*U4
  1

  0
LINE
  5
83
330
82
100
AcDbEntity
  8
補助線
  6
ByBlock
 62
     0
100
AcDbLine
 10
-55.630937
 20
60.370383
 30
0.0
 11
-55.880937
 21
60.370383
 31
0.0
  0
LINE
  5
84
330
82
100
AcDbEntity
  8
補助線
  6
ByBlock
 62
     0
100
AcDbLine
 10
-55.755937
 20
60.495383
 30
0.0
 11
-55.755937
 21
60.245383
 31
0.0
  0
ENDBLK
  5
85
330
82
100
AcDbEntity
  8
0
100
AcDbBlockEnd
  0
BLOCK
  5
86
330
87
100
AcDbEntity
  8
0
100
AcDbBlockBegin
  2
*U5
 70
     1
 71
     0
 10
0.0
 20
0.0
 30
0.0
  3
*U5
  1

  0
INSERT
  5
88
330
87
100
AcDbEntity
  8
補助線
  6
Continuous
100
AcDbBlockReference
  2
*U6
 10
0.0
 20
0.0
 30
0.0
  0
LINE
  5
89
330
87
100
AcDbEntity
  8
ボルト／ビス
  6
Continuous
100
AcDbLine
 10
-40.755937
 20
60.659058
 30
0.0
 11
-41.005937
 21
60.51472
 31
0.0
  0
LINE
  5
8A
330
87
100
AcDbEntity
  8
ボルト／ビス
  6
Continuous
100
AcDbLine
 10
-40.755937
 20
60.659058
 30
0.0
 11
-40.505937
 21
60.51472
 31
0.0
  0
LINE
  5
8B
330
87
100
AcDbEntity
  8
ボルト／ビス
  6
Continuous
100
AcDbLine
 10
-41.005937
 20
60.226045
 30
0.0
 11
-40.755937
 21
60.081708
 31
0.0
  0
LINE
  5
8C
330
87
100
AcDbEntity
  8
ボルト／ビス
  6
Continuous
100
AcDbLine
 10
-40.505937
 20
60.226045
 30
0.0
 11
-40.755937
 21
60.081708
 31
0.0
  0
CIRCLE
  5
8D
330
87
100
AcDbEntity
  8
ボルト／ビス
  6
Continuous
100
AcDbCircle
 10
-40.755937
 20
60.370383
 30
0.0
 40
0.25
  0
LINE
  5
8E
330
87
100
AcDbEntity
  8
ボルト／ビス
  6
Continuous
100
AcDbLine
 10
-40.505937
 20
60.51472
 30
0.0
 11
-40.505937
 21
60.226045
 31
0.0
  0
LINE
  5
8F
330
87
100
AcDbEntity
  8
ボルト／ビス
  6
Continuous
100
AcDbLine
 10
-41.005937
 20
60.226045
 30
0.0
 11
-41.005937
 21
60.51472
 31
0.0
  0
ENDBLK
  5
90
330
87
100
AcDbEntity
  8
0
100
AcDbBlockEnd
  0
BLOCK
  5
91
330
92
100
AcDbEntity
  8
0
100
AcDbBlockBegin
  2
*U6
 70
     1
 71
     0
 10
0.0
 20
0.0
 30
0.0
  3
*U6
  1

  0
LINE
  5
93
330
92
100
AcDbEntity
  8
補助線
  6
ByBlock
 62
     0
100
AcDbLine
 10
-40.630937
 20
60.370383
 30
0.0
 11
-40.880937
 21
60.370383
 31
0.0
  0
LINE
  5
94
330
92
100
AcDbEntity
  8
補助線
  6
ByBlock
 62
     0
100
AcDbLine
 10
-40.755937
 20
60.495383
 30
0.0
 11
-40.755937
 21
60.245383
 31
0.0
  0
ENDBLK
  5
95
330
92
100
AcDbEntity
  8
0
100
AcDbBlockEnd
  0
BLOCK
  5
96
330
97
100
AcDbEntity
  8
0
100
AcDbBlockBegin
  2
*U7
 70
     1
 71
     0
 10
0.0
 20
0.0
 30
0.0
  3
*U7
  1

  0
INSERT
  5
98
330
97
100
AcDbEntity
  8
補助線
  6
Continuous
100
AcDbBlockReference
  2
*U9
 10
0.0
 20
0.0
 30
0.0
  0
LINE
  5
99
330
97
100
AcDbEntity
  8
ボルト／ビス
  6
Continuous
100
AcDbLine
 10
-70.755937
 20
60.659058
 30
0.0
 11
-70.505937
 21
60.51472
 31
0.0
  0
LINE
  5
9A
330
97
100
AcDbEntity
  8
ボルト／ビス
  6
Continuous
100
AcDbLine
 10
-70.755937
 20
60.659058
 30
0.0
 11
-71.005937
 21
60.51472
 31
0.0
  0
LINE
  5
9B
330
97
100
AcDbEntity
  8
ボルト／ビス
  6
Continuous
100
AcDbLine
 10
-70.505937
 20
60.226045
 30
0.0
 11
-70.755937
 21
60.081708
 31
0.0
  0
LINE
  5
9C
330
97
100
AcDbEntity
  8
ボルト／ビス
  6
Continuous
100
AcDbLine
 10
-71.005937
 20
60.226045
 30
0.0
 11
-70.755937
 21
60.081708
 31
0.0
  0
CIRCLE
  5
9D
330
97
100
AcDbEntity
  8
ボルト／ビス
  6
Continuous
100
AcDbCircle
 10
-70.755937
 20
60.370383
 30
0.0
 40
0.25
  0
LINE
  5
9E
330
97
100
AcDbEntity
  8
ボルト／ビス
  6
Continuous
100
AcDbLine
 10
-71.005937
 20
60.51472
 30
0.0
 11
-71.005937
 21
60.226045
 31
0.0
  0
LINE
  5
9F
330
97
100
AcDbEntity
  8
ボルト／ビス
  6
Continuous
100
AcDbLine
 10
-70.505937
 20
60.226045
 30
0.0
 11
-70.505937
 21
60.51472
 31
0.0
  0
ENDBLK
  5
A0
330
97
100
AcDbEntity
  8
0
100
AcDbBlockEnd
  0
BLOCK
  5
A1
330
A2
100
AcDbEntity
  8
0
100
AcDbBlockBegin
  2
*U8
 70
     1
 71
     0
 10
0.0
 20
0.0
 30
0.0
  3
*U8
  1

  0
INSERT
  5
A3
330
A2
100
AcDbEntity
  8
補助線
  6
Continuous
100
AcDbBlockReference
  2
*U10
 10
0.0
 20
0.0
 30
0.0
  0
LINE
  5
A4
330
A2
100
AcDbEntity
  8
ボルト／ビス
  6
Continuous
100
AcDbLine
 10
-85.755937
 20
60.659058
 30
0.0
 11
-85.505937
 21
60.51472
 31
0.0
  0
LINE
  5
A5
330
A2
100
AcDbEntity
  8
ボルト／ビス
  6
Continuous
100
AcDbLine
 10
-85.755937
 20
60.659058
 30
0.0
 11
-86.005937
 21
60.51472
 31
0.0
  0
LINE
  5
A6
330
A2
100
AcDbEntity
  8
ボルト／ビス
  6
Continuous
100
AcDbLine
 10
-85.505937
 20
60.226045
 30
0.0
 11
-85.755937
 21
60.081708
 31
0.0
  0
LINE
  5
A7
330
A2
100
AcDbEntity
  8
ボルト／ビス
  6
Continuous
100
AcDbLine
 10
-86.005937
 20
60.226045
 30
0.0
 11
-85.755937
 21
60.081708
 31
0.0
  0
CIRCLE
  5
A8
330
A2
100
AcDbEntity
  8
ボルト／ビス
  6
Continuous
100
AcDbCircle
 10
-85.755937
 20
60.370383
 30
0.0
 40
0.25
  0
LINE
  5
A9
330
A2
100
AcDbEntity
  8
ボルト／ビス
  6
Continuous
100
AcDbLine
 10
-86.005937
 20
60.51472
 30
0.0
 11
-86.005937
 21
60.226045
 31
0.0
  0
LINE
  5
AA
330
A2
100
AcDbEntity
  8
ボルト／ビス
  6
Continuous
100
AcDbLine
 10
-85.505937
 20
60.226045
 30
0.0
 11
-85.505937
 21
60.51472
 31
0.0
  0
ENDBLK
  5
AB
330
A2
100
AcDbEntity
  8
0
100
AcDbBlockEnd
  0
BLOCK
  5
AC
330
AD
100
AcDbEntity
  8
0
100
AcDbBlockBegin
  2
*U9
 70
     1
 71
     0
 10
0.0
 20
0.0
 30
0.0
  3
*U9
  1

  0
LINE
  5
AE
330
AD
100
AcDbEntity
  8
補助線
  6
ByBlock
 62
     0
100
AcDbLine
 10
-70.880937
 20
60.370383
 30
0.0
 11
-70.630937
 21
60.370383
 31
0.0
  0
LINE
  5
AF
330
AD
100
AcDbEntity
  8
補助線
  6
ByBlock
 62
     0
100
AcDbLine
 10
-70.755937
 20
60.495383
 30
0.0
 11
-70.755937
 21
60.245383
 31
0.0
  0
ENDBLK
  5
B0
330
AD
100
AcDbEntity
  8
0
100
AcDbBlockEnd
  0
BLOCK
  5
B1
330
B2
100
AcDbEntity
  8
0
100
AcDbBlockBegin
  2
*U10
 70
     1
 71
     0
 10
0.0
 20
0.0
 30
0.0
  3
*U10
  1

  0
LINE
  5
B3
330
B2
100
AcDbEntity
  8
補助線
  6
ByBlock
 62
     0
100
AcDbLine
 10
-85.880937
 20
60.370383
 30
0.0
 11
-85.630937
 21
60.370383
 31
0.0
  0
LINE
  5
B4
330
B2
100
AcDbEntity
  8
補助線
  6
ByBlock
 62
     0
100
AcDbLine
 10
-85.755937
 20
60.495383
 30
0.0
 11
-85.755937
 21
60.245383
 31
0.0
  0
ENDBLK
  5
B5
330
B2
100
AcDbEntity
  8
0
100
AcDbBlockEnd
  0
BLOCK
  5
B6
330
B7
100
AcDbEntity
  8
0
100
AcDbBlockBegin
  2
*U11
 70
     1
 71
     0
 10
0.0
 20
0.0
 30
0.0
  3
*U11
  1

  0
INSERT
  5
B8
330
B7
100
AcDbEntity
  8
補助線
  6
Continuous
100
AcDbBlockReference
  2
*U13
 10
0.0
 20
0.0
 30
0.0
  0
LINE
  5
B9
330
B7
100
AcDbEntity
  8
ボルト／ビス
  6
Continuous
100
AcDbLine
 10
-97.04461000000001
 20
34.370385
 30
0.0
 11
-96.900273
 21
34.120385
 31
0.0
  0
LINE
  5
BA
330
B7
100
AcDbEntity
  8
ボルト／ビス
  6
Continuous
100
AcDbLine
 10
-97.04461000000001
 20
34.370385
 30
0.0
 11
-96.900273
 21
34.620385
 31
0.0
  0
LINE
  5
BB
330
B7
100
AcDbEntity
  8
ボルト／ビス
  6
Continuous
100
AcDbLine
 10
-96.611597
 20
34.120385
 30
0.0
 11
-96.46726
 21
34.370385
 31
0.0
  0
LINE
  5
BC
330
B7
100
AcDbEntity
  8
ボルト／ビス
  6
Continuous
100
AcDbLine
 10
-96.611597
 20
34.620385
 30
0.0
 11
-96.46726
 21
34.370385
 31
0.0
  0
CIRCLE
  5
BD
330
B7
100
AcDbEntity
  8
ボルト／ビス
  6
Continuous
100
AcDbCircle
 10
-96.75593499999999
 20
34.370385
 30
0.0
 40
0.25
  0
LINE
  5
BE
330
B7
100
AcDbEntity
  8
ボルト／ビス
  6
Continuous
100
AcDbLine
 10
-96.900273
 20
34.620385
 30
0.0
 11
-96.611597
 21
34.620385
 31
0.0
  0
LINE
  5
BF
330
B7
100
AcDbEntity
  8
ボルト／ビス
  6
Continuous
100
AcDbLine
 10
-96.611597
 20
34.120385
 30
0.0
 11
-96.900273
 21
34.120385
 31
0.0
  0
ENDBLK
  5
C0
330
B7
100
AcDbEntity
  8
0
100
AcDbBlockEnd
  0
BLOCK
  5
C1
330
C2
100
AcDbEntity
  8
0
100
AcDbBlockBegin
  2
*U12
 70
     1
 71
     0
 10
0.0
 20
0.0
 30
0.0
  3
*U12
  1

  0
INSERT
  5
C3
330
C2
100
AcDbEntity
  8
補助線
  6
Continuous
100
AcDbBlockReference
  2
*U14
 10
0.0
 20
0.0
 30
0.0
  0
LINE
  5
C4
330
C2
100
AcDbEntity
  8
ボルト／ビス
  6
Continuous
100
AcDbLine
 10
-97.04461000000001
 20
49.370385
 30
0.0
 11
-96.900273
 21
49.120385
 31
0.0
  0
LINE
  5
C5
330
C2
100
AcDbEntity
  8
ボルト／ビス
  6
Continuous
100
AcDbLine
 10
-97.04461000000001
 20
49.370385
 30
0.0
 11
-96.900273
 21
49.620385
 31
0.0
  0
LINE
  5
C6
330
C2
100
AcDbEntity
  8
ボルト／ビス
  6
Continuous
100
AcDbLine
 10
-96.611597
 20
49.120385
 30
0.0
 11
-96.46726
 21
49.370385
 31
0.0
  0
LINE
  5
C7
330
C2
100
AcDbEntity
  8
ボルト／ビス
  6
Continuous
100
AcDbLine
 10
-96.611597
 20
49.620385
 30
0.0
 11
-96.46726
 21
49.370385
 31
0.0
  0
CIRCLE
  5
C8
330
C2
100
AcDbEntity
  8
ボルト／ビス
  6
Continuous
100
AcDbCircle
 10
-96.75593499999999
 20
49.370385
 30
0.0
 40
0.25
  0
LINE
  5
C9
330
C2
100
AcDbEntity
  8
ボルト／ビス
  6
Continuous
100
AcDbLine
 10
-96.900273
 20
49.620385
 30
0.0
 11
-96.611597
 21
49.620385
 31
0.0
  0
LINE
  5
CA
330
C2
100
AcDbEntity
  8
ボルト／ビス
  6
Continuous
100
AcDbLine
 10
-96.611597
 20
49.120385
 30
0.0
 11
-96.900273
 21
49.120385
 31
0.0
  0
ENDBLK
  5
CB
330
C2
100
AcDbEntity
  8
0
100
AcDbBlockEnd
  0
BLOCK
  5
CC
330
CD
100
AcDbEntity
  8
0
100
AcDbBlockBegin
  2
*U13
 70
     1
 71
     0
 10
0.0
 20
0.0
 30
0.0
  3
*U13
  1

  0
LINE
  5
CE
330
CD
100
AcDbEntity
  8
補助線
  6
ByBlock
 62
     0
100
AcDbLine
 10
-96.75593499999999
 20
34.495385
 30
0.0
 11
-96.75593499999999
 21
34.245385
 31
0.0
  0
LINE
  5
CF
330
CD
100
AcDbEntity
  8
補助線
  6
ByBlock
 62
     0
100
AcDbLine
 10
-96.88093499999999
 20
34.370385
 30
0.0
 11
-96.63093499999999
 21
34.370385
 31
0.0
  0
ENDBLK
  5
D0
330
CD
100
AcDbEntity
  8
0
100
AcDbBlockEnd
  0
BLOCK
  5
D1
330
D2
100
AcDbEntity
  8
0
100
AcDbBlockBegin
  2
*U14
 70
     1
 71
     0
 10
0.0
 20
0.0
 30
0.0
  3
*U14
  1

  0
LINE
  5
D3
330
D2
100
AcDbEntity
  8
補助線
  6
ByBlock
 62
     0
100
AcDbLine
 10
-96.75593499999999
 20
49.495385
 30
0.0
 11
-96.75593499999999
 21
49.245385
 31
0.0
  0
LINE
  5
D4
330
D2
100
AcDbEntity
  8
補助線
  6
ByBlock
 62
     0
100
AcDbLine
 10
-96.88093499999999
 20
49.370385
 30
0.0
 11
-96.63093499999999
 21
49.370385
 31
0.0
  0
ENDBLK
  5
D5
330
D2
100
AcDbEntity
  8
0
100
AcDbBlockEnd
  0
BLOCK
  5
D6
330
D7
100
AcDbEntity
  8
0
100
AcDbBlockBegin
  2
*U15
 70
     1
 71
     0
 10
0.0
 20
0.0
 30
0.0
  3
*U15
  1

  0
INSERT
  5
D8
330
D7
100
AcDbEntity
  8
補助線
  6
Continuous
100
AcDbBlockReference
  2
*U17
 10
0.0
 20
0.0
 30
0.0
  0
LINE
  5
D9
330
D7
100
AcDbEntity
  8
ボルト／ビス
  6
Continuous
100
AcDbLine
 10
-97.04461000000001
 20
19.37038
 30
0.0
 11
-96.900273
 21
19.62038
 31
0.0
  0
LINE
  5
DA
330
D7
100
AcDbEntity
  8
ボルト／ビス
  6
Continuous
100
AcDbLine
 10
-97.04461000000001
 20
19.37038
 30
0.0
 11
-96.900273
 21
19.12038
 31
0.0
  0
LINE
  5
DB
330
D7
100
AcDbEntity
  8
ボルト／ビス
  6
Continuous
100
AcDbLine
 10
-96.611597
 20
19.62038
 30
0.0
 11
-96.46726
 21
19.37038
 31
0.0
  0
LINE
  5
DC
330
D7
100
AcDbEntity
  8
ボルト／ビス
  6
Continuous
100
AcDbLine
 10
-96.611597
 20
19.12038
 30
0.0
 11
-96.46726
 21
19.37038
 31
0.0
  0
CIRCLE
  5
DD
330
D7
100
AcDbEntity
  8
ボルト／ビス
  6
Continuous
100
AcDbCircle
 10
-96.75593499999999
 20
19.37038
 30
0.0
 40
0.25
  0
LINE
  5
DE
330
D7
100
AcDbEntity
  8
ボルト／ビス
  6
Continuous
100
AcDbLine
 10
-96.900273
 20
19.12038
 30
0.0
 11
-96.611597
 21
19.12038
 31
0.0
  0
LINE
  5
DF
330
D7
100
AcDbEntity
  8
ボルト／ビス
  6
Continuous
100
AcDbLine
 10
-96.611597
 20
19.62038
 30
0.0
 11
-96.900273
 21
19.62038
 31
0.0
  0
ENDBLK
  5
E0
330
D7
100
AcDbEntity
  8
0
100
AcDbBlockEnd
  0
BLOCK
  5
E1
330
E2
100
AcDbEntity
  8
0
100
AcDbBlockBegin
  2
*U16
 70
     1
 71
     0
 10
0.0
 20
0.0
 30
0.0
  3
*U16
  1

  0
INSERT
  5
E3
330
E2
100
AcDbEntity
  8
補助線
  6
Continuous
100
AcDbBlockReference
  2
*U18
 10
0.0
 20
0.0
 30
0.0
  0
LINE
  5
E4
330
E2
100
AcDbEntity
  8
ボルト／ビス
  6
Continuous
100
AcDbLine
 10
-97.04461000000001
 20
4.37038
 30
0.0
 11
-96.900273
 21
4.62038
 31
0.0
  0
LINE
  5
E5
330
E2
100
AcDbEntity
  8
ボルト／ビス
  6
Continuous
100
AcDbLine
 10
-97.04461000000001
 20
4.37038
 30
0.0
 11
-96.900273
 21
4.12038
 31
0.0
  0
LINE
  5
E6
330
E2
100
AcDbEntity
  8
ボルト／ビス
  6
Continuous
100
AcDbLine
 10
-96.611597
 20
4.62038
 30
0.0
 11
-96.46726
 21
4.37038
 31
0.0
  0
LINE
  5
E7
330
E2
100
AcDbEntity
  8
ボルト／ビス
  6
Continuous
100
AcDbLine
 10
-96.611597
 20
4.12038
 30
0.0
 11
-96.46726
 21
4.37038
 31
0.0
  0
CIRCLE
  5
E8
330
E2
100
AcDbEntity
  8
ボルト／ビス
  6
Continuous
100
AcDbCircle
 10
-96.75593499999999
 20
4.37038
 30
0.0
 40
0.25
  0
LINE
  5
E9
330
E2
100
AcDbEntity
  8
ボルト／ビス
  6
Continuous
100
AcDbLine
 10
-96.900273
 20
4.12038
 30
0.0
 11
-96.611597
 21
4.12038
 31
0.0
  0
LINE
  5
EA
330
E2
100
AcDbEntity
  8
ボルト／ビス
  6
Continuous
100
AcDbLine
 10
-96.611597
 20
4.62038
 30
0.0
 11
-96.900273
 21
4.62038
 31
0.0
  0
ENDBLK
  5
EB
330
E2
100
AcDbEntity
  8
0
100
AcDbBlockEnd
  0
BLOCK
  5
EC
330
ED
100
AcDbEntity
  8
0
100
AcDbBlockBegin
  2
*U17
 70
     1
 71
     0
 10
0.0
 20
0.0
 30
0.0
  3
*U17
  1

  0
LINE
  5
EE
330
ED
100
AcDbEntity
  8
補助線
  6
ByBlock
 62
     0
100
AcDbLine
 10
-96.75593499999999
 20
19.24538
 30
0.0
 11
-96.75593499999999
 21
19.49538
 31
0.0
  0
LINE
  5
EF
330
ED
100
AcDbEntity
  8
補助線
  6
ByBlock
 62
     0
100
AcDbLine
 10
-96.88093499999999
 20
19.37038
 30
0.0
 11
-96.63093499999999
 21
19.37038
 31
0.0
  0
ENDBLK
  5
F0
330
ED
100
AcDbEntity
  8
0
100
AcDbBlockEnd
  0
BLOCK
  5
F1
330
F2
100
AcDbEntity
  8
0
100
AcDbBlockBegin
  2
*U18
 70
     1
 71
     0
 10
0.0
 20
0.0
 30
0.0
  3
*U18
  1

  0
LINE
  5
F3
330
F2
100
AcDbEntity
  8
補助線
  6
ByBlock
 62
     0
100
AcDbLine
 10
-96.75593499999999
 20
4.24538
 30
0.0
 11
-96.75593499999999
 21
4.49538
 31
0.0
  0
LINE
  5
F4
330
F2
100
AcDbEntity
  8
補助線
  6
ByBlock
 62
     0
100
AcDbLine
 10
-96.88093499999999
 20
4.37038
 30
0.0
 11
-96.63093499999999
 21
4.37038
 31
0.0
  0
ENDBLK
  5
F5
330
F2
100
AcDbEntity
  8
0
100
AcDbBlockEnd
  0
BLOCK
  5
F6
330
F7
100
AcDbEntity
  8
0
100
AcDbBlockBegin
  2
*U19
 70
     1
 71
     0
 10
0.0
 20
0.0
 30
0.0
  3
*U19
  1

  0
INSERT
  5
F8
330
F7
100
AcDbEntity
  8
補助線
  6
Continuous
100
AcDbBlockReference
  2
*U21
 10
0.0
 20
0.0
 30
0.0
  0
LINE
  5
F9
330
F7
100
AcDbEntity
  8
ボルト／ビス
  6
Continuous
100
AcDbLine
 10
-70.75594
 20
-6.91829
 30
0.0
 11
-70.50594
 21
-6.773952
 31
0.0
  0
LINE
  5
FA
330
F7
100
AcDbEntity
  8
ボルト／ビス
  6
Continuous
100
AcDbLine
 10
-70.75594
 20
-6.91829
 30
0.0
 11
-71.00594
 21
-6.773952
 31
0.0
  0
LINE
  5
FB
330
F7
100
AcDbEntity
  8
ボルト／ビス
  6
Continuous
100
AcDbLine
 10
-70.50594
 20
-6.485278
 30
0.0
 11
-70.75594
 21
-6.34094
 31
0.0
  0
LINE
  5
FC
330
F7
100
AcDbEntity
  8
ボルト／ビス
  6
Continuous
100
AcDbLine
 10
-71.00594
 20
-6.485278
 30
0.0
 11
-70.75594
 21
-6.34094
 31
0.0
  0
CIRCLE
  5
FD
330
F7
100
AcDbEntity
  8
ボルト／ビス
  6
Continuous
100
AcDbCircle
 10
-70.75594
 20
-6.629615
 30
0.0
 40
0.25
  0
LINE
  5
FE
330
F7
100
AcDbEntity
  8
ボルト／ビス
  6
Continuous
100
AcDbLine
 10
-71.00594
 20
-6.773952
 30
0.0
 11
-71.00594
 21
-6.485278
 31
0.0
  0
LINE
  5
FF
330
F7
100
AcDbEntity
  8
ボルト／ビス
  6
Continuous
100
AcDbLine
 10
-70.50594
 20
-6.485278
 30
0.0
 11
-70.50594
 21
-6.773952
 31
0.0
  0
ENDBLK
  5
100
330
F7
100
AcDbEntity
  8
0
100
AcDbBlockEnd
  0
BLOCK
  5
101
330
102
100
AcDbEntity
  8
0
100
AcDbBlockBegin
  2
*U20
 70
     1
 71
     0
 10
0.0
 20
0.0
 30
0.0
  3
*U20
  1

  0
INSERT
  5
103
330
102
100
AcDbEntity
  8
補助線
  6
Continuous
100
AcDbBlockReference
  2
*U22
 10
0.0
 20
0.0
 30
0.0
  0
LINE
  5
104
330
102
100
AcDbEntity
  8
ボルト／ビス
  6
Continuous
100
AcDbLine
 10
-85.75594
 20
-6.91829
 30
0.0
 11
-85.50594
 21
-6.773952
 31
0.0
  0
LINE
  5
105
330
102
100
AcDbEntity
  8
ボルト／ビス
  6
Continuous
100
AcDbLine
 10
-85.75594
 20
-6.91829
 30
0.0
 11
-86.00594
 21
-6.773952
 31
0.0
  0
LINE
  5
106
330
102
100
AcDbEntity
  8
ボルト／ビス
  6
Continuous
100
AcDbLine
 10
-85.50594
 20
-6.485278
 30
0.0
 11
-85.75594
 21
-6.34094
 31
0.0
  0
LINE
  5
107
330
102
100
AcDbEntity
  8
ボルト／ビス
  6
Continuous
100
AcDbLine
 10
-86.00594
 20
-6.485278
 30
0.0
 11
-85.75594
 21
-6.34094
 31
0.0
  0
CIRCLE
  5
108
330
102
100
AcDbEntity
  8
ボルト／ビス
  6
Continuous
100
AcDbCircle
 10
-85.75594
 20
-6.629615
 30
0.0
 40
0.25
  0
LINE
  5
109
330
102
100
AcDbEntity
  8
ボルト／ビス
  6
Continuous
100
AcDbLine
 10
-86.00594
 20
-6.773952
 30
0.0
 11
-86.00594
 21
-6.485278
 31
0.0
  0
LINE
  5
10A
330
102
100
AcDbEntity
  8
ボルト／ビス
  6
Continuous
100
AcDbLine
 10
-85.50594
 20
-6.485278
 30
0.0
 11
-85.50594
 21
-6.773952
 31
0.0
  0
ENDBLK
  5
10B
330
102
100
AcDbEntity
  8
0
100
AcDbBlockEnd
  0
BLOCK
  5
10C
330
10D
100
AcDbEntity
  8
0
100
AcDbBlockBegin
  2
*U21
 70
     1
 71
     0
 10
0.0
 20
0.0
 30
0.0
  3
*U21
  1

  0
LINE
  5
10E
330
10D
100
AcDbEntity
  8
補助線
  6
ByBlock
 62
     0
100
AcDbLine
 10
-70.88094
 20
-6.629615
 30
0.0
 11
-70.63094
 21
-6.629615
 31
0.0
  0
LINE
  5
10F
330
10D
100
AcDbEntity
  8
補助線
  6
ByBlock
 62
     0
100
AcDbLine
 10
-70.75594
 20
-6.754615
 30
0.0
 11
-70.75594
 21
-6.504615
 31
0.0
  0
ENDBLK
  5
110
330
10D
100
AcDbEntity
  8
0
100
AcDbBlockEnd
  0
BLOCK
  5
111
330
112
100
AcDbEntity
  8
0
100
AcDbBlockBegin
  2
*U22
 70
     1
 71
     0
 10
0.0
 20
0.0
 30
0.0
  3
*U22
  1

  0
LINE
  5
113
330
112
100
AcDbEntity
  8
補助線
  6
ByBlock
 62
     0
100
AcDbLine
 10
-85.88094
 20
-6.629615
 30
0.0
 11
-85.63094
 21
-6.629615
 31
0.0
  0
LINE
  5
114
330
112
100
AcDbEntity
  8
補助線
  6
ByBlock
 62
     0
100
AcDbLine
 10
-85.75594
 20
-6.754615
 30
0.0
 11
-85.75594
 21
-6.504615
 31
0.0
  0
ENDBLK
  5
115
330
112
100
AcDbEntity
  8
0
100
AcDbBlockEnd
  0
BLOCK
  5
116
330
117
100
AcDbEntity
  8
0
100
AcDbBlockBegin
  2
*U23
 70
     1
 71
     0
 10
0.0
 20
0.0
 30
0.0
  3
*U23
  1

  0
INSERT
  5
118
330
117
100
AcDbEntity
  8
補助線
  6
Continuous
100
AcDbBlockReference
  2
*U25
 10
0.0
 20
0.0
 30
0.0
  0
LINE
  5
119
330
117
100
AcDbEntity
  8
ボルト／ビス
  6
Continuous
100
AcDbLine
 10
-55.755935
 20
-6.91829
 30
0.0
 11
-56.005935
 21
-6.773952
 31
0.0
  0
LINE
  5
11A
330
117
100
AcDbEntity
  8
ボルト／ビス
  6
Continuous
100
AcDbLine
 10
-55.755935
 20
-6.91829
 30
0.0
 11
-55.505935
 21
-6.773952
 31
0.0
  0
LINE
  5
11B
330
117
100
AcDbEntity
  8
ボルト／ビス
  6
Continuous
100
AcDbLine
 10
-56.005935
 20
-6.485278
 30
0.0
 11
-55.755935
 21
-6.34094
 31
0.0
  0
LINE
  5
11C
330
117
100
AcDbEntity
  8
ボルト／ビス
  6
Continuous
100
AcDbLine
 10
-55.505935
 20
-6.485278
 30
0.0
 11
-55.755935
 21
-6.34094
 31
0.0
  0
CIRCLE
  5
11D
330
117
100
AcDbEntity
  8
ボルト／ビス
  6
Continuous
100
AcDbCircle
 10
-55.755935
 20
-6.629615
 30
0.0
 40
0.25
  0
LINE
  5
11E
330
117
100
AcDbEntity
  8
ボルト／ビス
  6
Continuous
100
AcDbLine
 10
-55.505935
 20
-6.773952
 30
0.0
 11
-55.505935
 21
-6.485278
 31
0.0
  0
LINE
  5
11F
330
117
100
AcDbEntity
  8
ボルト／ビス
  6
Continuous
100
AcDbLine
 10
-56.005935
 20
-6.485278
 30
0.0
 11
-56.005935
 21
-6.773952
 31
0.0
  0
ENDBLK
  5
120
330
117
100
AcDbEntity
  8
0
100
AcDbBlockEnd
  0
BLOCK
  5
121
330
122
100
AcDbEntity
  8
0
100
AcDbBlockBegin
  2
*U24
 70
     1
 71
     0
 10
0.0
 20
0.0
 30
0.0
  3
*U24
  1

  0
INSERT
  5
123
330
122
100
AcDbEntity
  8
補助線
  6
Continuous
100
AcDbBlockReference
  2
*U26
 10
0.0
 20
0.0
 30
0.0
  0
LINE
  5
124
330
122
100
AcDbEntity
  8
ボルト／ビス
  6
Continuous
100
AcDbLine
 10
-40.755935
 20
-6.91829
 30
0.0
 11
-41.005935
 21
-6.773952
 31
0.0
  0
LINE
  5
125
330
122
100
AcDbEntity
  8
ボルト／ビス
  6
Continuous
100
AcDbLine
 10
-40.755935
 20
-6.91829
 30
0.0
 11
-40.505935
 21
-6.773952
 31
0.0
  0
LINE
  5
126
330
122
100
AcDbEntity
  8
ボルト／ビス
  6
Continuous
100
AcDbLine
 10
-41.005935
 20
-6.485278
 30
0.0
 11
-40.755935
 21
-6.34094
 31
0.0
  0
LINE
  5
127
330
122
100
AcDbEntity
  8
ボルト／ビス
  6
Continuous
100
AcDbLine
 10
-40.505935
 20
-6.485278
 30
0.0
 11
-40.755935
 21
-6.34094
 31
0.0
  0
CIRCLE
  5
128
330
122
100
AcDbEntity
  8
ボルト／ビス
  6
Continuous
100
AcDbCircle
 10
-40.755935
 20
-6.629615
 30
0.0
 40
0.25
  0
LINE
  5
129
330
122
100
AcDbEntity
  8
ボルト／ビス
  6
Continuous
100
AcDbLine
 10
-40.505935
 20
-6.773952
 30
0.0
 11
-40.505935
 21
-6.485278
 31
0.0
  0
LINE
  5
12A
330
122
100
AcDbEntity
  8
ボルト／ビス
  6
Continuous
100
AcDbLine
 10
-41.005935
 20
-6.485278
 30
0.0
 11
-41.005935
 21
-6.773952
 31
0.0
  0
ENDBLK
  5
12B
330
122
100
AcDbEntity
  8
0
100
AcDbBlockEnd
  0
BLOCK
  5
12C
330
12D
100
AcDbEntity
  8
0
100
AcDbBlockBegin
  2
*U25
 70
     1
 71
     0
 10
0.0
 20
0.0
 30
0.0
  3
*U25
  1

  0
LINE
  5
12E
330
12D
100
AcDbEntity
  8
補助線
  6
ByBlock
 62
     0
100
AcDbLine
 10
-55.630935
 20
-6.629615
 30
0.0
 11
-55.880935
 21
-6.629615
 31
0.0
  0
LINE
  5
12F
330
12D
100
AcDbEntity
  8
補助線
  6
ByBlock
 62
     0
100
AcDbLine
 10
-55.755935
 20
-6.754615
 30
0.0
 11
-55.755935
 21
-6.504615
 31
0.0
  0
ENDBLK
  5
130
330
12D
100
AcDbEntity
  8
0
100
AcDbBlockEnd
  0
BLOCK
  5
131
330
132
100
AcDbEntity
  8
0
100
AcDbBlockBegin
  2
*U26
 70
     1
 71
     0
 10
0.0
 20
0.0
 30
0.0
  3
*U26
  1

  0
LINE
  5
133
330
132
100
AcDbEntity
  8
補助線
  6
ByBlock
 62
     0
100
AcDbLine
 10
-40.630935
 20
-6.629615
 30
0.0
 11
-40.880935
 21
-6.629615
 31
0.0
  0
LINE
  5
134
330
132
100
AcDbEntity
  8
補助線
  6
ByBlock
 62
     0
100
AcDbLine
 10
-40.755935
 20
-6.754615
 30
0.0
 11
-40.755935
 21
-6.504615
 31
0.0
  0
ENDBLK
  5
135
330
132
100
AcDbEntity
  8
0
100
AcDbBlockEnd
  0
BLOCK
  5
136
330
137
100
AcDbEntity
  8
0
100
AcDbBlockBegin
  2
*U27
 70
     1
 71
     0
 10
0.0
 20
0.0
 30
0.0
  3
*U27
  1

  0
INSERT
  5
138
330
137
100
AcDbEntity
  8
補助線
  6
Continuous
100
AcDbBlockReference
  2
*U29
 10
0.0
 20
0.0
 30
0.0
  0
LINE
  5
139
330
137
100
AcDbEntity
  8
ボルト／ビス
  6
Continuous
100
AcDbLine
 10
-29.467263
 20
19.370383
 30
0.0
 11
-29.6116
 21
19.620383
 31
0.0
  0
LINE
  5
13A
330
137
100
AcDbEntity
  8
ボルト／ビス
  6
Continuous
100
AcDbLine
 10
-29.467263
 20
19.370383
 30
0.0
 11
-29.6116
 21
19.120383
 31
0.0
  0
LINE
  5
13B
330
137
100
AcDbEntity
  8
ボルト／ビス
  6
Continuous
100
AcDbLine
 10
-29.900275
 20
19.620383
 30
0.0
 11
-30.044613
 21
19.370383
 31
0.0
  0
LINE
  5
13C
330
137
100
AcDbEntity
  8
ボルト／ビス
  6
Continuous
100
AcDbLine
 10
-29.900275
 20
19.120383
 30
0.0
 11
-30.044613
 21
19.370383
 31
0.0
  0
CIRCLE
  5
13D
330
137
100
AcDbEntity
  8
ボルト／ビス
  6
Continuous
100
AcDbCircle
 10
-29.755937
 20
19.370383
 30
0.0
 40
0.25
  0
LINE
  5
13E
330
137
100
AcDbEntity
  8
ボルト／ビス
  6
Continuous
100
AcDbLine
 10
-29.6116
 20
19.120383
 30
0.0
 11
-29.900275
 21
19.120383
 31
0.0
  0
LINE
  5
13F
330
137
100
AcDbEntity
  8
ボルト／ビス
  6
Continuous
100
AcDbLine
 10
-29.900275
 20
19.620383
 30
0.0
 11
-29.6116
 21
19.620383
 31
0.0
  0
ENDBLK
  5
140
330
137
100
AcDbEntity
  8
0
100
AcDbBlockEnd
  0
BLOCK
  5
141
330
142
100
AcDbEntity
  8
0
100
AcDbBlockBegin
  2
*U28
 70
     1
 71
     0
 10
0.0
 20
0.0
 30
0.0
  3
*U28
  1

  0
INSERT
  5
143
330
142
100
AcDbEntity
  8
補助線
  6
Continuous
100
AcDbBlockReference
  2
*U30
 10
0.0
 20
0.0
 30
0.0
  0
LINE
  5
144
330
142
100
AcDbEntity
  8
ボルト／ビス
  6
Continuous
100
AcDbLine
 10
-29.467263
 20
4.370383
 30
0.0
 11
-29.6116
 21
4.620383
 31
0.0
  0
LINE
  5
145
330
142
100
AcDbEntity
  8
ボルト／ビス
  6
Continuous
100
AcDbLine
 10
-29.467263
 20
4.370383
 30
0.0
 11
-29.6116
 21
4.120383
 31
0.0
  0
LINE
  5
146
330
142
100
AcDbEntity
  8
ボルト／ビス
  6
Continuous
100
AcDbLine
 10
-29.900275
 20
4.620383
 30
0.0
 11
-30.044613
 21
4.370383
 31
0.0
  0
LINE
  5
147
330
142
100
AcDbEntity
  8
ボルト／ビス
  6
Continuous
100
AcDbLine
 10
-29.900275
 20
4.120383
 30
0.0
 11
-30.044613
 21
4.370383
 31
0.0
  0
CIRCLE
  5
148
330
142
100
AcDbEntity
  8
ボルト／ビス
  6
Continuous
100
AcDbCircle
 10
-29.755937
 20
4.370383
 30
0.0
 40
0.25
  0
LINE
  5
149
330
142
100
AcDbEntity
  8
ボルト／ビス
  6
Continuous
100
AcDbLine
 10
-29.6116
 20
4.120383
 30
0.0
 11
-29.900275
 21
4.120383
 31
0.0
  0
LINE
  5
14A
330
142
100
AcDbEntity
  8
ボルト／ビス
  6
Continuous
100
AcDbLine
 10
-29.900275
 20
4.620383
 30
0.0
 11
-29.6116
 21
4.620383
 31
0.0
  0
ENDBLK
  5
14B
330
142
100
AcDbEntity
  8
0
100
AcDbBlockEnd
  0
BLOCK
  5
14C
330
14D
100
AcDbEntity
  8
0
100
AcDbBlockBegin
  2
*U29
 70
     1
 71
     0
 10
0.0
 20
0.0
 30
0.0
  3
*U29
  1

  0
LINE
  5
14E
330
14D
100
AcDbEntity
  8
補助線
  6
ByBlock
 62
     0
100
AcDbLine
 10
-29.755937
 20
19.245383
 30
0.0
 11
-29.755937
 21
19.495383
 31
0.0
  0
LINE
  5
14F
330
14D
100
AcDbEntity
  8
補助線
  6
ByBlock
 62
     0
100
AcDbLine
 10
-29.630937
 20
19.370383
 30
0.0
 11
-29.880937
 21
19.370383
 31
0.0
  0
ENDBLK
  5
150
330
14D
100
AcDbEntity
  8
0
100
AcDbBlockEnd
  0
BLOCK
  5
151
330
152
100
AcDbEntity
  8
0
100
AcDbBlockBegin
  2
*U30
 70
     1
 71
     0
 10
0.0
 20
0.0
 30
0.0
  3
*U30
  1

  0
LINE
  5
153
330
152
100
AcDbEntity
  8
補助線
  6
ByBlock
 62
     0
100
AcDbLine
 10
-29.755937
 20
4.245383
 30
0.0
 11
-29.755937
 21
4.495383
 31
0.0
  0
LINE
  5
154
330
152
100
AcDbEntity
  8
補助線
  6
ByBlock
 62
     0
100
AcDbLine
 10
-29.630937
 20
4.370383
 30
0.0
 11
-29.880937
 21
4.370383
 31
0.0
  0
ENDBLK
  5
155
330
152
100
AcDbEntity
  8
0
100
AcDbBlockEnd
  0
BLOCK
  5
156
330
157
100
AcDbEntity
  8
0
100
AcDbBlockBegin
  2
*U31
 70
     1
 71
     0
 10
0.0
 20
0.0
 30
0.0
  3
*U31
  1

  0
INSERT
  5
158
330
157
100
AcDbEntity
  8
補助線
  6
Continuous
100
AcDbBlockReference
  2
*U33
 10
0.0
 20
0.0
 30
0.0
  0
LINE
  5
159
330
157
100
AcDbEntity
  8
ボルト／ビス
  6
Continuous
100
AcDbLine
 10
-29.467263
 20
34.370383
 30
0.0
 11
-29.6116
 21
34.120383
 31
0.0
  0
LINE
  5
15A
330
157
100
AcDbEntity
  8
ボルト／ビス
  6
Continuous
100
AcDbLine
 10
-29.467263
 20
34.370383
 30
0.0
 11
-29.6116
 21
34.620383
 31
0.0
  0
LINE
  5
15B
330
157
100
AcDbEntity
  8
ボルト／ビス
  6
Continuous
100
AcDbLine
 10
-29.900275
 20
34.120383
 30
0.0
 11
-30.044613
 21
34.370383
 31
0.0
  0
LINE
  5
15C
330
157
100
AcDbEntity
  8
ボルト／ビス
  6
Continuous
100
AcDbLine
 10
-29.900275
 20
34.620383
 30
0.0
 11
-30.044613
 21
34.370383
 31
0.0
  0
CIRCLE
  5
15D
330
157
100
AcDbEntity
  8
ボルト／ビス
  6
Continuous
100
AcDbCircle
 10
-29.755937
 20
34.370383
 30
0.0
 40
0.25
  0
LINE
  5
15E
330
157
100
AcDbEntity
  8
ボルト／ビス
  6
Continuous
100
AcDbLine
 10
-29.6116
 20
34.620383
 30
0.0
 11
-29.900275
 21
34.620383
 31
0.0
  0
LINE
  5
15F
330
157
100
AcDbEntity
  8
ボルト／ビス
  6
Continuous
100
AcDbLine
 10
-29.900275
 20
34.120383
 30
0.0
 11
-29.6116
 21
34.120383
 31
0.0
  0
ENDBLK
  5
160
330
157
100
AcDbEntity
  8
0
100
AcDbBlockEnd
  0
BLOCK
  5
161
330
162
100
AcDbEntity
  8
0
100
AcDbBlockBegin
  2
*U32
 70
     1
 71
     0
 10
0.0
 20
0.0
 30
0.0
  3
*U32
  1

  0
INSERT
  5
163
330
162
100
AcDbEntity
  8
補助線
  6
Continuous
100
AcDbBlockReference
  2
*U34
 10
0.0
 20
0.0
 30
0.0
  0
LINE
  5
164
330
162
100
AcDbEntity
  8
ボルト／ビス
  6
Continuous
100
AcDbLine
 10
-29.467263
 20
49.370383
 30
0.0
 11
-29.6116
 21
49.120383
 31
0.0
  0
LINE
  5
165
330
162
100
AcDbEntity
  8
ボルト／ビス
  6
Continuous
100
AcDbLine
 10
-29.467263
 20
49.370383
 30
0.0
 11
-29.6116
 21
49.620383
 31
0.0
  0
LINE
  5
166
330
162
100
AcDbEntity
  8
ボルト／ビス
  6
Continuous
100
AcDbLine
 10
-29.900275
 20
49.120383
 30
0.0
 11
-30.044613
 21
49.370383
 31
0.0
  0
LINE
  5
167
330
162
100
AcDbEntity
  8
ボルト／ビス
  6
Continuous
100
AcDbLine
 10
-29.900275
 20
49.620383
 30
0.0
 11
-30.044613
 21
49.370383
 31
0.0
  0
CIRCLE
  5
168
330
162
100
AcDbEntity
  8
ボルト／ビス
  6
Continuous
100
AcDbCircle
 10
-29.755937
 20
49.370383
 30
0.0
 40
0.25
  0
LINE
  5
169
330
162
100
AcDbEntity
  8
ボルト／ビス
  6
Continuous
100
AcDbLine
 10
-29.6116
 20
49.620383
 30
0.0
 11
-29.900275
 21
49.620383
 31
0.0
  0
LINE
  5
16A
330
162
100
AcDbEntity
  8
ボルト／ビス
  6
Continuous
100
AcDbLine
 10
-29.900275
 20
49.120383
 30
0.0
 11
-29.6116
 21
49.120383
 31
0.0
  0
ENDBLK
  5
16B
330
162
100
AcDbEntity
  8
0
100
AcDbBlockEnd
  0
BLOCK
  5
16C
330
16D
100
AcDbEntity
  8
0
100
AcDbBlockBegin
  2
*U33
 70
     1
 71
     0
 10
0.0
 20
0.0
 30
0.0
  3
*U33
  1

  0
LINE
  5
16E
330
16D
100
AcDbEntity
  8
補助線
  6
ByBlock
 62
     0
100
AcDbLine
 10
-29.755937
 20
34.495383
 30
0.0
 11
-29.755937
 21
34.245383
 31
0.0
  0
LINE
  5
16F
330
16D
100
AcDbEntity
  8
補助線
  6
ByBlock
 62
     0
100
AcDbLine
 10
-29.630937
 20
34.370383
 30
0.0
 11
-29.880937
 21
34.370383
 31
0.0
  0
ENDBLK
  5
170
330
16D
100
AcDbEntity
  8
0
100
AcDbBlockEnd
  0
BLOCK
  5
171
330
172
100
AcDbEntity
  8
0
100
AcDbBlockBegin
  2
*U34
 70
     1
 71
     0
 10
0.0
 20
0.0
 30
0.0
  3
*U34
  1

  0
LINE
  5
173
330
172
100
AcDbEntity
  8
補助線
  6
ByBlock
 62
     0
100
AcDbLine
 10
-29.755937
 20
49.495383
 30
0.0
 11
-29.755937
 21
49.245383
 31
0.0
  0
LINE
  5
174
330
172
100
AcDbEntity
  8
補助線
  6
ByBlock
 62
     0
100
AcDbLine
 10
-29.630937
 20
49.370383
 30
0.0
 11
-29.880937
 21
49.370383
 31
0.0
  0
ENDBLK
  5
175
330
172
100
AcDbEntity
  8
0
100
AcDbBlockEnd
  0
BLOCK
  5
176
330
177
100
AcDbEntity
  8
0
100
AcDbBlockBegin
  2
*U35
 70
     1
 71
     0
 10
0.0
 20
0.0
 30
0.0
  3
*U35
  1

  0
LINE
  5
178
330
177
100
AcDbEntity
  8
寸法
  6
ByBlock
 62
     0
100
AcDbLine
 10
-80.755937
 20
82.238818
 30
0.0
 11
-80.755937
 21
92.59435499999999
 31
0.0
  0
LINE
  5
179
330
177
100
AcDbEntity
  8
寸法
  6
ByBlock
 62
     0
100
AcDbLine
 10
-45.755937
 20
82.238818
 30
0.0
 11
-45.755937
 21
92.59435499999999
 31
0.0
  0
LINE
  5
17A
330
177
100
AcDbEntity
  8
寸法
  6
ByBlock
 62
     0
100
AcDbLine
 10
-80.755937
 20
92.59435499999999
 30
0.0
 11
-45.755937
 21
92.59435499999999
 31
0.0
  0
POINT
  5
17B
330
177
100
AcDbEntity
  8
寸法
 62
     0
100
AcDbPoint
 10
-80.755937
 20
92.59435499999999
 30
0.0
  0
POINT
  5
17C
330
177
100
AcDbEntity
  8
寸法
 62
     0
100
AcDbPoint
 10
-45.755937
 20
92.59435499999999
 30
0.0
  0
TEXT
  5
17D
330
177
100
AcDbEntity
  8
寸法
  6
Continuous
 62
     0
100
AcDbText
 10
-65.71250000000001
 20
92.97499999999999
 30
0.0
 40
3.0
  1
700
  7
TextStyle03
 72
     5
 11
-60.8375
 21
92.97499999999999
 31
0.0
100
AcDbText
  0
ENDBLK
  5
17E
330
177
100
AcDbEntity
  8
0
100
AcDbBlockEnd
  0
BLOCK
  5
17F
330
180
100
AcDbEntity
  8
0
100
AcDbBlockBegin
  2
*U36
 70
     1
 71
     0
 10
0.0
 20
0.0
 30
0.0
  3
*U36
  1

  0
LINE
  5
181
330
180
100
AcDbEntity
  8
寸法
  6
ByBlock
 62
     0
100
AcDbLine
 10
-123.904373
 20
44.370385
 30
0.0
 11
-134.25991
 21
44.370385
 31
0.0
  0
LINE
  5
182
330
180
100
AcDbEntity
  8
寸法
  6
ByBlock
 62
     0
100
AcDbLine
 10
-123.904375
 20
9.370385000000001
 30
0.0
 11
-134.259912
 21
9.370385000000001
 31
0.0
  0
LINE
  5
183
330
180
100
AcDbEntity
  8
寸法
  6
ByBlock
 62
     0
100
AcDbLine
 10
-134.25991
 20
44.370385
 30
0.0
 11
-134.259912
 21
9.370385000000001
 31
0.0
  0
POINT
  5
184
330
180
100
AcDbEntity
  8
寸法
 62
     0
100
AcDbPoint
 10
-134.25991
 20
44.370385
 30
0.0
  0
POINT
  5
185
330
180
100
AcDbEntity
  8
寸法
 62
     0
100
AcDbPoint
 10
-134.259912
 20
9.370385000000001
 30
0.0
  0
TEXT
  5
186
330
180
100
AcDbEntity
  8
寸法
  6
Continuous
 62
     0
100
AcDbText
 10
-134.65
 20
24.4375
 30
0.0
 40
3.0
  1
700
 50
90.0
  7
TextStyle03
 72
     5
 11
-134.65
 21
29.3125
 31
0.0
100
AcDbText
  0
ENDBLK
  5
187
330
180
100
AcDbEntity
  8
0
100
AcDbBlockEnd
  0
BLOCK
  5
188
330
189
100
AcDbEntity
  8
0
100
AcDbBlockBegin
  2
*U37
 70
     1
 71
     0
 10
0.0
 20
0.0
 30
0.0
  3
*U37
  1

  0
LINE
  5
18A
330
189
100
AcDbEntity
  8
寸法
  6
ByBlock
 62
     0
100
AcDbLine
 10
-25.772807
 20
-69.569873
 30
0.0
 11
-10.143282
 21
-69.569873
 31
0.0
  0
LINE
  5
18B
330
189
100
AcDbEntity
  8
寸法
  6
ByBlock
 62
     0
100
AcDbLine
 10
-23.272805
 20
-75.32023
 30
0.0
 11
-10.143282
 21
-75.32023
 31
0.0
  0
LINE
  5
18C
330
189
100
AcDbEntity
  8
寸法
  6
ByBlock
 62
     0
100
AcDbLine
 10
-10.143282
 20
-69.569873
 30
0.0
 11
-10.143282
 21
-75.32023
 31
0.0
  0
POINT
  5
18D
330
189
100
AcDbEntity
  8
寸法
 62
     0
100
AcDbPoint
 10
-10.143282
 20
-69.569873
 30
0.0
  0
POINT
  5
18E
330
189
100
AcDbEntity
  8
寸法
 62
     0
100
AcDbPoint
 10
-10.143282
 20
-75.32023
 30
0.0
  0
TEXT
  5
18F
330
189
100
AcDbEntity
  8
寸法
  6
Continuous
 62
     0
100
AcDbText
 10
-10.55
 20
-74.8875
 30
0.0
 40
3.0
  1
115
 50
90.0
  7
TextStyle03
 72
     5
 11
-10.55
 21
-70.0125
 31
0.0
100
AcDbText
  0
ENDBLK
  5
190
330
189
100
AcDbEntity
  8
0
100
AcDbBlockEnd
  0
BLOCK
  5
191
330
192
100
AcDbEntity
  8
0
100
AcDbBlockBegin
  2
*U38
 70
     1
 71
     0
 10
0.0
 20
0.0
 30
0.0
  3
*U38
  1

  0
LINE
  5
193
330
192
100
AcDbEntity
  8
寸法
  6
ByBlock
 62
     0
100
AcDbLine
 10
-26.005933
 20
-71.57023
 30
0.0
 11
-26.005933
 21
-33.416065
 31
0.0
  0
LINE
  5
194
330
192
100
AcDbEntity
  8
寸法
  6
ByBlock
 62
     0
100
AcDbLine
 10
-30.755937
 20
-33.416065
 30
0.0
 11
-26.005933
 21
-33.416065
 31
0.0
  0
POINT
  5
195
330
192
100
AcDbEntity
  8
寸法
 62
     0
100
AcDbPoint
 10
-30.755937
 20
-33.416065
 30
0.0
  0
POINT
  5
196
330
192
100
AcDbEntity
  8
寸法
 62
     0
100
AcDbPoint
 10
-26.005933
 20
-33.416065
 30
0.0
  0
TEXT
  5
197
330
192
100
AcDbEntity
  8
寸法
  6
Continuous
 62
     0
100
AcDbText
 10
-29.99375
 20
-33.05
 30
0.0
 40
3.0
  1
95
  7
TextStyle03
 72
     5
 11
-26.80625
 21
-33.05
 31
0.0
100
AcDbText
  0
ENDBLK
  5
198
330
192
100
AcDbEntity
  8
0
100
AcDbBlockEnd
  0
BLOCK
  5
199
330
19A
100
AcDbEntity
  8
0
100
AcDbBlockBegin
  2
*U39
 70
     1
 71
     0
 10
0.0
 20
0.0
 30
0.0
  3
*U39
  1

  0
LINE
  5
19B
330
19A
100
AcDbEntity
  8
寸法
  6
ByBlock
 62
     0
100
AcDbLine
 10
-100.505943
 20
-71.57023
 30
0.0
 11
-100.505943
 21
-33.416065
 31
0.0
  0
LINE
  5
19C
330
19A
100
AcDbEntity
  8
寸法
  6
ByBlock
 62
     0
100
AcDbLine
 10
-95.755937
 20
-33.416065
 30
0.0
 11
-100.505943
 21
-33.416065
 31
0.0
  0
POINT
  5
19D
330
19A
100
AcDbEntity
  8
寸法
 62
     0
100
AcDbPoint
 10
-95.755937
 20
-33.416065
 30
0.0
  0
POINT
  5
19E
330
19A
100
AcDbEntity
  8
寸法
 62
     0
100
AcDbPoint
 10
-100.505943
 20
-33.416065
 30
0.0
  0
TEXT
  5
19F
330
19A
100
AcDbEntity
  8
寸法
  6
Continuous
 62
     0
100
AcDbText
 10
-99.74375000000001
 20
-33.05
 30
0.0
 40
3.0
  1
95
  7
TextStyle03
 72
     5
 11
-96.55625000000001
 21
-33.05
 31
0.0
100
AcDbText
  0
ENDBLK
  5
1A0
330
19A
100
AcDbEntity
  8
0
100
AcDbBlockEnd
  0
BLOCK
  5
1A1
330
1A2
100
AcDbEntity
  8
0
100
AcDbBlockBegin
  2
*U40
 70
     1
 71
     0
 10
0.0
 20
0.0
 30
0.0
  3
*U40
  1

  0
LINE
  5
1A3
330
1A2
100
AcDbEntity
  8
寸法
  6
ByBlock
 62
     0
100
AcDbLine
 10
170.054785
 20
74.30747700000001
 30
0.0
 11
179.869732
 21
74.30747700000001
 31
0.0
  0
LINE
  5
1A4
330
1A2
100
AcDbEntity
  8
寸法
  6
ByBlock
 62
     0
100
AcDbLine
 10
170.054785
 20
9.807477
 30
0.0
 11
179.869732
 21
9.807477
 31
0.0
  0
LINE
  5
1A5
330
1A2
100
AcDbEntity
  8
寸法
  6
ByBlock
 62
     0
100
AcDbLine
 10
179.869732
 20
74.30747700000001
 30
0.0
 11
179.869732
 21
9.807477
 31
0.0
  0
POINT
  5
1A6
330
1A2
100
AcDbEntity
  8
寸法
 62
     0
100
AcDbPoint
 10
179.869732
 20
74.30747700000001
 30
0.0
  0
POINT
  5
1A7
330
1A2
100
AcDbEntity
  8
寸法
 62
     0
100
AcDbPoint
 10
179.869732
 20
9.807477
 30
0.0
  0
TEXT
  5
1A8
330
1A2
100
AcDbEntity
  8
寸法
  6
Continuous
 62
     0
100
AcDbText
 10
179.475
 20
38.76875
 30
0.0
 40
3.0
  1
1290
 50
90.0
  7
TextStyle03
 72
     5
 11
179.475
 21
45.33125
 31
0.0
100
AcDbText
  0
ENDBLK
  5
1A9
330
1A2
100
AcDbEntity
  8
0
100
AcDbBlockEnd
  0
BLOCK
  5
1AA
330
1AB
100
AcDbEntity
  8
0
100
AcDbBlockBegin
  2
*U41
 70
     1
 71
     0
 10
0.0
 20
0.0
 30
0.0
  3
*U41
  1

  0
LINE
  5
1AC
330
1AB
100
AcDbEntity
  8
寸法
  6
ByBlock
 62
     0
100
AcDbLine
 10
167.054785
 20
77.30747700000001
 30
0.0
 11
167.054785
 21
87.12242500000001
 31
0.0
  0
LINE
  5
1AD
330
1AB
100
AcDbEntity
  8
寸法
  6
ByBlock
 62
     0
100
AcDbLine
 10
102.554785
 20
77.30747700000001
 30
0.0
 11
102.554785
 21
87.12242500000001
 31
0.0
  0
LINE
  5
1AE
330
1AB
100
AcDbEntity
  8
寸法
  6
ByBlock
 62
     0
100
AcDbLine
 10
167.054785
 20
87.12242500000001
 30
0.0
 11
102.554785
 21
87.12242500000001
 31
0.0
  0
POINT
  5
1AF
330
1AB
100
AcDbEntity
  8
寸法
 62
     0
100
AcDbPoint
 10
167.054785
 20
87.12242500000001
 30
0.0
  0
POINT
  5
1B0
330
1AB
100
AcDbEntity
  8
寸法
 62
     0
100
AcDbPoint
 10
102.554785
 20
87.12242500000001
 30
0.0
  0
TEXT
  5
1B1
330
1AB
100
AcDbEntity
  8
寸法
  6
Continuous
 62
     0
100
AcDbText
 10
131.51875
 20
87.47499999999999
 30
0.0
 40
3.0
  1
1290
  7
TextStyle03
 72
     5
 11
138.08125
 21
87.47499999999999
 31
0.0
100
AcDbText
  0
ENDBLK
  5
1B2
330
1AB
100
AcDbEntity
  8
0
100
AcDbBlockEnd
  0
BLOCK
  5
1B3
330
1B4
100
AcDbEntity
  8
0
100
AcDbBlockBegin
  2
*U42
 70
     1
 71
     0
 10
0.0
 20
0.0
 30
0.0
  3
*U42
  1

  0
LINE
  5
1B5
330
1B4
100
AcDbEntity
  8
ボルト／ビス
  6
Continuous
100
AcDbLine
 10
-96.755937
 20
-69.569875
 30
0.0
 11
-96.755937
 21
-68.86987499999999
 31
0.0
  0
LINE
  5
1B6
330
1B4
100
AcDbEntity
  8
ボルト／ビス
  6
Continuous
100
AcDbLine
 10
-97.305937
 20
-69.569875
 30
0.0
 11
-97.305937
 21
-69.469875
 31
0.0
  0
LINE
  5
1B7
330
1B4
100
AcDbEntity
  8
ボルト／ビス
  6
Continuous
100
AcDbLine
 10
-97.305937
 20
-69.469875
 30
0.0
 11
-96.20593700000001
 21
-69.469875
 31
0.0
  0
LINE
  5
1B8
330
1B4
100
AcDbEntity
  8
ボルト／ビス
  6
Continuous
100
AcDbLine
 10
-96.20593700000001
 20
-69.469875
 30
0.0
 11
-96.20593700000001
 21
-69.569875
 31
0.0
  0
LINE
  5
1B9
330
1B4
100
AcDbEntity
  8
ボルト／ビス
  6
Continuous
100
AcDbLine
 10
-97.305937
 20
-69.569875
 30
0.0
 11
-96.20593700000001
 21
-69.569875
 31
0.0
  0
LINE
  5
1BA
330
1B4
100
AcDbEntity
  8
ボルト／ビス
  6
Continuous
100
AcDbLine
 10
-97.20593700000001
 20
-69.41987500000001
 30
0.0
 11
-97.20593700000001
 21
-69.469875
 31
0.0
  0
LINE
  5
1BB
330
1B4
100
AcDbEntity
  8
ボルト／ビス
  6
Continuous
100
AcDbLine
 10
-97.20593700000001
 20
-69.41987500000001
 30
0.0
 11
-96.305937
 21
-69.41987500000001
 31
0.0
  0
LINE
  5
1BC
330
1B4
100
AcDbEntity
  8
ボルト／ビス
  6
Continuous
100
AcDbLine
 10
-96.305937
 20
-69.41987500000001
 30
0.0
 11
-96.305937
 21
-69.469875
 31
0.0
  0
LINE
  5
1BD
330
1B4
100
AcDbEntity
  8
ボルト／ビス
  6
Continuous
 62
    64
100
AcDbLine
 10
-96.9965
 20
-69.11987499999999
 30
0.0
 11
-97.044613
 21
-69.137388
 31
0.0
  0
ARC
  5
1BE
330
1B4
100
AcDbEntity
  8
ボルト／ビス
  6
Continuous
 62
    64
100
AcDbCircle
 10
-96.972444
 20
-69.277344
 30
0.0
 40
0.157468
100
AcDbArc
 50
62.721967
 51
90.0
  0
ARC
  5
1BF
330
1B4
100
AcDbEntity
  8
ボルト／ビス
  6
Continuous
 62
    64
100
AcDbCircle
 10
-96.755937
 20
-69.72348
 30
0.0
 40
0.603603
100
AcDbArc
 50
76.165002
 51
103.834985
  0
LINE
  5
1C0
330
1B4
100
AcDbEntity
  8
ボルト／ビス
  6
Continuous
 62
    64
100
AcDbLine
 10
-96.51537500000001
 20
-69.11987499999999
 30
0.0
 11
-96.467263
 21
-69.137388
 31
0.0
  0
ARC
  5
1C1
330
1B4
100
AcDbEntity
  8
ボルト／ビス
  6
Continuous
 62
    64
100
AcDbCircle
 10
-96.53943099999999
 20
-69.277344
 30
0.0
 40
0.157468
100
AcDbArc
 50
90.0
 51
117.278033
  0
LINE
  5
1C2
330
1B4
100
AcDbEntity
  8
ボルト／ビス
  6
Continuous
 62
    64
100
AcDbLine
 10
-96.9965
 20
-69.11987499999999
 30
0.0
 11
-96.51537500000001
 21
-69.11987499999999
 31
0.0
  0
LINE
  5
1C3
330
1B4
100
AcDbEntity
  8
ボルト／ビス
  6
Continuous
 62
    64
100
AcDbLine
 10
-96.467263
 20
-69.137388
 30
0.0
 11
-96.467263
 21
-69.319875
 31
0.0
  0
LINE
  5
1C4
330
1B4
100
AcDbEntity
  8
ボルト／ビス
  6
Continuous
 62
    64
100
AcDbLine
 10
-96.6116
 20
-69.137388
 30
0.0
 11
-96.6116
 21
-69.319875
 31
0.0
  0
LINE
  5
1C5
330
1B4
100
AcDbEntity
  8
ボルト／ビス
  6
Continuous
 62
    64
100
AcDbLine
 10
-97.044613
 20
-69.137388
 30
0.0
 11
-97.044613
 21
-69.319875
 31
0.0
  0
LINE
  5
1C6
330
1B4
100
AcDbEntity
  8
ボルト／ビス
  6
Continuous
 62
    64
100
AcDbLine
 10
-96.90027499999999
 20
-69.137388
 30
0.0
 11
-96.90027499999999
 21
-69.319875
 31
0.0
  0
LINE
  5
1C7
330
1B4
100
AcDbEntity
  8
ボルト／ビス
  6
Continuous
100
AcDbLine
 10
-97.044613
 20
-69.319875
 30
0.0
 11
-96.467263
 21
-69.319875
 31
0.0
  0
LINE
  5
1C8
330
1B4
100
AcDbEntity
  8
ボルト／ビス
  6
Continuous
100
AcDbLine
 10
-97.055937
 20
-69.319875
 30
0.0
 11
-97.055937
 21
-69.41987500000001
 31
0.0
  0
LINE
  5
1C9
330
1B4
100
AcDbEntity
  8
ボルト／ビス
  6
Continuous
100
AcDbLine
 10
-97.055937
 20
-69.319875
 30
0.0
 11
-96.45593700000001
 21
-69.319875
 31
0.0
  0
LINE
  5
1CA
330
1B4
100
AcDbEntity
  8
ボルト／ビス
  6
Continuous
100
AcDbLine
 10
-96.45593700000001
 20
-69.319875
 30
0.0
 11
-96.45593700000001
 21
-69.41987500000001
 31
0.0
  0
ENDBLK
  5
1CB
330
1B4
100
AcDbEntity
  8
0
100
AcDbBlockEnd
  0
BLOCK
  5
1CC
330
1CD
100
AcDbEntity
  8
0
100
AcDbBlockBegin
  2
*U43
 70
     1
 71
     0
 10
0.0
 20
0.0
 30
0.0
  3
*U43
  1

  0
LINE
  5
1CE
330
1CD
100
AcDbEntity
  8
ボルト／ビス
  6
Continuous
100
AcDbLine
 10
-29.755937
 20
-69.569875
 30
0.0
 11
-29.755937
 21
-68.86987499999999
 31
0.0
  0
LINE
  5
1CF
330
1CD
100
AcDbEntity
  8
ボルト／ビス
  6
Continuous
100
AcDbLine
 10
-29.205937
 20
-69.569875
 30
0.0
 11
-29.205937
 21
-69.469875
 31
0.0
  0
LINE
  5
1D0
330
1CD
100
AcDbEntity
  8
ボルト／ビス
  6
Continuous
100
AcDbLine
 10
-29.205937
 20
-69.469875
 30
0.0
 11
-30.305937
 21
-69.469875
 31
0.0
  0
LINE
  5
1D1
330
1CD
100
AcDbEntity
  8
ボルト／ビス
  6
Continuous
100
AcDbLine
 10
-30.305937
 20
-69.469875
 30
0.0
 11
-30.305937
 21
-69.569875
 31
0.0
  0
LINE
  5
1D2
330
1CD
100
AcDbEntity
  8
ボルト／ビス
  6
Continuous
100
AcDbLine
 10
-29.205937
 20
-69.569875
 30
0.0
 11
-30.305937
 21
-69.569875
 31
0.0
  0
LINE
  5
1D3
330
1CD
100
AcDbEntity
  8
ボルト／ビス
  6
Continuous
100
AcDbLine
 10
-29.305937
 20
-69.41987500000001
 30
0.0
 11
-29.305937
 21
-69.469875
 31
0.0
  0
LINE
  5
1D4
330
1CD
100
AcDbEntity
  8
ボルト／ビス
  6
Continuous
100
AcDbLine
 10
-29.305937
 20
-69.41987500000001
 30
0.0
 11
-30.205937
 21
-69.41987500000001
 31
0.0
  0
LINE
  5
1D5
330
1CD
100
AcDbEntity
  8
ボルト／ビス
  6
Continuous
100
AcDbLine
 10
-30.205937
 20
-69.41987500000001
 30
0.0
 11
-30.205937
 21
-69.469875
 31
0.0
  0
LINE
  5
1D6
330
1CD
100
AcDbEntity
  8
ボルト／ビス
  6
Continuous
 62
    64
100
AcDbLine
 10
-29.515375
 20
-69.11987499999999
 30
0.0
 11
-29.467263
 21
-69.137388
 31
0.0
  0
ARC
  5
1D7
330
1CD
100
AcDbEntity
  8
ボルト／ビス
  6
Continuous
 62
    64
100
AcDbCircle
 10
-29.539431
 20
-69.277344
 30
0.0
 40
0.157468
100
AcDbArc
 50
90.0
 51
117.278033
  0
ARC
  5
1D8
330
1CD
100
AcDbEntity
  8
ボルト／ビス
  6
Continuous
 62
    64
100
AcDbCircle
 10
-29.755938
 20
-69.72348
 30
0.0
 40
0.603603
100
AcDbArc
 50
76.165015
 51
103.834998
  0
LINE
  5
1D9
330
1CD
100
AcDbEntity
  8
ボルト／ビス
  6
Continuous
 62
    64
100
AcDbLine
 10
-29.9965
 20
-69.11987499999999
 30
0.0
 11
-30.044613
 21
-69.137388
 31
0.0
  0
ARC
  5
1DA
330
1CD
100
AcDbEntity
  8
ボルト／ビス
  6
Continuous
 62
    64
100
AcDbCircle
 10
-29.972444
 20
-69.277344
 30
0.0
 40
0.157468
100
AcDbArc
 50
62.721967
 51
90.0
  0
LINE
  5
1DB
330
1CD
100
AcDbEntity
  8
ボルト／ビス
  6
Continuous
 62
    64
100
AcDbLine
 10
-29.515375
 20
-69.11987499999999
 30
0.0
 11
-29.9965
 21
-69.11987499999999
 31
0.0
  0
LINE
  5
1DC
330
1CD
100
AcDbEntity
  8
ボルト／ビス
  6
Continuous
 62
    64
100
AcDbLine
 10
-30.044613
 20
-69.137388
 30
0.0
 11
-30.044613
 21
-69.319875
 31
0.0
  0
LINE
  5
1DD
330
1CD
100
AcDbEntity
  8
ボルト／ビス
  6
Continuous
 62
    64
100
AcDbLine
 10
-29.900275
 20
-69.137388
 30
0.0
 11
-29.900275
 21
-69.319875
 31
0.0
  0
LINE
  5
1DE
330
1CD
100
AcDbEntity
  8
ボルト／ビス
  6
Continuous
 62
    64
100
AcDbLine
 10
-29.467263
 20
-69.137388
 30
0.0
 11
-29.467263
 21
-69.319875
 31
0.0
  0
LINE
  5
1DF
330
1CD
100
AcDbEntity
  8
ボルト／ビス
  6
Continuous
 62
    64
100
AcDbLine
 10
-29.6116
 20
-69.137388
 30
0.0
 11
-29.6116
 21
-69.319875
 31
0.0
  0
LINE
  5
1E0
330
1CD
100
AcDbEntity
  8
ボルト／ビス
  6
Continuous
100
AcDbLine
 10
-29.467263
 20
-69.319875
 30
0.0
 11
-30.044613
 21
-69.319875
 31
0.0
  0
LINE
  5
1E1
330
1CD
100
AcDbEntity
  8
ボルト／ビス
  6
Continuous
100
AcDbLine
 10
-29.455937
 20
-69.319875
 30
0.0
 11
-29.455937
 21
-69.41987500000001
 31
0.0
  0
LINE
  5
1E2
330
1CD
100
AcDbEntity
  8
ボルト／ビス
  6
Continuous
100
AcDbLine
 10
-29.455937
 20
-69.319875
 30
0.0
 11
-30.055937
 21
-69.319875
 31
0.0
  0
LINE
  5
1E3
330
1CD
100
AcDbEntity
  8
ボルト／ビス
  6
Continuous
100
AcDbLine
 10
-30.055937
 20
-69.319875
 30
0.0
 11
-30.055937
 21
-69.41987500000001
 31
0.0
  0
ENDBLK
  5
1E4
330
1CD
100
AcDbEntity
  8
0
100
AcDbBlockEnd
  0
ENDSEC
  0
SECTION
  2
ENTITIES
  0
LWPOLYLINE
  5
1E5
330
1D
100
AcDbEntity
  8
通り芯
  6
Continuous
100
AcDbPolyline
 90
        4
 70
     1
 43
0.0
 10
-210.0
 20
-148.5
 10
210.0
 20
-148.5
 10
210.0
 20
148.5
 10
-210.0
 20
148.5
  0
INSERT
  5
1EB
330
1D
100
AcDbEntity
  8
型材断面
  6
Continuous
100
AcDbBlockReference
  2
*U0
 10
0.0
 20
0.0
 30
0.0
  0
LINE
  5
1EC
330
1D
100
AcDbEntity
  8
型材断面
  6
DASHDOT
100
AcDbLine
 10
-30.755937
 20
-85.083888
 30
0.0
 11
-30.755937
 21
59.370383
 31
0.0
  0
LINE
  5
1ED
330
1D
100
AcDbEntity
  8
型材断面
  6
DASHDOT
100
AcDbLine
 10
-95.755937
 20
-85.083888
 30
0.0
 11
-95.755937
 21
59.370383
 31
0.0
  0
LINE
  5
1EE
330
1D
100
AcDbEntity
  8
型材断面
  6
DASHDOT
100
AcDbLine
 10
-63.255937
 20
-85.083888
 30
0.0
 11
-63.255937
 21
59.370383
 31
0.0
  0
LINE
  5
1EF
330
1D
100
AcDbEntity
  8
型材断面
  6
DASHDOT
100
AcDbLine
 10
-95.755937
 20
26.870383
 30
0.0
 11
-30.755937
 21
26.870383
 31
0.0
  0
LINE
  5
1F0
330
1D
100
AcDbEntity
  8
型材断面
  6
DASHDOT
100
AcDbLine
 10
-95.755937
 20
59.370383
 30
0.0
 11
-30.755937
 21
59.370383
 31
0.0
  0
LINE
  5
1F1
330
1D
100
AcDbEntity
  8
型材断面
  6
DASHDOT
100
AcDbLine
 10
-95.755937
 20
-5.629618
 30
0.0
 11
-30.755937
 21
-5.629618
 31
0.0
  0
LINE
  5
1F2
330
1D
100
AcDbEntity
  8
型材断面
  6
Continuous
100
AcDbLine
 10
-22.732063
 20
26.870383
 30
0.0
 11
-18.846303
 21
24.626937
 31
0.0
  0
LINE
  5
1F3
330
1D
100
AcDbEntity
  8
型材断面
  6
Continuous
100
AcDbLine
 10
-22.732063
 20
26.870383
 30
0.0
 11
-18.846303
 21
29.113827
 31
0.0
  0
LINE
  5
1F4
330
1D
100
AcDbEntity
  8
型材断面
  6
Continuous
100
AcDbLine
 10
-18.846303
 20
29.113827
 30
0.0
 11
-18.846303
 21
24.626937
 31
0.0
  0
LINE
  5
1F5
330
1D
100
AcDbEntity
  8
型材断面
  6
Continuous
100
AcDbLine
 10
-63.255937
 20
67.394257
 30
0.0
 11
-65.499382
 21
71.280018
 31
0.0
  0
LINE
  5
1F6
330
1D
100
AcDbEntity
  8
型材断面
  6
Continuous
100
AcDbLine
 10
-63.255937
 20
67.394257
 30
0.0
 11
-61.012493
 21
71.280018
 31
0.0
  0
LINE
  5
1F7
330
1D
100
AcDbEntity
  8
型材断面
  6
Continuous
100
AcDbLine
 10
-61.012493
 20
71.280018
 30
0.0
 11
-65.499382
 21
71.280018
 31
0.0
  0
LINE
  5
1F8
330
1D
100
AcDbEntity
  8
型材断面
  6
Continuous
100
AcDbLine
 10
-63.255937
 20
-13.653492
 30
0.0
 11
-65.499382
 21
-17.539253
 31
0.0
  0
LINE
  5
1F9
330
1D
100
AcDbEntity
  8
型材断面
  6
Continuous
100
AcDbLine
 10
-63.255937
 20
-13.653492
 30
0.0
 11
-61.012493
 21
-17.539253
 31
0.0
  0
LINE
  5
1FA
330
1D
100
AcDbEntity
  8
型材断面
  6
Continuous
100
AcDbLine
 10
-61.012493
 20
-17.539253
 30
0.0
 11
-65.499382
 21
-17.539253
 31
0.0
  0
LINE
  5
1FB
330
1D
100
AcDbEntity
  8
型材断面
  6
Continuous
100
AcDbLine
 10
-103.779813
 20
26.870383
 30
0.0
 11
-107.665572
 21
24.626937
 31
0.0
  0
LINE
  5
1FC
330
1D
100
AcDbEntity
  8
型材断面
  6
Continuous
100
AcDbLine
 10
-103.779813
 20
26.870383
 30
0.0
 11
-107.665572
 21
29.113827
 31
0.0
  0
LINE
  5
1FD
330
1D
100
AcDbEntity
  8
型材断面
  6
Continuous
100
AcDbLine
 10
-107.665572
 20
29.113827
 30
0.0
 11
-107.665572
 21
24.626937
 31
0.0
  0
LINE
  5
1FE
330
1D
100
AcDbEntity
  8
型材断面
  6
Continuous
100
AcDbLine
 10
-10.615835
 20
-11.415415
 30
0.0
 11
-12.85928
 21
-15.301175
 31
0.0
  0
LINE
  5
1FF
330
1D
100
AcDbEntity
  8
型材断面
  6
Continuous
100
AcDbLine
 10
-10.615835
 20
-11.415415
 30
0.0
 11
-8.372389999999999
 21
-15.301175
 31
0.0
  0
LINE
  5
200
330
1D
100
AcDbEntity
  8
型材断面
  6
Continuous
100
AcDbLine
 10
-8.372389999999999
 20
-15.301175
 30
0.0
 11
-12.85928
 21
-15.301175
 31
0.0
  0
LINE
  5
201
330
1D
100
AcDbEntity
  8
型材断面
  6
Continuous
100
AcDbLine
 10
-19.649715
 20
-16.709068
 30
0.0
 11
33.006965
 21
-16.709068
 31
0.0
  0
LINE
  5
202
330
1D
100
AcDbEntity
  8
型材断面
  6
Continuous
100
AcDbLine
 10
-19.649715
 20
-23.381848
 30
0.0
 11
33.006965
 21
-23.381848
 31
0.0
  0
LINE
  5
203
330
1D
100
AcDbEntity
  8
型材断面
  6
Continuous
100
AcDbLine
 10
-100.50594
 20
-10.37962
 30
0.0
 11
-98.855937
 21
-8.729618
 31
0.0
  0
LINE
  5
204
330
1D
100
AcDbEntity
  8
型材断面
  6
Continuous
100
AcDbLine
 10
-100.50594
 20
-10.37962
 30
0.0
 11
-100.50594
 21
26.870383
 31
0.0
  0
LINE
  5
205
330
1D
100
AcDbEntity
  8
型材断面
  6
Continuous
100
AcDbLine
 10
-100.50594
 20
-10.37962
 30
0.0
 11
-63.255937
 21
-10.37962
 31
0.0
  0
LINE
  5
206
330
1D
100
AcDbEntity
  8
型材断面
  6
Continuous
100
AcDbLine
 10
-100.50594
 20
64.120385
 30
0.0
 11
-100.50594
 21
26.870383
 31
0.0
  0
LINE
  5
207
330
1D
100
AcDbEntity
  8
型材断面
  6
Continuous
100
AcDbLine
 10
-100.50594
 20
64.120385
 30
0.0
 11
-63.255937
 21
64.120385
 31
0.0
  0
LINE
  5
208
330
1D
100
AcDbEntity
  8
型材断面
  6
Continuous
100
AcDbLine
 10
-100.50594
 20
64.120385
 30
0.0
 11
-98.855937
 21
62.470383
 31
0.0
  0
LINE
  5
209
330
1D
100
AcDbEntity
  8
型材断面
  6
Continuous
100
AcDbLine
 10
-26.005935
 20
-10.37962
 30
0.0
 11
-27.655937
 21
-8.729618
 31
0.0
  0
LINE
  5
20A
330
1D
100
AcDbEntity
  8
型材断面
  6
Continuous
100
AcDbLine
 10
-26.005935
 20
-10.37962
 30
0.0
 11
-26.005935
 21
26.870383
 31
0.0
  0
LINE
  5
20B
330
1D
100
AcDbEntity
  8
型材断面
  6
Continuous
100
AcDbLine
 10
-26.005935
 20
-10.37962
 30
0.0
 11
-63.255937
 21
-10.37962
 31
0.0
  0
LINE
  5
20C
330
1D
100
AcDbEntity
  8
型材断面
  6
Continuous
100
AcDbLine
 10
-26.005935
 20
64.120385
 30
0.0
 11
-26.005935
 21
26.870383
 31
0.0
  0
LINE
  5
20D
330
1D
100
AcDbEntity
  8
型材断面
  6
Continuous
100
AcDbLine
 10
-26.005935
 20
64.120385
 30
0.0
 11
-63.255937
 21
64.120385
 31
0.0
  0
LINE
  5
20E
330
1D
100
AcDbEntity
  8
型材断面
  6
Continuous
100
AcDbLine
 10
-26.005935
 20
64.120385
 30
0.0
 11
-27.655937
 21
62.470383
 31
0.0
  0
LINE
  5
20F
330
1D
100
AcDbEntity
  8
型材断面
  6
Continuous
 62
    14
100
AcDbLine
 10
-100.50594
 20
-75.32023
 30
0.0
 11
-100.50594
 21
-74.57023
 31
0.0
  0
LINE
  5
210
330
1D
100
AcDbEntity
  8
型材断面
  6
Continuous
100
AcDbLine
 10
-97.75594
 20
-74.32023
 30
0.0
 11
-100.50594
 21
-74.57023
 31
0.0
  0
LINE
  5
211
330
1D
100
AcDbEntity
  8
型材断面
  6
Continuous
100
AcDbLine
 10
-100.50594
 20
-74.57023
 30
0.0
 11
-100.50594
 21
-75.32023
 31
0.0
  0
LINE
  5
212
330
1D
100
AcDbEntity
  8
型材断面
  6
Continuous
100
AcDbLine
 10
-99.25594
 20
-75.32023
 30
0.0
 11
-99.25594
 21
-75.82023
 31
0.0
  0
LINE
  5
213
330
1D
100
AcDbEntity
  8
型材断面
  6
Continuous
 62
    14
100
AcDbLine
 10
-26.005935
 20
-75.32023
 30
0.0
 11
-26.005935
 21
-74.57023
 31
0.0
  0
LINE
  5
214
330
1D
100
AcDbEntity
  8
型材断面
  6
Continuous
100
AcDbLine
 10
-97.75594
 20
-74.32023
 30
0.0
 11
-28.755935
 21
-74.32023
 31
0.0
  0
LINE
  5
215
330
1D
100
AcDbEntity
  8
型材断面
  6
Continuous
100
AcDbLine
 10
-100.50594
 20
-74.57023
 30
0.0
 11
-26.005935
 21
-74.57023
 31
0.0
  0
LINE
  5
216
330
1D
100
AcDbEntity
  8
型材断面
  6
Continuous
100
AcDbLine
 10
-28.755935
 20
-74.32023
 30
0.0
 11
-26.005935
 21
-74.57023
 31
0.0
  0
LINE
  5
217
330
1D
100
AcDbEntity
  8
型材断面
  6
Continuous
100
AcDbLine
 10
-26.005935
 20
-74.57023
 30
0.0
 11
-26.005935
 21
-75.32023
 31
0.0
  0
LINE
  5
218
330
1D
100
AcDbEntity
  8
型材断面
  6
Continuous
100
AcDbLine
 10
-27.255935
 20
-75.32023
 30
0.0
 11
-27.255935
 21
-75.82023
 31
0.0
  0
LINE
  5
219
330
1D
100
AcDbEntity
  8
型材断面
  6
Continuous
100
AcDbLine
 10
-100.50594
 20
-75.32023
 30
0.0
 11
-26.005935
 21
-75.32023
 31
0.0
  0
LINE
  5
21A
330
1D
100
AcDbEntity
  8
型材断面
  6
Continuous
100
AcDbLine
 10
-99.25594
 20
-75.820227
 30
0.0
 11
-27.255935
 21
-75.820227
 31
0.0
  0
LWPOLYLINE
  5
21B
330
1D
100
AcDbEntity
  8
型材断面
  6
Continuous
100
AcDbPolyline
 90
        3
 70
     0
 43
0.0
 10
-97.55594000000001
 20
-71.069873
 10
-97.55594000000001
 20
-71.59522699999999
 10
-97.75594
 20
-71.795227
  0
LINE
  5
220
330
1D
100
AcDbEntity
  8
型材断面
  6
Continuous
100
AcDbLine
 10
-97.75594
 20
-74.32023
 30
0.0
 11
-97.75594
 21
-71.795227
 31
0.0
  0
LWPOLYLINE
  5
221
330
1D
100
AcDbEntity
  8
型材断面
  6
Continuous
100
AcDbPolyline
 90
        3
 70
     0
 43
0.0
 10
-28.955935
 20
-71.069873
 10
-28.955935
 20
-71.59522699999999
 10
-28.755935
 20
-71.795227
  0
LINE
  5
226
330
1D
100
AcDbEntity
  8
型材断面
  6
Continuous
100
AcDbLine
 10
-28.755935
 20
-74.32023
 30
0.0
 11
-28.755935
 21
-71.795227
 31
0.0
  0
LINE
  5
227
330
1D
100
AcDbEntity
  8
型材断面
  6
Continuous
100
AcDbLine
 10
-97.75594
 20
-71.795227
 30
0.0
 11
-28.755935
 21
-71.795227
 31
0.0
  0
LINE
  5
228
330
1D
100
AcDbEntity
  8
型材断面
  6
Continuous
100
AcDbLine
 10
-28.955935
 20
-71.59522699999999
 30
0.0
 11
-97.55594000000001
 21
-71.59522699999999
 31
0.0
  0
LINE
  5
229
330
1D
100
AcDbEntity
  8
ガラス
  6
Continuous
100
AcDbLine
 10
102.554785
 20
74.30747700000001
 30
0.0
 11
102.554785
 21
9.807477
 31
0.0
  0
LINE
  5
22A
330
1D
100
AcDbEntity
  8
ガラス
  6
Continuous
100
AcDbLine
 10
102.554785
 20
74.30747700000001
 30
0.0
 11
167.054785
 21
74.30747700000001
 31
0.0
  0
LINE
  5
22B
330
1D
100
AcDbEntity
  8
ガラス
  6
Continuous
100
AcDbLine
 10
102.554785
 20
9.807477
 30
0.0
 11
167.054785
 21
9.807477
 31
0.0
  0
LINE
  5
22C
330
1D
100
AcDbEntity
  8
ガラス
  6
Continuous
100
AcDbLine
 10
167.054785
 20
74.30747700000001
 30
0.0
 11
167.054785
 21
9.807477
 31
0.0
  0
CIRCLE
  5
22D
330
1D
100
AcDbEntity
  8
ボルト／ビス
  6
Continuous
100
AcDbCircle
 10
-55.755937
 20
60.370383
 30
0.0
 40
0.288675
  0
CIRCLE
  5
22E
330
1D
100
AcDbEntity
  8
ボルト／ビス
  6
Continuous
100
AcDbCircle
 10
-55.755937
 20
60.370383
 30
0.0
 40
0.455885
  0
CIRCLE
  5
22F
330
1D
100
AcDbEntity
  8
ボルト／ビス
  6
Continuous
100
AcDbCircle
 10
-40.755937
 20
60.370383
 30
0.0
 40
0.288675
  0
CIRCLE
  5
230
330
1D
100
AcDbEntity
  8
ボルト／ビス
  6
Continuous
100
AcDbCircle
 10
-40.755937
 20
60.370383
 30
0.0
 40
0.455885
  0
CIRCLE
  5
231
330
1D
100
AcDbEntity
  8
ボルト／ビス
  6
Continuous
100
AcDbCircle
 10
-70.755937
 20
60.370383
 30
0.0
 40
0.288675
  0
CIRCLE
  5
232
330
1D
100
AcDbEntity
  8
ボルト／ビス
  6
Continuous
100
AcDbCircle
 10
-70.755937
 20
60.370383
 30
0.0
 40
0.455885
  0
CIRCLE
  5
233
330
1D
100
AcDbEntity
  8
ボルト／ビス
  6
Continuous
100
AcDbCircle
 10
-85.755937
 20
60.370383
 30
0.0
 40
0.288675
  0
CIRCLE
  5
234
330
1D
100
AcDbEntity
  8
ボルト／ビス
  6
Continuous
100
AcDbCircle
 10
-85.755937
 20
60.370383
 30
0.0
 40
0.455885
  0
CIRCLE
  5
235
330
1D
100
AcDbEntity
  8
ボルト／ビス
  6
Continuous
100
AcDbCircle
 10
-96.75593499999999
 20
34.370385
 30
0.0
 40
0.288675
  0
CIRCLE
  5
236
330
1D
100
AcDbEntity
  8
ボルト／ビス
  6
Continuous
100
AcDbCircle
 10
-96.75593499999999
 20
34.370385
 30
0.0
 40
0.455885
  0
CIRCLE
  5
237
330
1D
100
AcDbEntity
  8
ボルト／ビス
  6
Continuous
100
AcDbCircle
 10
-96.75593499999999
 20
49.370385
 30
0.0
 40
0.288675
  0
CIRCLE
  5
238
330
1D
100
AcDbEntity
  8
ボルト／ビス
  6
Continuous
100
AcDbCircle
 10
-96.75593499999999
 20
49.370385
 30
0.0
 40
0.455885
  0
CIRCLE
  5
239
330
1D
100
AcDbEntity
  8
ボルト／ビス
  6
Continuous
100
AcDbCircle
 10
-96.75593499999999
 20
19.37038
 30
0.0
 40
0.288675
  0
CIRCLE
  5
23A
330
1D
100
AcDbEntity
  8
ボルト／ビス
  6
Continuous
100
AcDbCircle
 10
-96.75593499999999
 20
19.37038
 30
0.0
 40
0.455885
  0
CIRCLE
  5
23B
330
1D
100
AcDbEntity
  8
ボルト／ビス
  6
Continuous
100
AcDbCircle
 10
-96.75593499999999
 20
4.37038
 30
0.0
 40
0.288675
  0
CIRCLE
  5
23C
330
1D
100
AcDbEntity
  8
ボルト／ビス
  6
Continuous
100
AcDbCircle
 10
-96.75593499999999
 20
4.37038
 30
0.0
 40
0.455885
  0
CIRCLE
  5
23D
330
1D
100
AcDbEntity
  8
ボルト／ビス
  6
Continuous
100
AcDbCircle
 10
-70.75594
 20
-6.629615
 30
0.0
 40
0.288675
  0
CIRCLE
  5
23E
330
1D
100
AcDbEntity
  8
ボルト／ビス
  6
Continuous
100
AcDbCircle
 10
-70.75594
 20
-6.629615
 30
0.0
 40
0.455885
  0
CIRCLE
  5
23F
330
1D
100
AcDbEntity
  8
ボルト／ビス
  6
Continuous
100
AcDbCircle
 10
-85.75594
 20
-6.629615
 30
0.0
 40
0.288675
  0
CIRCLE
  5
240
330
1D
100
AcDbEntity
  8
ボルト／ビス
  6
Continuous
100
AcDbCircle
 10
-85.75594
 20
-6.629615
 30
0.0
 40
0.455885
  0
CIRCLE
  5
241
330
1D
100
AcDbEntity
  8
ボルト／ビス
  6
Continuous
100
AcDbCircle
 10
-55.755935
 20
-6.629615
 30
0.0
 40
0.288675
  0
CIRCLE
  5
242
330
1D
100
AcDbEntity
  8
ボルト／ビス
  6
Continuous
100
AcDbCircle
 10
-55.755935
 20
-6.629615
 30
0.0
 40
0.455885
  0
CIRCLE
  5
243
330
1D
100
AcDbEntity
  8
ボルト／ビス
  6
Continuous
100
AcDbCircle
 10
-40.755935
 20
-6.629615
 30
0.0
 40
0.288675
  0
CIRCLE
  5
244
330
1D
100
AcDbEntity
  8
ボルト／ビス
  6
Continuous
100
AcDbCircle
 10
-40.755935
 20
-6.629615
 30
0.0
 40
0.455885
  0
CIRCLE
  5
245
330
1D
100
AcDbEntity
  8
ボルト／ビス
  6
Continuous
100
AcDbCircle
 10
-29.755937
 20
19.370383
 30
0.0
 40
0.288675
  0
CIRCLE
  5
246
330
1D
100
AcDbEntity
  8
ボルト／ビス
  6
Continuous
100
AcDbCircle
 10
-29.755937
 20
19.370383
 30
0.0
 40
0.455885
  0
CIRCLE
  5
247
330
1D
100
AcDbEntity
  8
ボルト／ビス
  6
Continuous
100
AcDbCircle
 10
-29.755937
 20
4.370383
 30
0.0
 40
0.288675
  0
CIRCLE
  5
248
330
1D
100
AcDbEntity
  8
ボルト／ビス
  6
Continuous
100
AcDbCircle
 10
-29.755937
 20
4.370383
 30
0.0
 40
0.455885
  0
CIRCLE
  5
249
330
1D
100
AcDbEntity
  8
ボルト／ビス
  6
Continuous
100
AcDbCircle
 10
-29.755937
 20
34.370383
 30
0.0
 40
0.288675
  0
CIRCLE
  5
24A
330
1D
100
AcDbEntity
  8
ボルト／ビス
  6
Continuous
100
AcDbCircle
 10
-29.755937
 20
34.370383
 30
0.0
 40
0.455885
  0
CIRCLE
  5
24B
330
1D
100
AcDbEntity
  8
ボルト／ビス
  6
Continuous
100
AcDbCircle
 10
-29.755937
 20
49.370383
 30
0.0
 40
0.288675
  0
CIRCLE
  5
24C
330
1D
100
AcDbEntity
  8
ボルト／ビス
  6
Continuous
100
AcDbCircle
 10
-29.755937
 20
49.370383
 30
0.0
 40
0.455885
  0
INSERT
  5
24D
330
1D
100
AcDbEntity
  8
文字
  6
Continuous
100
AcDbBlockReference
  2
*U3
 10
0.0
 20
0.0
 30
0.0
  0
INSERT
  5
24E
330
1D
100
AcDbEntity
  8
文字
  6
Continuous
100
AcDbBlockReference
  2
*U5
 10
0.0
 20
0.0
 30
0.0
  0
INSERT
  5
24F
330
1D
100
AcDbEntity
  8
文字
  6
Continuous
100
AcDbBlockReference
  2
*U7
 10
0.0
 20
0.0
 30
0.0
  0
INSERT
  5
250
330
1D
100
AcDbEntity
  8
文字
  6
Continuous
100
AcDbBlockReference
  2
*U8
 10
0.0
 20
0.0
 30
0.0
  0
INSERT
  5
251
330
1D
100
AcDbEntity
  8
文字
  6
Continuous
100
AcDbBlockReference
  2
*U11
 10
0.0
 20
0.0
 30
0.0
  0
INSERT
  5
252
330
1D
100
AcDbEntity
  8
文字
  6
Continuous
100
AcDbBlockReference
  2
*U12
 10
0.0
 20
0.0
 30
0.0
  0
INSERT
  5
253
330
1D
100
AcDbEntity
  8
文字
  6
Continuous
100
AcDbBlockReference
  2
*U15
 10
0.0
 20
0.0
 30
0.0
  0
INSERT
  5
254
330
1D
100
AcDbEntity
  8
文字
  6
Continuous
100
AcDbBlockReference
  2
*U16
 10
0.0
 20
0.0
 30
0.0
  0
INSERT
  5
255
330
1D
100
AcDbEntity
  8
文字
  6
Continuous
100
AcDbBlockReference
  2
*U19
 10
0.0
 20
0.0
 30
0.0
  0
INSERT
  5
256
330
1D
100
AcDbEntity
  8
文字
  6
Continuous
100
AcDbBlockReference
  2
*U20
 10
0.0
 20
0.0
 30
0.0
  0
INSERT
  5
257
330
1D
100
AcDbEntity
  8
文字
  6
Continuous
100
AcDbBlockReference
  2
*U23
 10
0.0
 20
0.0
 30
0.0
  0
INSERT
  5
258
330
1D
100
AcDbEntity
  8
文字
  6
Continuous
100
AcDbBlockReference
  2
*U24
 10
0.0
 20
0.0
 30
0.0
  0
INSERT
  5
259
330
1D
100
AcDbEntity
  8
文字
  6
Continuous
100
AcDbBlockReference
  2
*U27
 10
0.0
 20
0.0
 30
0.0
  0
INSERT
  5
25A
330
1D
100
AcDbEntity
  8
文字
  6
Continuous
100
AcDbBlockReference
  2
*U28
 10
0.0
 20
0.0
 30
0.0
  0
INSERT
  5
25B
330
1D
100
AcDbEntity
  8
文字
  6
Continuous
100
AcDbBlockReference
  2
*U31
 10
0.0
 20
0.0
 30
0.0
  0
INSERT
  5
25C
330
1D
100
AcDbEntity
  8
文字
  6
Continuous
100
AcDbBlockReference
  2
*U32
 10
0.0
 20
0.0
 30
0.0
  0
TEXT
  5
25D
330
1D
100
AcDbEntity
  8
文字
  6
Continuous
100
AcDbText
 10
-6.35
 20
-14.95
 30
0.0
 40
3.0
  1
は排水穴位置を示す
  7
TextStyle03
 72
     5
 11
23.65
 21
-14.95
 31
0.0
100
AcDbText
  0
TEXT
  5
25E
330
1D
100
AcDbEntity
  8
文字
  6
Continuous
100
AcDbText
 10
91.925
 20
99.375
 30
0.0
 40
5.0
  1
ＮＳコード：ＮＳＫ
  7
TextStyle03
 72
     5
 11
141.925
 21
99.375
 31
0.0
100
AcDbText
  0
TEXT
  5
25F
330
1D
100
AcDbEntity
  8
文字
  6
Continuous
100
AcDbText
 10
-110.25
 20
86.3
 30
0.0
 40
3.0
  1
アンカーピッチ
  7
TextStyle03
 72
     5
 11
-87.0
 21
86.3
 31
0.0
100
AcDbText
  0
TEXT
  5
260
330
1D
100
AcDbEntity
  8
文字
  6
Continuous
100
AcDbText
 10
-127.25
 20
-16.5
 30
0.0
 40
3.0
  1
アンカーピッチ
 50
90.0
  7
TextStyle03
 72
     5
 11
-127.25
 21
6.75
 31
0.0
100
AcDbText
  0
TEXT
  5
261
330
1D
100
AcDbEntity
  8
文字
  6
Continuous
100
AcDbText
 10
-11.95
 20
-21.975
 30
0.0
 40
3.0
  1
アンカー数量　８ヶ所
  7
TextStyle03
 72
     5
 11
21.425
 21
-21.975
 31
0.0
100
AcDbText
  0
TEXT
  5
262
330
1D
100
AcDbEntity
  8
文字
  6
Continuous
100
AcDbText
 10
146.1
 20
18.8
 30
0.0
 40
3.0
  1
網入り6.8t
  7
TextStyle03
 72
     5
 11
162.7875
 21
18.8
 31
0.0
100
AcDbText
  0
TEXT
  5
263
330
1D
100
AcDbEntity
  8
文字
  6
Continuous
100
AcDbText
 10
152.725
 20
13.55
 30
0.0
 40
3.0
  1
×１枚
  7
TextStyle03
 72
     5
 11
162.475
 21
13.55
 31
0.0
100
AcDbText
  0
TEXT
  5
264
330
1D
100
AcDbEntity
  8
文字
  6
Continuous
100
AcDbText
 10
92.45
 20
120.7
 30
0.0
 40
5.0
  1
シリーズ：ＴＤ１Ｋ
  7
TextStyle03
 72
     5
 11
142.45
 21
120.7
 31
0.0
100
AcDbText
  0
TEXT
  5
265
330
1D
100
AcDbEntity
  8
文字
  6
Continuous
100
AcDbText
 10
92.45
 20
115.075
 30
0.0
 40
5.0
  1
　　　　　（固定）1300×1300タイプ
  7
TextStyle03
 72
     5
 11
187.45
 21
115.075
 31
0.0
100
AcDbText
  0
TEXT
  5
266
330
1D
100
AcDbEntity
  8
文字
  6
Continuous
100
AcDbText
 10
92.45
 20
109.45
 30
0.0
 40
5.0
  1
図面名　：外観姿図
  7
TextStyle03
 72
     5
 11
142.45
 21
109.45
 31
0.0
100
AcDbText
  0
TEXT
  5
267
330
1D
100
AcDbEntity
  8
文字
  6
Continuous
100
AcDbText
 10
92.45
 20
103.825
 30
0.0
 40
5.0
  1
　　　　　　
  7
TextStyle03
 72
     5
 11
125.575
 21
103.825
 31
0.0
100
AcDbText
  0
INSERT
  5
268
330
1D
100
AcDbEntity
  8
寸法
  6
Continuous
100
AcDbBlockReference
  2
*U1
 10
0.0
 20
0.0
 30
0.0
  0
INSERT
  5
269
330
1D
100
AcDbEntity
  8
寸法
  6
Continuous
100
AcDbBlockReference
  2
*U2
 10
0.0
 20
0.0
 30
0.0
  0
INSERT
  5
26A
330
1D
100
AcDbEntity
  8
寸法
  6
Continuous
100
AcDbBlockReference
  2
*U35
 10
0.0
 20
0.0
 30
0.0
  0
INSERT
  5
26B
330
1D
100
AcDbEntity
  8
寸法
  6
Continuous
100
AcDbBlockReference
  2
*U36
 10
0.0
 20
0.0
 30
0.0
  0
INSERT
  5
26C
330
1D
100
AcDbEntity
  8
寸法
  6
Continuous
100
AcDbBlockReference
  2
*U37
 10
0.0
 20
0.0
 30
0.0
  0
INSERT
  5
26D
330
1D
100
AcDbEntity
  8
寸法
  6
Continuous
100
AcDbBlockReference
  2
*U38
 10
0.0
 20
0.0
 30
0.0
  0
INSERT
  5
26E
330
1D
100
AcDbEntity
  8
寸法
  6
Continuous
100
AcDbBlockReference
  2
*U39
 10
0.0
 20
0.0
 30
0.0
  0
INSERT
  5
26F
330
1D
100
AcDbEntity
  8
寸法
  6
Continuous
100
AcDbBlockReference
  2
*U40
 10
0.0
 20
0.0
 30
0.0
  0
INSERT
  5
270
330
1D
100
AcDbEntity
  8
寸法
  6
Continuous
100
AcDbBlockReference
  2
*U41
 10
0.0
 20
0.0
 30
0.0
  0
LINE
  5
271
330
1D
100
AcDbEntity
  8
別途部材
  6
Continuous
100
AcDbLine
 10
-98.255937
 20
26.870383
 30
0.0
 11
-98.255937
 21
-8.129618000000001
 31
0.0
  0
LINE
  5
272
330
1D
100
AcDbEntity
  8
別途部材
  6
Continuous
100
AcDbLine
 10
-63.255935
 20
-8.129618000000001
 30
0.0
 11
-98.255937
 21
-8.129618000000001
 31
0.0
  0
LINE
  5
273
330
1D
100
AcDbEntity
  8
別途部材
  6
Continuous
100
AcDbLine
 10
-98.855937
 20
26.870383
 30
0.0
 11
-98.855937
 21
-8.729618
 31
0.0
  0
LINE
  5
274
330
1D
100
AcDbEntity
  8
別途部材
  6
Continuous
100
AcDbLine
 10
-63.255935
 20
-8.729618
 30
0.0
 11
-98.855937
 21
-8.729618
 31
0.0
  0
LINE
  5
275
330
1D
100
AcDbEntity
  8
別途部材
  6
Continuous
100
AcDbLine
 10
-98.855937
 20
-8.729618
 30
0.0
 11
-98.255937
 21
-8.129618000000001
 31
0.0
  0
LINE
  5
276
330
1D
100
AcDbEntity
  8
別途部材
  6
Continuous
100
AcDbLine
 10
-95.755937
 20
-5.629618
 30
0.0
 11
-83.667053
 21
6.459267
 31
0.0
  0
LINE
  5
277
330
1D
100
AcDbEntity
  8
別途部材
  6
Continuous
100
AcDbLine
 10
-98.255937
 20
26.870383
 30
0.0
 11
-98.255937
 21
61.870385
 31
0.0
  0
LINE
  5
278
330
1D
100
AcDbEntity
  8
別途部材
  6
Continuous
100
AcDbLine
 10
-63.255935
 20
61.870385
 30
0.0
 11
-98.255937
 21
61.870385
 31
0.0
  0
LINE
  5
279
330
1D
100
AcDbEntity
  8
別途部材
  6
Continuous
100
AcDbLine
 10
-98.855937
 20
26.870383
 30
0.0
 11
-98.855937
 21
62.470385
 31
0.0
  0
LINE
  5
27A
330
1D
100
AcDbEntity
  8
別途部材
  6
Continuous
100
AcDbLine
 10
-63.255935
 20
62.470385
 30
0.0
 11
-98.855937
 21
62.470385
 31
0.0
  0
LINE
  5
27B
330
1D
100
AcDbEntity
  8
別途部材
  6
Continuous
100
AcDbLine
 10
-98.855937
 20
62.470385
 30
0.0
 11
-98.255937
 21
61.870385
 31
0.0
  0
LINE
  5
27C
330
1D
100
AcDbEntity
  8
別途部材
  6
Continuous
100
AcDbLine
 10
-95.755937
 20
59.370385
 30
0.0
 11
-83.667053
 21
47.2815
 31
0.0
  0
LINE
  5
27D
330
1D
100
AcDbEntity
  8
別途部材
  6
Continuous
100
AcDbLine
 10
-28.255935
 20
26.870383
 30
0.0
 11
-28.255935
 21
61.870385
 31
0.0
  0
LINE
  5
27E
330
1D
100
AcDbEntity
  8
別途部材
  6
Continuous
100
AcDbLine
 10
-63.255935
 20
61.870385
 30
0.0
 11
-28.255935
 21
61.870385
 31
0.0
  0
LINE
  5
27F
330
1D
100
AcDbEntity
  8
別途部材
  6
Continuous
100
AcDbLine
 10
-27.655935
 20
26.870383
 30
0.0
 11
-27.655935
 21
62.470385
 31
0.0
  0
LINE
  5
280
330
1D
100
AcDbEntity
  8
別途部材
  6
Continuous
100
AcDbLine
 10
-63.255935
 20
62.470385
 30
0.0
 11
-27.655935
 21
62.470385
 31
0.0
  0
LINE
  5
281
330
1D
100
AcDbEntity
  8
別途部材
  6
Continuous
100
AcDbLine
 10
-27.655935
 20
62.470385
 30
0.0
 11
-28.255935
 21
61.870385
 31
0.0
  0
LINE
  5
282
330
1D
100
AcDbEntity
  8
別途部材
  6
Continuous
100
AcDbLine
 10
-30.755935
 20
59.370385
 30
0.0
 11
-42.84482
 21
47.2815
 31
0.0
  0
LINE
  5
283
330
1D
100
AcDbEntity
  8
別途部材
  6
Continuous
100
AcDbLine
 10
-28.255935
 20
26.870383
 30
0.0
 11
-28.255935
 21
-8.129618000000001
 31
0.0
  0
LINE
  5
284
330
1D
100
AcDbEntity
  8
別途部材
  6
Continuous
100
AcDbLine
 10
-63.255935
 20
-8.129618000000001
 30
0.0
 11
-28.255935
 21
-8.129618000000001
 31
0.0
  0
LINE
  5
285
330
1D
100
AcDbEntity
  8
別途部材
  6
Continuous
100
AcDbLine
 10
-27.655935
 20
26.870383
 30
0.0
 11
-27.655935
 21
-8.729618
 31
0.0
  0
LINE
  5
286
330
1D
100
AcDbEntity
  8
別途部材
  6
Continuous
100
AcDbLine
 10
-63.255935
 20
-8.729618
 30
0.0
 11
-27.655935
 21
-8.729618
 31
0.0
  0
LINE
  5
287
330
1D
100
AcDbEntity
  8
別途部材
  6
Continuous
100
AcDbLine
 10
-27.655935
 20
-8.729618
 30
0.0
 11
-28.255935
 21
-8.129618000000001
 31
0.0
  0
LINE
  5
288
330
1D
100
AcDbEntity
  8
別途部材
  6
Continuous
100
AcDbLine
 10
-30.755935
 20
-5.629618
 30
0.0
 11
-42.84482
 21
6.459267
 31
0.0
  0
LINE
  5
289
330
1D
100
AcDbEntity
  8
別途部材
  6
Continuous
 62
    96
100
AcDbLine
 10
-98.255937
 20
-69.569873
 30
0.0
 11
-98.855937
 21
-71.069873
 31
0.0
  0
LINE
  5
28A
330
1D
100
AcDbEntity
  8
別途部材
  6
Continuous
 62
    96
100
AcDbLine
 10
-98.255937
 20
-69.569873
 30
0.0
 11
-63.255935
 21
-69.569873
 31
0.0
  0
LINE
  5
28B
330
1D
100
AcDbEntity
  8
別途部材
  6
Continuous
100
AcDbLine
 10
-98.855937
 20
-71.069873
 30
0.0
 11
-63.255935
 21
-71.069873
 31
0.0
  0
LINE
  5
28C
330
1D
100
AcDbEntity
  8
別途部材
  6
Continuous
 62
    96
100
AcDbLine
 10
-28.255935
 20
-69.569873
 30
0.0
 11
-27.655935
 21
-71.069873
 31
0.0
  0
LINE
  5
28D
330
1D
100
AcDbEntity
  8
別途部材
  6
Continuous
 62
    96
100
AcDbLine
 10
-28.255935
 20
-69.569873
 30
0.0
 11
-63.255935
 21
-69.569873
 31
0.0
  0
LINE
  5
28E
330
1D
100
AcDbEntity
  8
別途部材
  6
Continuous
100
AcDbLine
 10
-27.655935
 20
-71.069873
 30
0.0
 11
-63.255935
 21
-71.069873
 31
0.0
  0
ARC
  5
28F
330
1D
100
AcDbEntity
  8
別途部材
  6
Continuous
100
AcDbCircle
 10
-63.255936
 20
-90.998446
 30
0.0
 40
38.928572
100
AcDbArc
 50
33.39849
 51
146.60151
  0
INSERT
  5
290
330
1D
100
AcDbEntity
  8
別途部材
  6
DOT
100
AcDbBlockReference
  2
*U42
 10
0.0
 20
0.0
 30
0.0
  0
INSERT
  5
291
330
1D
100
AcDbEntity
  8
別途部材
  6
DOT
100
AcDbBlockReference
  2
*U43
 10
0.0
 20
0.0
 30
0.0
  0
ENDSEC
  0
SECTION
  2
OBJECTS
  0
DICTIONARY
  5
C
330
0
100
AcDbDictionary
281
     1
  3
ACAD_GROUP
350
D
  3
ACAD_LAYOUT
350
1A
  3
ACAD_MLINESTYLE
350
17
  3
ACAD_PLOTSETTINGS
350
19
  3
ACAD_PLOTSTYLENAME
350
E
  0
DICTIONARY
  5
D
102
{ACAD_REACTORS
330
C
102
}
330
C
100
AcDbDictionary
281
     1
  0
DICTIONARY
  5
1A
102
{ACAD_REACTORS
330
C
102
}
330
C
100
AcDbDictionary
281
     1
  3
Layout1
350
1C
  3
Model
350
1E
  0
DICTIONARY
  5
17
102
{ACAD_REACTORS
330
C
102
}
330
C
100
AcDbDictionary
281
     1
  3
Standard
350
18
  0
DICTIONARY
  5
19
102
{ACAD_REACTORS
330
C
102
}
330
C
100
AcDbDictionary
281
     1
  0
ACDBDICTIONARYWDFLT
  5
E
102
{ACAD_REACTORS
330
C
102
}
330
C
100
AcDbDictionary
281
     1
  3
Normal
350
F
100
AcDbDictionaryWithDefault
340
F
  0
LAYOUT
  5
1C
102
{ACAD_REACTORS
330
1A
102
}
330
1A
100
AcDbPlotSettings
  1

  2

  4

  6

 40
0.0
 41
0.0
 42
0.0
 43
0.0
 44
0.0
 45
0.0
 46
0.0
 47
0.0
 48
0.0
 49
0.0
140
0.0
141
0.0
142
1.0
143
1.0
 70
   688
 72
     0
 73
     0
 74
     5
  7

 75
    16
 76
     0
 77
     2
 78
   300
147
1.0
148
0.0
149
0.0
100
AcDbLayout
  1
Layout1
 70
     1
 71
     1
 10
0.0
 20
0.0
 11
12.0
 21
9.0
 12
0.0
 22
0.0
 32
0.0
 14
1.000000000000000E+20
 24
1.000000000000000E+20
 34
1.000000000000000E+20
 15
-1.000000000000000E+20
 25
-1.000000000000000E+20
 35
-1.000000000000000E+20
146
0.0
 13
0.0
 23
0.0
 33
0.0
 16
1.0
 26
0.0
 36
0.0
 17
0.0
 27
1.0
 37
0.0
 76
     0
330
1B
  0
LAYOUT
  5
1E
102
{ACAD_REACTORS
330
1A
102
}
330
1A
100
AcDbPlotSettings
  1

  2

  4

  6

 40
0.0
 41
0.0
 42
0.0
 43
0.0
 44
0.0
 45
0.0
 46
0.0
 47
0.0
 48
0.0
 49
0.0
140
0.0
141
0.0
142
1.0
143
1.0
 70
  1712
 72
     0
 73
     0
 74
     0
  7

 75
     0
 76
     0
 77
     2
 78
   300
147
1.0
148
0.0
149
0.0
100
AcDbLayout
  1
Model
 70
     1
 71
     0
 10
0.0
 20
0.0
 11
0.0
 21
0.0
 12
0.0
 22
0.0
 32
0.0
 14
-210.0
 24
-148.5
 34
0.0
 15
210.0
 25
148.5
 35
0.0
146
0.0
 13
0.0
 23
0.0
 33
0.0
 16
1.0
 26
0.0
 36
0.0
 17
0.0
 27
1.0
 37
0.0
 76
     0
330
1D
  0
MLINESTYLE
  5
18
102
{ACAD_REACTORS
330
17
102
}
330
17
100
AcDbMlineStyle
  2
Standard
 70
     0
  3

 62
   256
 51
90.0
 52
90.0
 71
     2
 49
0.5
 62
   256
  6
BYLAYER
 49
-0.5
 62
   256
  6
BYLAYER
  0
ACDBPLACEHOLDER
  5
F
102
{ACAD_REACTORS
330
E
102
}
330
E
  0
ENDSEC
  0
EOF
