  0
SECTION
  2
HEADER
  9
$EXTMIN
 10
-210.0
 20
-148.5
  9
$EXTMAX
 10
210.0
 20
148.5
  9
$PDMODE
 70
    32
  9
$PDSIZE
 40
1.5
  9
$LTSCALE
 40
10.0
  0
ENDSEC
  0
SECTION
  2
TABLES
  0
TABLE
  2
LTYPE
 70
    15
  0
LTYPE
  2
CONTINUOUS
 70
    64
  3
実線
 72
    65
 73
     0
 40
0.0
  0
LTYPE
  2
DASHED
 70
    64
  3
破線A
 72
    65
 73
     2
 40
0.6
 49
0.4
 49
-0.2
  0
LTYPE
  2
DASHEDX2
 70
    64
  3
破線B
 72
    65
 73
     2
 40
1.3
 49
0.9
 49
-0.4
  0
LTYPE
  2
DASHDOT
 70
    64
  3
１点鎖線A
 72
    65
 73
     4
 40
0.5375
 49
0.375
 49
-0.05
 49
0.0625
 49
-0.05
  0
LTYPE
  2
DASHDOTX2
 70
    64
  3
１点鎖線B
 72
    65
 73
     4
 40
1.075
 49
0.75
 49
-0.1
 49
0.125
 49
-0.1
  0
LTYPE
  2
DIVIDE2
 70
    64
  3
２点鎖線A
 72
    65
 73
     6
 40
0.5125
 49
0.3
 49
-0.0375
 49
0.05
 49
-0.0375
 49
0.05
 49
-0.0375
  0
LTYPE
  2
DIVIDE
 70
    64
  3
２点鎖線B
 72
    65
 73
     6
 40
1.05
 49
0.55
 49
-0.1
 49
0.1
 49
-0.1
 49
0.1
 49
-0.1
  0
LTYPE
  2
DOT
 70
    64
  3
点線A
 72
    65
 73
     2
 40
0.1125
 49
0.0625
 49
-0.05
  0
LTYPE
  2
DOTX2
 70
    64
  3
点線B
 72
    65
 73
     2
 40
0.275
 49
0.15
 49
-0.125
  0
LTYPE
  2
CONTINUOUS
 70
    64
  3
実線
 72
    65
 73
     0
 40
0.0
  0
LTYPE
  2
CONTINUOUS
 70
    64
  3
実線
 72
    65
 73
     0
 40
0.0
  0
LTYPE
  2
CONTINUOUS
 70
    64
  3
実線
 72
    65
 73
     0
 40
0.0
  0
LTYPE
  2
CONTINUOUS
 70
    64
  3
実線
 72
    65
 73
     0
 40
0.0
  0
LTYPE
  2
CONTINUOUS
 70
    64
  3
実線
 72
    65
 73
     0
 40
0.0
  0
LTYPE
  2
CONTINUOUS
 70
    64
  3
実線
 72
    65
 73
     0
 40
0.0
  0
ENDTAB
  0
TABLE
  2
LAYER
 70
    34
  0
LAYER
  2
通り芯
 70
     0
 62
    15
  6
CONTINUOUS
  0
LAYER
  2
補助線
 70
     0
 62
    16
  6
DOT
  0
LAYER
  2
躯体
 70
     0
 62
    31
  6
CONTINUOUS
  0
LAYER
  2
型材
 70
     0
 62
    32
  6
CONTINUOUS
  0
LAYER
  2
型材断面
 70
     0
 62
    47
  6
CONTINUOUS
  0
LAYER
  2
ガラス
 70
     0
 62
    48
  6
CONTINUOUS
  0
LAYER
  2
ゴム等
 70
     0
 62
    63
  6
CONTINUOUS
  0
LAYER
  2
ボルト／ビス
 70
     0
 62
    64
  6
CONTINUOUS
  0
LAYER
  2
文字
 70
     0
 62
    79
  6
CONTINUOUS
  0
LAYER
  2
寸法
 70
     0
 62
    80
  6
CONTINUOUS
  0
LAYER
  2
ﾊｯﾁﾝｸﾞ
 70
     0
 62
    95
  6
CONTINUOUS
  0
LAYER
  2
別途部材
 70
     0
 62
    96
  6
CONTINUOUS
  0
LAYER
  2
曲げ物
 70
     0
 62
   111
  6
CONTINUOUS
  0
LAYER
  2
鉄骨等
 70
     0
 62
   112
  6
CONTINUOUS
  0
LAYER
  2
St
 70
     0
 62
   127
  6
CONTINUOUS
  0
LAYER
  2
その他部品等
 70
     0
 62
   128
  6
CONTINUOUS
  0
LAYER
  2
ｶﾞｽｹｯﾄ
 70
     0
 62
   143
  6
CONTINUOUS
  0
LAYER
  2
ｽｹｯﾁ
 70
     0
 62
    14
  6
CONTINUOUS
  0
LAYER
  2
0
 70
     0
 62
    17
  6
CONTINUOUS
  0
LAYER
  2
1
 70
     0
 62
    30
  6
CONTINUOUS
  0
LAYER
  2
4
 70
     0
 62
    33
  6
CONTINUOUS
  0
LAYER
  2
ﾚｲﾔ3
 70
     0
 62
    46
  6
CONTINUOUS
  0
LAYER
  2
外形線
 70
     0
 62
    49
  6
CONTINUOUS
  0
LAYER
  2
部品
 70
     0
 62
    14
  6
CONTINUOUS
  0
LAYER
  2
サッシ芯
 70
     0
 62
    17
  6
DASHDOTX2
  0
LAYER
  2
寸法線
 70
     0
 62
    62
  6
CONTINUOUS
  0
LAYER
  2
姿図外形線
 70
     0
 62
    65
  6
CONTINUOUS
  0
LAYER
  2
姿補助線
 70
     0
 62
    30
  6
CONTINUOUS
  0
LAYER
  2
透視線
 70
     0
 62
    78
  6
DOT
  0
LAYER
  2
用紙
 70
     0
 62
    81
  6
CONTINUOUS
  0
LAYER
  2
実線図枠
 70
     0
 62
    94
  6
CONTINUOUS
  0
LAYER
  2
補助図枠
 70
     0
 62
    97
  6
CONTINUOUS
  0
LAYER
  2
建具記号
 70
     0
 62
   110
  6
CONTINUOUS
  0
LAYER
  2
補助文字
 70
     0
 62
   113
  6
CONTINUOUS
  0
ENDTAB
  0
TABLE
  2
STYLE
 70
    10
  0
STYLE
  2
STANDARD
 70
     0
 40
1.0
 41
1.0
 42
1.0
 50
0.0
 71
     0
  3
TXT
  4
BIGFONT
  0
STYLE
  2
TATE
 70
     4
 40
1.0
 41
1.0
 42
1.0
 50
0.0
 71
     0
  3
TXT
  4
BIGFONT
  0
STYLE
  2
TextStyle03
 70
     0
 40
1.0
 41
1.0
 42
1.0
 50
0.0
 71
     0
  3
MONOTXT
  4
BIGFONT
  0
STYLE
  2
TextStyle04
 70
     0
 40
1.0
 41
1.0
 42
1.0
 50
0.0
 71
     0
  3
MONOTXT
  4
BIGFONT
  0
STYLE
  2
TextStyle05
 70
     0
 40
1.0
 41
1.0
 42
1.0
 50
0.0
 71
     0
  3
MONOTXT
  4
BIGFONT
  0
STYLE
  2
TextStyle06
 70
     0
 40
1.0
 41
1.0
 42
1.0
 50
0.0
 71
     0
  3
MONOTXT
  4
BIGFONT
  0
STYLE
  2
TextStyle07
 70
     0
 40
1.0
 41
1.0
 42
1.0
 50
0.0
 71
     0
  3
MONOTXT
  4
BIGFONT
  0
STYLE
  2
TextStyle08
 70
     0
 40
1.0
 41
1.0
 42
1.0
 50
0.0
 71
     0
  3
MONOTXT
  4
BIGFONT
  0
STYLE
  2
TextStyle09
 70
     0
 40
1.0
 41
1.0
 42
1.0
 50
0.0
 71
     0
  3
MONOTXT
  4
BIGFONT
  0
STYLE
  2
TextStyle10
 70
     0
 40
1.0
 41
1.0
 42
1.0
 50
0.0
 71
     0
  3
MONOTXT
  4
BIGFONT
  0
ENDTAB
  0
ENDSEC
  0
SECTION
  2
BLOCKS
  0
BLOCK
  2
*GRP_0001
 70
    65
 10
0.0
 20
0.0
  0
LINE
  8
型材断面
  6
CONTINUOUS
 10
195.0
 20
133.5
 11
195.0
 21
-133.5
  0
LINE
  8
型材断面
  6
CONTINUOUS
 10
195.0
 20
-133.5
 11
-185.0
 21
-133.5
  0
LINE
  8
型材断面
  6
CONTINUOUS
 10
-185.0
 20
-133.5
 11
-185.0
 21
133.5
  0
LINE
  8
型材断面
  6
CONTINUOUS
 10
195.0
 20
133.5
 11
-185.0
 21
133.5
  0
LINE
  8
型材断面
  6
CONTINUOUS
 10
145.0
 20
-133.5
 11
145.0
 21
-118.5
  0
LINE
  8
型材断面
  6
CONTINUOUS
 10
195.0
 20
-118.5
 11
145.0
 21
-118.5
  0
ENDBLK
  0
BLOCK
  2
*GRP_0002
 70
    65
 10
0.0
 20
0.0
  0
LINE
  8
ボルト／ビス
  6
CONTINUOUS
 10
168.42343
 20
17.281087
 11
168.356765
 21
17.281087
  0
LINE
  8
ボルト／ビス
  6
CONTINUOUS
 10
168.356765
 20
17.281087
 11
168.356765
 21
18.014417
  0
LINE
  8
ボルト／ビス
  6
CONTINUOUS
 10
168.356765
 20
18.014417
 11
168.42343
 21
18.014417
  0
LINE
  8
ボルト／ビス
  6
CONTINUOUS
 10
168.42343
 20
17.281087
 11
168.42343
 21
18.014417
  0
LINE
  8
ボルト／ビス
  6
CONTINUOUS
 10
168.32343
 20
17.347753
 11
168.356765
 21
17.347753
  0
LINE
  8
ボルト／ビス
  6
CONTINUOUS
 10
168.32343
 20
17.347753
 11
168.32343
 21
17.947753
  0
LINE
  8
ボルト／ビス
  6
CONTINUOUS
 10
168.32343
 20
17.947753
 11
168.356762
 21
17.947753
  0
LINE
  8
ボルト／ビス
  6
CONTINUOUS
 62
    64
 10
168.12343
 20
17.487378
 11
168.135105
 21
17.455302
  0
ARC
  8
ボルト／ビス
  6
CONTINUOUS
 62
    64
 10
168.22841
 20
17.503416
 40
0.104978
 50
152.721989
 51
180.000022
  0
ARC
  8
ボルト／ビス
  6
CONTINUOUS
 62
    64
 10
168.525833
 20
17.647753
 40
0.402401
 50
166.165024
 51
193.835007
  0
LINE
  8
ボルト／ビス
  6
CONTINUOUS
 62
    64
 10
168.12343
 20
17.808128
 11
168.135105
 21
17.840202
  0
ARC
  8
ボルト／ビス
  6
CONTINUOUS
 62
    64
 10
168.22841
 20
17.79209
 40
0.104978
 50
180.000022
 51
207.278055
  0
LINE
  8
ボルト／ビス
  6
CONTINUOUS
 62
    64
 10
168.12343
 20
17.487378
 11
168.12343
 21
17.808128
  0
LINE
  8
ボルト／ビス
  6
CONTINUOUS
 62
    64
 10
168.135105
 20
17.840202
 11
168.256762
 21
17.840202
  0
LINE
  8
ボルト／ビス
  6
CONTINUOUS
 62
    64
 10
168.135105
 20
17.743978
 11
168.256765
 21
17.743978
  0
LINE
  8
ボルト／ビス
  6
CONTINUOUS
 62
    64
 10
168.135105
 20
17.455302
 11
168.256762
 21
17.455302
  0
LINE
  8
ボルト／ビス
  6
CONTINUOUS
 62
    64
 10
168.135105
 20
17.551527
 11
168.256762
 21
17.551527
  0
LINE
  8
ボルト／ビス
  6
CONTINUOUS
 10
168.256762
 20
17.455302
 11
168.256762
 21
17.840202
  0
LINE
  8
ボルト／ビス
  6
CONTINUOUS
 10
168.256762
 20
17.447753
 11
168.32343
 21
17.447753
  0
LINE
  8
ボルト／ビス
  6
CONTINUOUS
 10
168.256762
 20
17.447753
 11
168.256762
 21
17.847753
  0
LINE
  8
ボルト／ビス
  6
CONTINUOUS
 10
168.256762
 20
17.847753
 11
168.32343
 21
17.847753
  0
LINE
  8
ボルト／ビス
  6
CONTINUOUS
 62
    64
 10
168.42343
 20
17.747753
 11
168.42343
 21
17.747753
  0
ENDBLK
  0
BLOCK
  2
*GRP_0003
 70
    65
 10
0.0
 20
0.0
  0
LINE
  8
ボルト／ビス
  6
CONTINUOUS
 10
168.42343
 20
49.347758
 11
168.356765
 21
49.347758
  0
LINE
  8
ボルト／ビス
  6
CONTINUOUS
 10
168.356765
 20
49.347758
 11
168.356765
 21
48.614425
  0
LINE
  8
ボルト／ビス
  6
CONTINUOUS
 10
168.356765
 20
48.614425
 11
168.42343
 21
48.614425
  0
LINE
  8
ボルト／ビス
  6
CONTINUOUS
 10
168.42343
 20
49.347758
 11
168.42343
 21
48.614425
  0
LINE
  8
ボルト／ビス
  6
CONTINUOUS
 10
168.32343
 20
49.28109
 11
168.356765
 21
49.28109
  0
LINE
  8
ボルト／ビス
  6
CONTINUOUS
 10
168.32343
 20
49.28109
 11
168.32343
 21
48.681092
  0
LINE
  8
ボルト／ビス
  6
CONTINUOUS
 10
168.32343
 20
48.681092
 11
168.356762
 21
48.681092
  0
LINE
  8
ボルト／ビス
  6
CONTINUOUS
 62
    64
 10
168.12343
 20
49.141467
 11
168.135105
 21
49.17354
  0
ARC
  8
ボルト／ビス
  6
CONTINUOUS
 62
    64
 10
168.22841
 20
49.125427
 40
0.104978
 50
179.999978
 51
207.278011
  0
ARC
  8
ボルト／ビス
  6
CONTINUOUS
 62
    64
 10
168.525833
 20
48.981089
 40
0.402401
 50
166.164993
 51
193.834976
  0
LINE
  8
ボルト／ビス
  6
CONTINUOUS
 62
    64
 10
168.12343
 20
48.820717
 11
168.135105
 21
48.78864
  0
ARC
  8
ボルト／ビス
  6
CONTINUOUS
 62
    64
 10
168.22841
 20
48.836752
 40
0.104978
 50
152.721945
 51
179.999978
  0
LINE
  8
ボルト／ビス
  6
CONTINUOUS
 62
    64
 10
168.12343
 20
49.141467
 11
168.12343
 21
48.820717
  0
LINE
  8
ボルト／ビス
  6
CONTINUOUS
 62
    64
 10
168.135105
 20
48.78864
 11
168.256762
 21
48.78864
  0
LINE
  8
ボルト／ビス
  6
CONTINUOUS
 62
    64
 10
168.135105
 20
48.884867
 11
168.256765
 21
48.884867
  0
LINE
  8
ボルト／ビス
  6
CONTINUOUS
 62
    64
 10
168.135105
 20
49.17354
 11
168.256762
 21
49.17354
  0
LINE
  8
ボルト／ビス
  6
CONTINUOUS
 62
    64
 10
168.135105
 20
49.077315
 11
168.256762
 21
49.077315
  0
LINE
  8
ボルト／ビス
  6
CONTINUOUS
 10
168.256762
 20
49.17354
 11
168.256762
 21
48.78864
  0
LINE
  8
ボルト／ビス
  6
CONTINUOUS
 10
168.256762
 20
49.18109
 11
168.32343
 21
49.18109
  0
LINE
  8
ボルト／ビス
  6
CONTINUOUS
 10
168.256762
 20
49.18109
 11
168.256762
 21
48.781092
  0
LINE
  8
ボルト／ビス
  6
CONTINUOUS
 10
168.256762
 20
48.781092
 11
168.32343
 21
48.781092
  0
LINE
  8
ボルト／ビス
  6
CONTINUOUS
 62
    64
 10
168.42343
 20
48.881092
 11
168.42343
 21
48.881092
  0
ENDBLK
  0
BLOCK
  2
*GRP_0004
 70
    65
 10
0.0
 20
0.0
  0
LINE
  8
ボルト／ビス
  6
CONTINUOUS
 10
76.181328
 20
-81.294343
 11
76.181328
 21
-81.227678
  0
LINE
  8
ボルト／ビス
  6
CONTINUOUS
 10
76.181328
 20
-81.227678
 11
75.447998
 21
-81.227678
  0
LINE
  8
ボルト／ビス
  6
CONTINUOUS
 10
75.447998
 20
-81.227678
 11
75.447998
 21
-81.294343
  0
LINE
  8
ボルト／ビス
  6
CONTINUOUS
 10
76.181328
 20
-81.294343
 11
75.447998
 21
-81.294343
  0
LINE
  8
ボルト／ビス
  6
CONTINUOUS
 10
76.114662
 20
-81.194343
 11
76.114662
 21
-81.227678
  0
LINE
  8
ボルト／ビス
  6
CONTINUOUS
 10
76.114662
 20
-81.194343
 11
75.514662
 21
-81.194343
  0
LINE
  8
ボルト／ビス
  6
CONTINUOUS
 10
75.514662
 20
-81.194343
 11
75.514662
 21
-81.227675
  0
LINE
  8
ボルト／ビス
  6
CONTINUOUS
 62
    64
 10
75.975037
 20
-80.994343
 11
76.007113
 21
-81.006017
  0
ARC
  8
ボルト／ビス
  6
CONTINUOUS
 62
    64
 10
75.958998
 20
-81.099323
 40
0.104978
 50
89.999978
 51
117.278011
  0
ARC
  8
ボルト／ビス
  6
CONTINUOUS
 62
    64
 10
75.814661
 20
-81.396746
 40
0.402401
 50
76.164993
 51
103.834976
  0
LINE
  8
ボルト／ビス
  6
CONTINUOUS
 62
    64
 10
75.654287
 20
-80.994343
 11
75.622213
 21
-81.006017
  0
ARC
  8
ボルト／ビス
  6
CONTINUOUS
 62
    64
 10
75.670324
 20
-81.099323
 40
0.104978
 50
62.721945
 51
89.999978
  0
LINE
  8
ボルト／ビス
  6
CONTINUOUS
 62
    64
 10
75.975037
 20
-80.994343
 11
75.654287
 21
-80.994343
  0
LINE
  8
ボルト／ビス
  6
CONTINUOUS
 62
    64
 10
75.622213
 20
-81.006017
 11
75.622213
 21
-81.127675
  0
LINE
  8
ボルト／ビス
  6
CONTINUOUS
 62
    64
 10
75.718438
 20
-81.006017
 11
75.718438
 21
-81.127678
  0
LINE
  8
ボルト／ビス
  6
CONTINUOUS
 62
    64
 10
76.007113
 20
-81.006017
 11
76.007113
 21
-81.127675
  0
LINE
  8
ボルト／ビス
  6
CONTINUOUS
 62
    64
 10
75.910887
 20
-81.006017
 11
75.910887
 21
-81.127675
  0
LINE
  8
ボルト／ビス
  6
CONTINUOUS
 10
76.007113
 20
-81.127675
 11
75.622213
 21
-81.127675
  0
LINE
  8
ボルト／ビス
  6
CONTINUOUS
 10
76.014662
 20
-81.127675
 11
76.014662
 21
-81.194343
  0
LINE
  8
ボルト／ビス
  6
CONTINUOUS
 10
76.014662
 20
-81.127675
 11
75.614662
 21
-81.127675
  0
LINE
  8
ボルト／ビス
  6
CONTINUOUS
 10
75.614662
 20
-81.127675
 11
75.614662
 21
-81.194343
  0
LINE
  8
ボルト／ビス
  6
CONTINUOUS
 62
    64
 10
75.714662
 20
-81.294343
 11
75.714662
 21
-81.294343
  0
ENDBLK
  0
BLOCK
  2
*GRP_0005
 70
    65
 10
0.0
 20
0.0
  0
LINE
  8
ボルト／ビス
  6
CONTINUOUS
 10
-125.88533
 20
-81.294343
 11
-125.88533
 21
-81.227678
  0
LINE
  8
ボルト／ビス
  6
CONTINUOUS
 10
-125.88533
 20
-81.227678
 11
-125.151998
 21
-81.227678
  0
LINE
  8
ボルト／ビス
  6
CONTINUOUS
 10
-125.151998
 20
-81.227678
 11
-125.151998
 21
-81.294343
  0
LINE
  8
ボルト／ビス
  6
CONTINUOUS
 10
-125.88533
 20
-81.294343
 11
-125.151998
 21
-81.294343
  0
LINE
  8
ボルト／ビス
  6
CONTINUOUS
 10
-125.818663
 20
-81.194343
 11
-125.818663
 21
-81.227678
  0
LINE
  8
ボルト／ビス
  6
CONTINUOUS
 10
-125.818663
 20
-81.194343
 11
-125.218665
 21
-81.194343
  0
LINE
  8
ボルト／ビス
  6
CONTINUOUS
 10
-125.218665
 20
-81.194343
 11
-125.218665
 21
-81.227675
  0
LINE
  8
ボルト／ビス
  6
CONTINUOUS
 62
    64
 10
-125.67904
 20
-80.994343
 11
-125.711113
 21
-81.006017
  0
ARC
  8
ボルト／ビス
  6
CONTINUOUS
 62
    64
 10
-125.663
 20
-81.099323
 40
0.104978
 50
62.721989
 51
90.000022
  0
ARC
  8
ボルト／ビス
  6
CONTINUOUS
 62
    64
 10
-125.518663
 20
-81.396746
 40
0.402401
 50
76.165024
 51
103.835007
  0
LINE
  8
ボルト／ビス
  6
CONTINUOUS
 62
    64
 10
-125.35829
 20
-80.994343
 11
-125.326213
 21
-81.006017
  0
ARC
  8
ボルト／ビス
  6
CONTINUOUS
 62
    64
 10
-125.374325
 20
-81.099323
 40
0.104978
 50
90.000022
 51
117.278055
  0
LINE
  8
ボルト／ビス
  6
CONTINUOUS
 62
    64
 10
-125.67904
 20
-80.994343
 11
-125.35829
 21
-80.994343
  0
LINE
  8
ボルト／ビス
  6
CONTINUOUS
 62
    64
 10
-125.326213
 20
-81.006017
 11
-125.326213
 21
-81.127675
  0
LINE
  8
ボルト／ビス
  6
CONTINUOUS
 62
    64
 10
-125.42244
 20
-81.006017
 11
-125.42244
 21
-81.127678
  0
LINE
  8
ボルト／ビス
  6
CONTINUOUS
 62
    64
 10
-125.711113
 20
-81.006017
 11
-125.711113
 21
-81.127675
  0
LINE
  8
ボルト／ビス
  6
CONTINUOUS
 62
    64
 10
-125.614887
 20
-81.006017
 11
-125.614887
 21
-81.127675
  0
LINE
  8
ボルト／ビス
  6
CONTINUOUS
 10
-125.711113
 20
-81.127675
 11
-125.326213
 21
-81.127675
  0
LINE
  8
ボルト／ビス
  6
CONTINUOUS
 10
-125.718663
 20
-81.127675
 11
-125.718663
 21
-81.194343
  0
LINE
  8
ボルト／ビス
  6
CONTINUOUS
 10
-125.718663
 20
-81.127675
 11
-125.318665
 21
-81.127675
  0
LINE
  8
ボルト／ビス
  6
CONTINUOUS
 10
-125.318665
 20
-81.127675
 11
-125.318665
 21
-81.194343
  0
LINE
  8
ボルト／ビス
  6
CONTINUOUS
 62
    64
 10
-125.418665
 20
-81.294343
 11
-125.418665
 21
-81.294343
  0
ENDBLK
  0
BLOCK
  2
*DIM_0006
 70
    65
 10
0.0
 20
0.0
  0
LINE
  8
寸法
  6
CONTINUOUS
 10
166.13993
 20
15.70761
 11
151.055333
 21
15.70761
  0
LINE
  8
寸法
  6
CONTINUOUS
 10
151.055333
 20
18.314422
 11
151.055333
 21
15.70761
  0
POINT
  8
寸法
 10
151.055333
 20
18.314422
  0
POINT
  8
寸法
 10
151.055333
 20
15.70761
  0
TEXT
  7
TextStyle03
  8
寸法
  6
CONTINUOUS
 10
150.625
 20
6.99375
  1
78.2
 40
3.0
 50
90.0
 72
     5
 11
150.625
 21
13.55625
  0
ENDBLK
  0
BLOCK
  2
*DIM_0007
 70
    65
 10
0.0
 20
0.0
  0
LINE
  8
寸法
  6
CONTINUOUS
 10
166.13993
 20
50.921237
 11
151.055333
 21
50.921237
  0
LINE
  8
寸法
  6
CONTINUOUS
 10
151.055333
 20
48.314422
 11
151.055333
 21
50.921237
  0
POINT
  8
寸法
 10
151.055333
 20
48.314422
  0
POINT
  8
寸法
 10
151.055333
 20
50.921237
  0
TEXT
  7
TextStyle03
  8
寸法
  6
CONTINUOUS
 10
150.625
 20
53.09375
  1
78.2
 40
3.0
 50
90.0
 72
     5
 11
150.625
 21
59.65625
  0
ENDBLK
  0
BLOCK
  2
*DIM_0008
 70
    65
 10
0.0
 20
0.0
  0
LINE
  8
寸法
  6
CONTINUOUS
 10
151.055333
 20
18.314422
 11
151.055333
 21
48.314422
  0
POINT
  8
寸法
 10
151.055333
 20
18.314422
  0
POINT
  8
寸法
 10
151.055333
 20
48.314422
  0
TEXT
  7
TextStyle03
  8
寸法
  6
CONTINUOUS
 10
150.625
 20
22.45
  1
呼称寸法　900
 40
3.0
 50
90.0
 72
     5
 11
150.625
 21
44.2
  0
ENDBLK
  0
BLOCK
  2
*DIM_0009
 70
    65
 10
0.0
 20
0.0
  0
LINE
  8
寸法
  6
CONTINUOUS
 10
171.63993
 20
10.707608
 11
171.63993
 21
2.443285
  0
LINE
  8
寸法
  6
CONTINUOUS
 10
167.923432
 20
13.314423
 11
167.923432
 21
2.443285
  0
LINE
  8
寸法
  6
CONTINUOUS
 10
171.63993
 20
2.443285
 11
167.923432
 21
2.443285
  0
POINT
  8
寸法
 10
171.63993
 20
2.443285
  0
POINT
  8
寸法
 10
167.923432
 20
2.443285
  0
TEXT
  7
TextStyle03
  8
寸法
  6
CONTINUOUS
 10
165.6
 20
-0.55
  1
111.5
 40
3.0
 50
360.0
 72
     5
 11
173.85
 21
-0.55
  0
ENDBLK
  0
BLOCK
  2
*DIM_0010
 70
    65
 10
0.0
 20
0.0
  0
LINE
  8
寸法
  6
CONTINUOUS
 10
77.754808
 20
-79.010843
 11
77.754808
 21
-63.926245
  0
LINE
  8
寸法
  6
CONTINUOUS
 10
75.147992
 20
-63.926245
 11
77.754808
 21
-63.926245
  0
POINT
  8
寸法
 10
75.147992
 20
-63.926245
  0
POINT
  8
寸法
 10
77.754808
 20
-63.926245
  0
TEXT
  7
TextStyle03
  8
寸法
  6
CONTINUOUS
 10
79.86875
 20
-63.55
  1
78.2
 40
3.0
 72
     5
 11
86.43125
 21
-63.55
  0
ENDBLK
  0
BLOCK
  2
*DIM_0011
 70
    65
 10
0.0
 20
0.0
  0
LINE
  8
寸法
  6
CONTINUOUS
 10
82.754808
 20
-84.510843
 11
91.01913
 21
-84.510843
  0
LINE
  8
寸法
  6
CONTINUOUS
 10
80.147992
 20
-80.794345
 11
91.01913
 21
-80.794345
  0
LINE
  8
寸法
  6
CONTINUOUS
 10
91.01913
 20
-84.510843
 11
91.01913
 21
-80.794345
  0
POINT
  8
寸法
 10
91.01913
 20
-84.510843
  0
POINT
  8
寸法
 10
91.01913
 20
-80.794345
  0
TEXT
  7
TextStyle03
  8
寸法
  6
CONTINUOUS
 10
93.975
 20
-86.775
  1
111.5
 40
3.0
 50
90.0
 72
     5
 11
93.975
 21
-78.525
  0
ENDBLK
  0
BLOCK
  2
*DIM_0012
 70
    65
 10
0.0
 20
0.0
  0
LINE
  8
寸法
  6
CONTINUOUS
 10
-127.458807
 20
-79.010843
 11
-127.458807
 21
-63.926245
  0
LINE
  8
寸法
  6
CONTINUOUS
 10
-124.851995
 20
-63.926245
 11
-127.458807
 21
-63.926245
  0
POINT
  8
寸法
 10
-124.851995
 20
-63.926245
  0
POINT
  8
寸法
 10
-127.458807
 20
-63.926245
  0
TEXT
  7
TextStyle03
  8
寸法
  6
CONTINUOUS
 10
-136.23125
 20
-63.55
  1
78.2
 40
3.0
 72
     5
 11
-129.66875
 21
-63.55
  0
ENDBLK
  0
BLOCK
  2
*DIM_0013
 70
    65
 10
0.0
 20
0.0
  0
LINE
  8
寸法
  6
CONTINUOUS
 10
75.147992
 20
-63.926245
 11
-124.851995
 21
-63.926245
  0
POINT
  8
寸法
 10
75.147992
 20
-63.926245
  0
POINT
  8
寸法
 10
-124.851995
 20
-63.926245
  0
TEXT
  7
TextStyle03
  8
寸法
  6
CONTINUOUS
 10
-36.61875
 20
-63.55
  1
呼称寸法　6000
 40
3.0
 72
     5
 11
-13.18125
 21
-63.55
  0
ENDBLK
  0
BLOCK
  2
*DIM_0014
 70
    65
 10
0.0
 20
0.0
  0
LINE
  8
寸法
  6
BYBLOCK
 62
     0
 10
-108.185335
 20
14.684293
 11
-108.185335
 21
9.683795
  0
LINE
  8
寸法
  6
BYBLOCK
 62
     0
 10
-24.852002
 20
14.684295
 11
-24.852002
 21
9.683795
  0
LINE
  8
寸法
  6
BYBLOCK
 62
     0
 10
-108.185335
 20
9.683795
 11
-24.852002
 21
9.683795
  0
POINT
  8
寸法
 62
     0
 10
-108.185335
 20
9.683795
  0
POINT
  8
寸法
 62
     0
 10
-24.852002
 20
9.683795
  0
TEXT
  7
TextStyle03
  8
寸法
  6
CONTINUOUS
 62
     0
 10
-69.83125
 20
10.05
  1
2500
 40
3.0
 72
     5
 11
-63.26875
 21
10.05
  0
ENDBLK
  0
BLOCK
  2
*DIM_0015
 70
    65
 10
0.0
 20
0.0
  0
LINE
  8
寸法
  6
BYBLOCK
 62
     0
 10
58.48133
 20
14.684293
 11
58.48133
 21
9.683795
  0
LINE
  8
寸法
  6
BYBLOCK
 62
     0
 10
-24.852002
 20
9.683795
 11
58.48133
 21
9.683795
  0
POINT
  8
寸法
 62
     0
 10
58.48133
 20
9.683795
  0
TEXT
  7
TextStyle03
  8
寸法
  6
CONTINUOUS
 62
     0
 10
13.49375
 20
10.05
  1
2500
 40
3.0
 72
     5
 11
20.05625
 21
10.05
  0
ENDBLK
  0
BLOCK
  2
*DIM_0016
 70
    65
 10
0.0
 20
0.0
  0
LINE
  8
寸法
  6
BYBLOCK
 62
     0
 10
-127.852002
 20
43.314422
 11
-141.14484
 21
43.314422
  0
LINE
  8
寸法
  6
BYBLOCK
 62
     0
 10
-127.852002
 20
23.314422
 11
-141.14484
 21
23.314422
  0
LINE
  8
寸法
  6
BYBLOCK
 62
     0
 10
-141.14484
 20
43.314422
 11
-141.14484
 21
23.314422
  0
POINT
  8
寸法
 62
     0
 10
-141.14484
 20
43.314422
  0
POINT
  8
寸法
 62
     0
 10
-141.14484
 20
23.314422
  0
TEXT
  7
TextStyle03
  8
寸法
  6
CONTINUOUS
 62
     0
 10
-141.55
 20
30.8875
  1
600
 40
3.0
 50
90.0
 72
     5
 11
-141.55
 21
35.7625
  0
ENDBLK
  0
BLOCK
  2
*DIM_0017
 70
    65
 10
0.0
 20
0.0
  0
LINE
  8
寸法
  6
BYBLOCK
 62
     0
 10
-118.185335
 20
51.314422
 11
-118.185335
 21
80.422495
  0
LINE
  8
寸法
  6
BYBLOCK
 62
     0
 10
-94.852002
 20
51.314422
 11
-94.852002
 21
80.422495
  0
LINE
  8
寸法
  6
BYBLOCK
 62
     0
 10
-118.185335
 20
80.422495
 11
-94.852002
 21
80.422495
  0
POINT
  8
寸法
 62
     0
 10
-118.185335
 20
80.422495
  0
POINT
  8
寸法
 62
     0
 10
-94.852002
 20
80.422495
  0
TEXT
  7
TextStyle03
  8
寸法
  6
CONTINUOUS
 62
     0
 10
-108.9875
 20
80.8
  1
700
 40
3.0
 72
     5
 11
-104.1125
 21
80.8
  0
ENDBLK
  0
BLOCK
  2
*DIM_0018
 70
    65
 10
0.0
 20
0.0
  0
LINE
  8
寸法
  6
BYBLOCK
 62
     0
 10
-71.51867
 20
51.314422
 11
-71.51867
 21
80.422495
  0
LINE
  8
寸法
  6
BYBLOCK
 62
     0
 10
-94.852002
 20
80.422495
 11
-71.51867
 21
80.422495
  0
POINT
  8
寸法
 62
     0
 10
-71.51867
 20
80.422495
  0
TEXT
  7
TextStyle03
  8
寸法
  6
CONTINUOUS
 62
     0
 10
-85.6625
 20
80.8
  1
700
 40
3.0
 72
     5
 11
-80.7875
 21
80.8
  0
ENDBLK
  0
BLOCK
  2
*DIM_0019
 70
    65
 10
0.0
 20
0.0
  0
LINE
  8
寸法
  6
BYBLOCK
 62
     0
 10
-48.185335
 20
51.314422
 11
-48.185335
 21
80.422495
  0
LINE
  8
寸法
  6
BYBLOCK
 62
     0
 10
-71.51867
 20
80.422495
 11
-48.185335
 21
80.422495
  0
POINT
  8
寸法
 62
     0
 10
-48.185335
 20
80.422495
  0
TEXT
  7
TextStyle03
  8
寸法
  6
CONTINUOUS
 62
     0
 10
-62.3125
 20
80.8
  1
700
 40
3.0
 72
     5
 11
-57.4375
 21
80.8
  0
ENDBLK
  0
BLOCK
  2
*DIM_0020
 70
    65
 10
0.0
 20
0.0
  0
LINE
  8
寸法
  6
BYBLOCK
 62
     0
 10
-24.852002
 20
51.314422
 11
-24.852002
 21
80.422495
  0
LINE
  8
寸法
  6
BYBLOCK
 62
     0
 10
-48.185335
 20
80.422495
 11
-24.852002
 21
80.422495
  0
POINT
  8
寸法
 62
     0
 10
-24.852002
 20
80.422495
  0
TEXT
  7
TextStyle03
  8
寸法
  6
CONTINUOUS
 62
     0
 10
-38.9875
 20
80.8
  1
700
 40
3.0
 72
     5
 11
-34.1125
 21
80.8
  0
ENDBLK
  0
BLOCK
  2
*DIM_0021
 70
    65
 10
0.0
 20
0.0
  0
LINE
  8
寸法
  6
BYBLOCK
 62
     0
 10
-1.51867
 20
51.314422
 11
-1.51867
 21
80.422495
  0
LINE
  8
寸法
  6
BYBLOCK
 62
     0
 10
-24.852002
 20
80.422495
 11
-1.51867
 21
80.422495
  0
POINT
  8
寸法
 62
     0
 10
-1.51867
 20
80.422495
  0
TEXT
  7
TextStyle03
  8
寸法
  6
CONTINUOUS
 62
     0
 10
-15.6625
 20
80.8
  1
700
 40
3.0
 72
     5
 11
-10.7875
 21
80.8
  0
ENDBLK
  0
BLOCK
  2
*DIM_0022
 70
    65
 10
0.0
 20
0.0
  0
LINE
  8
寸法
  6
BYBLOCK
 62
     0
 10
21.814665
 20
51.314422
 11
21.814665
 21
80.422495
  0
LINE
  8
寸法
  6
BYBLOCK
 62
     0
 10
-1.51867
 20
80.422495
 11
21.814665
 21
80.422495
  0
POINT
  8
寸法
 62
     0
 10
21.814665
 20
80.422495
  0
TEXT
  7
TextStyle03
  8
寸法
  6
CONTINUOUS
 62
     0
 10
7.6875
 20
80.8
  1
700
 40
3.0
 72
     5
 11
12.5625
 21
80.8
  0
ENDBLK
  0
BLOCK
  2
*DIM_0023
 70
    65
 10
0.0
 20
0.0
  0
LINE
  8
寸法
  6
BYBLOCK
 62
     0
 10
45.147998
 20
51.314422
 11
45.147998
 21
80.422495
  0
LINE
  8
寸法
  6
BYBLOCK
 62
     0
 10
21.814665
 20
80.422495
 11
45.147998
 21
80.422495
  0
POINT
  8
寸法
 62
     0
 10
45.147998
 20
80.422495
  0
TEXT
  7
TextStyle03
  8
寸法
  6
CONTINUOUS
 62
     0
 10
31.0125
 20
80.8
  1
700
 40
3.0
 72
     5
 11
35.8875
 21
80.8
  0
ENDBLK
  0
BLOCK
  2
*DIM_0024
 70
    65
 10
0.0
 20
0.0
  0
LINE
  8
寸法
  6
BYBLOCK
 62
     0
 10
68.48133
 20
51.314422
 11
68.48133
 21
80.422495
  0
LINE
  8
寸法
  6
BYBLOCK
 62
     0
 10
45.147998
 20
80.422495
 11
68.48133
 21
80.422495
  0
POINT
  8
寸法
 62
     0
 10
68.48133
 20
80.422495
  0
TEXT
  7
TextStyle03
  8
寸法
  6
CONTINUOUS
 62
     0
 10
54.3375
 20
80.8
  1
700
 40
3.0
 72
     5
 11
59.2125
 21
80.8
  0
ENDBLK
  0
BLOCK
  2
*DIM_0025
 70
    65
 10
0.0
 20
0.0
  0
LINE
  8
寸法
  6
CONTINUOUS
 10
133.482705
 20
-52.76888
 11
133.482705
 21
-44.122473
  0
LINE
  8
寸法
  6
CONTINUOUS
 10
165.676037
 20
-52.76888
 11
165.676037
 21
-44.122473
  0
LINE
  8
寸法
  6
CONTINUOUS
 10
133.482705
 20
-44.122473
 11
165.676037
 21
-44.122473
  0
POINT
  8
寸法
 10
133.482705
 20
-44.122473
  0
POINT
  8
寸法
 10
165.676037
 20
-44.122473
  0
TEXT
  7
TextStyle03
  8
寸法
  6
CONTINUOUS
 10
145.425
 20
-43.75
  1
965.8
 40
3.0
 72
     5
 11
153.675
 21
-43.75
  0
ENDBLK
  0
BLOCK
  2
*DIM_0026
 70
    65
 10
0.0
 20
0.0
  0
LINE
  8
寸法
  6
CONTINUOUS
 10
170.676037
 20
-57.76888
 11
180.747655
 21
-57.76888
  0
LINE
  8
寸法
  6
CONTINUOUS
 10
170.676037
 20
-87.102213
 11
180.747655
 21
-87.102213
  0
LINE
  8
寸法
  6
CONTINUOUS
 10
180.747655
 20
-57.76888
 11
180.747655
 21
-87.102213
  0
POINT
  8
寸法
 10
180.747655
 20
-57.76888
  0
POINT
  8
寸法
 10
180.747655
 20
-87.102213
  0
TEXT
  7
TextStyle03
  8
寸法
  6
CONTINUOUS
 10
180.35
 20
-74.8625
  1
880
 40
3.0
 50
90.0
 72
     5
 11
180.35
 21
-69.9875
  0
ENDBLK
  0
ENDSEC
  0
SECTION
  2
ENTITIES
  0
POLYLINE
  8
通り芯
  6
CONTINUOUS
 66
     1
 70
     1
  0
VERTEX
  8
通り芯
 10
-210.0
 20
-148.5
  0
VERTEX
  8
通り芯
 10
210.0
 20
-148.5
  0
VERTEX
  8
通り芯
 10
210.0
 20
148.5
  0
VERTEX
  8
通り芯
 10
-210.0
 20
148.5
  0
SEQEND
  0
INSERT
  2
*GRP_0001
  8
型材断面
  6
CONTINUOUS
 10
0.0
 20
0.0
  0
LINE
  8
型材断面
  6
CONTINUOUS
 10
172.08993
 20
16.157608
 11
171.63993
 21
16.157608
  0
LINE
  8
型材断面
  6
CONTINUOUS
 62
    47
 10
171.63993
 20
15.707608
 11
171.13993
 21
15.707608
  0
LINE
  8
型材断面
  6
CONTINUOUS
 62
    47
 10
170.344312
 20
18.264423
 11
171.13993
 21
15.707608
  0
LINE
  8
型材断面
  6
CONTINUOUS
 10
171.63993
 20
16.157608
 11
171.63993
 21
15.707608
  0
LINE
  8
型材断面
  6
CONTINUOUS
 10
169.256765
 20
16.647758
 11
169.256762
 21
16.697758
  0
LINE
  8
型材断面
  6
CONTINUOUS
 10
169.256765
 20
16.647758
 11
168.42343
 21
16.647758
  0
LINE
  8
型材断面
  6
CONTINUOUS
 10
167.923432
 20
18.314422
 11
168.42343
 21
18.314422
  0
LINE
  8
型材断面
  6
CONTINUOUS
 10
168.42343
 20
16.647758
 11
168.42343
 21
18.314422
  0
INSERT
  2
*GRP_0002
  8
型材断面
  6
CONTINUOUS
 10
0.0
 20
0.0
  0
LINE
  8
型材断面
  6
CONTINUOUS
 10
169.256762
 20
18.264423
 11
170.344312
 21
18.264423
  0
LINE
  8
型材断面
  6
CONTINUOUS
 10
172.08993
 20
50.471235
 11
171.63993
 21
50.471235
  0
LINE
  8
型材断面
  6
CONTINUOUS
 62
    47
 10
171.63993
 20
50.921235
 11
171.13993
 21
50.921235
  0
LINE
  8
型材断面
  6
CONTINUOUS
 62
    47
 10
170.344312
 20
48.364423
 11
171.13993
 21
50.921235
  0
LINE
  8
型材断面
  6
CONTINUOUS
 10
171.63993
 20
50.471235
 11
171.63993
 21
50.921235
  0
LINE
  8
型材断面
  6
CONTINUOUS
 10
169.256765
 20
49.981085
 11
169.256762
 21
49.931085
  0
LINE
  8
型材断面
  6
CONTINUOUS
 10
169.256765
 20
49.981085
 11
168.42343
 21
49.981085
  0
LINE
  8
型材断面
  6
CONTINUOUS
 10
167.923432
 20
48.314422
 11
168.42343
 21
48.314422
  0
LINE
  8
型材断面
  6
CONTINUOUS
 10
168.42343
 20
49.981085
 11
168.42343
 21
48.314422
  0
INSERT
  2
*GRP_0003
  8
型材断面
  6
CONTINUOUS
 10
0.0
 20
0.0
  0
LINE
  8
型材断面
  6
CONTINUOUS
 10
169.256762
 20
48.364423
 11
170.344312
 21
48.364423
  0
LINE
  8
型材断面
  6
DASHDOT
 10
-24.852002
 20
-86.575325
 11
-24.852002
 21
48.314422
  0
LINE
  8
型材断面
  6
CONTINUOUS
 10
171.63993
 20
50.921235
 11
171.63993
 21
15.707608
  0
LINE
  8
型材断面
  6
CONTINUOUS
 10
171.13993
 20
50.921235
 11
171.13993
 21
15.707608
  0
LINE
  8
型材断面
  6
CONTINUOUS
 10
170.344312
 20
18.264423
 11
170.344312
 21
48.364423
  0
LINE
  8
型材断面
  6
CONTINUOUS
 10
172.08993
 20
16.157608
 11
172.08993
 21
50.471235
  0
LINE
  8
型材断面
  6
CONTINUOUS
 10
167.92343
 20
18.314422
 11
167.92343
 21
48.314422
  0
LINE
  8
型材断面
  6
CONTINUOUS
 10
169.256762
 20
16.647758
 11
169.256762
 21
49.981085
  0
LINE
  8
型材断面
  6
CONTINUOUS
 10
168.42343
 20
16.647758
 11
168.42343
 21
49.981085
  0
LINE
  8
型材断面
  6
CONTINUOUS
 10
77.304808
 20
-84.960843
 11
77.304808
 21
-84.510843
  0
LINE
  8
型材断面
  6
CONTINUOUS
 62
    47
 10
77.754808
 20
-84.510843
 11
77.754808
 21
-84.010843
  0
LINE
  8
型材断面
  6
CONTINUOUS
 62
    47
 10
75.197992
 20
-83.215225
 11
77.754808
 21
-84.010843
  0
LINE
  8
型材断面
  6
CONTINUOUS
 10
77.304808
 20
-84.510843
 11
77.754808
 21
-84.510843
  0
LINE
  8
型材断面
  6
CONTINUOUS
 10
76.814658
 20
-82.127678
 11
76.764658
 21
-82.127675
  0
LINE
  8
型材断面
  6
CONTINUOUS
 10
76.814658
 20
-82.127678
 11
76.814658
 21
-81.294343
  0
LINE
  8
型材断面
  6
CONTINUOUS
 10
75.147992
 20
-80.794345
 11
75.147992
 21
-81.294343
  0
LINE
  8
型材断面
  6
CONTINUOUS
 10
76.814658
 20
-81.294343
 11
75.147992
 21
-81.294343
  0
INSERT
  2
*GRP_0004
  8
型材断面
  6
CONTINUOUS
 10
0.0
 20
0.0
  0
LINE
  8
型材断面
  6
CONTINUOUS
 10
75.197992
 20
-82.127675
 11
75.197992
 21
-83.215225
  0
LINE
  8
型材断面
  6
CONTINUOUS
 10
74.31466
 20
32.897755
 11
75.147992
 21
32.897755
  0
LINE
  8
型材断面
  6
CONTINUOUS
 10
74.31466
 20
33.731087
 11
75.147992
 21
33.731087
  0
LINE
  8
型材断面
  6
DASHDOT
 10
75.147992
 20
-86.575325
 11
75.147992
 21
18.314422
  0
LINE
  8
型材断面
  6
DASHDOT
 10
173.704413
 20
18.314422
 11
75.147992
 21
18.314422
  0
LINE
  8
型材断面
  6
CONTINUOUS
 10
75.147992
 20
18.314422
 11
75.147992
 21
33.314422
  0
LINE
  8
型材断面
  6
CONTINUOUS
 10
74.31466
 20
32.897755
 11
74.31466
 21
19.147755
  0
LINE
  8
型材断面
  6
CONTINUOUS
 10
77.754808
 20
15.707608
 11
74.31466
 21
19.147755
  0
LINE
  8
型材断面
  6
DASHDOT
 10
173.704413
 20
48.314422
 11
75.147992
 21
48.314422
  0
LINE
  8
型材断面
  6
CONTINUOUS
 10
75.147992
 20
48.314422
 11
75.147992
 21
33.314422
  0
LINE
  8
型材断面
  6
CONTINUOUS
 10
77.754808
 20
50.921235
 11
74.31466
 21
47.48109
  0
LINE
  8
型材断面
  6
CONTINUOUS
 10
74.31466
 20
33.731087
 11
74.31466
 21
47.48109
  0
LINE
  8
型材断面
  6
CONTINUOUS
 10
77.754808
 20
15.707608
 11
77.754808
 21
50.921235
  0
LINE
  8
型材断面
  6
CONTINUOUS
 10
76.814658
 20
16.647758
 11
76.814658
 21
49.981085
  0
LINE
  8
型材断面
  6
CONTINUOUS
 10
-127.008807
 20
-84.960843
 11
-127.008807
 21
-84.510843
  0
LINE
  8
型材断面
  6
CONTINUOUS
 62
    47
 10
-127.458807
 20
-84.510843
 11
-127.458807
 21
-84.010843
  0
LINE
  8
型材断面
  6
CONTINUOUS
 62
    47
 10
-124.901995
 20
-83.215225
 11
-127.458807
 21
-84.010843
  0
LINE
  8
型材断面
  6
CONTINUOUS
 10
-127.008807
 20
-84.510843
 11
-127.458807
 21
-84.510843
  0
LINE
  8
型材断面
  6
CONTINUOUS
 10
-126.518657
 20
-82.127678
 11
-126.468657
 21
-82.127675
  0
LINE
  8
型材断面
  6
CONTINUOUS
 10
-126.518657
 20
-82.127678
 11
-126.518657
 21
-81.294343
  0
LINE
  8
型材断面
  6
CONTINUOUS
 10
-124.851995
 20
-80.794345
 11
-124.851995
 21
-81.294343
  0
LINE
  8
型材断面
  6
CONTINUOUS
 10
-126.518657
 20
-81.294343
 11
-124.851995
 21
-81.294343
  0
INSERT
  2
*GRP_0005
  8
型材断面
  6
CONTINUOUS
 10
0.0
 20
0.0
  0
LINE
  8
型材断面
  6
CONTINUOUS
 10
-124.901995
 20
-82.127675
 11
-124.901995
 21
-83.215225
  0
LINE
  8
型材断面
  6
DASHDOT
 10
173.704413
 20
33.314422
 11
-124.851995
 21
33.314422
  0
LINE
  8
型材断面
  6
CONTINUOUS
 10
-124.018663
 20
32.897755
 11
-124.851995
 21
32.897755
  0
LINE
  8
型材断面
  6
CONTINUOUS
 10
-124.018663
 20
33.731087
 11
-124.851995
 21
33.731087
  0
LINE
  8
型材断面
  6
DASHDOT
 10
-124.851995
 20
-86.575325
 11
-124.851995
 21
18.314422
  0
LINE
  8
型材断面
  6
CONTINUOUS
 10
-124.851995
 20
18.314422
 11
-124.851995
 21
33.314422
  0
LINE
  8
型材断面
  6
CONTINUOUS
 10
-124.018663
 20
32.897755
 11
-124.018663
 21
19.147755
  0
LINE
  8
型材断面
  6
CONTINUOUS
 10
-127.458807
 20
15.707608
 11
-124.018663
 21
19.147755
  0
LINE
  8
型材断面
  6
CONTINUOUS
 10
-124.851995
 20
48.314422
 11
-124.851995
 21
33.314422
  0
LINE
  8
型材断面
  6
CONTINUOUS
 10
-124.018663
 20
33.731087
 11
-124.018663
 21
47.48109
  0
LINE
  8
型材断面
  6
CONTINUOUS
 10
-127.458807
 20
50.921235
 11
-124.018663
 21
47.48109
  0
LINE
  8
型材断面
  6
CONTINUOUS
 10
-126.518657
 20
49.981085
 11
-126.518657
 21
16.647758
  0
LINE
  8
型材断面
  6
CONTINUOUS
 10
-127.458807
 20
50.921235
 11
-127.458807
 21
15.707608
  0
LINE
  8
型材断面
  6
CONTINUOUS
 10
-127.458807
 20
-84.510843
 11
77.754808
 21
-84.510843
  0
LINE
  8
型材断面
  6
CONTINUOUS
 10
-127.458807
 20
-84.010843
 11
77.754808
 21
-84.010843
  0
LINE
  8
型材断面
  6
CONTINUOUS
 10
75.197992
 20
-83.215225
 11
-124.901995
 21
-83.215225
  0
LINE
  8
型材断面
  6
CONTINUOUS
 10
77.304808
 20
-84.960843
 11
-127.008807
 21
-84.960843
  0
LINE
  8
型材断面
  6
CONTINUOUS
 10
75.147992
 20
-80.794343
 11
-124.851995
 21
-80.794343
  0
LINE
  8
型材断面
  6
CONTINUOUS
 10
76.814658
 20
-82.127675
 11
-126.518657
 21
-82.127675
  0
LINE
  8
型材断面
  6
CONTINUOUS
 10
76.814658
 20
-81.294343
 11
-126.518657
 21
-81.294343
  0
LINE
  8
型材断面
  6
CONTINUOUS
 10
76.814658
 20
16.647758
 11
-126.518657
 21
16.647758
  0
LINE
  8
型材断面
  6
CONTINUOUS
 10
77.754808
 20
15.707608
 11
-127.458807
 21
15.707608
  0
LINE
  8
型材断面
  6
CONTINUOUS
 10
75.147992
 20
18.314422
 11
-124.851995
 21
18.314422
  0
LINE
  8
型材断面
  6
CONTINUOUS
 10
76.814658
 20
49.981085
 11
-126.518657
 21
49.981085
  0
LINE
  8
型材断面
  6
CONTINUOUS
 10
77.754808
 20
50.921235
 11
-127.458807
 21
50.921235
  0
LINE
  8
型材断面
  6
CONTINUOUS
 10
75.147992
 20
48.314422
 11
-124.851995
 21
48.314422
  0
LINE
  8
型材断面
  6
CONTINUOUS
 10
-107.863108
 20
19.147755
 11
-107.863108
 21
18.314422
  0
LINE
  8
型材断面
  6
CONTINUOUS
 10
-108.696443
 20
19.147755
 11
-108.696443
 21
18.314422
  0
LINE
  8
型材断面
  6
CONTINUOUS
 10
-75.410328
 20
19.147755
 11
-75.410328
 21
18.314422
  0
LINE
  8
型材断面
  6
CONTINUOUS
 10
-74.576992
 20
19.147755
 11
-74.576992
 21
18.314422
  0
LINE
  8
型材断面
  6
CONTINUOUS
 10
-41.982555
 20
19.147755
 11
-41.982555
 21
18.314422
  0
LINE
  8
型材断面
  6
CONTINUOUS
 10
-41.14922
 20
19.147755
 11
-41.14922
 21
18.314422
  0
LINE
  8
型材断面
  6
CONTINUOUS
 10
-108.696443
 20
19.147755
 11
-124.018663
 21
19.147755
  0
LINE
  8
型材断面
  6
CONTINUOUS
 10
-75.410328
 20
19.147755
 11
-107.863108
 21
19.147755
  0
LINE
  8
型材断面
  6
CONTINUOUS
 10
-41.982555
 20
19.147755
 11
-74.576992
 21
19.147755
  0
LINE
  8
型材断面
  6
DASHDOT
 10
-91.70755
 20
18.314422
 11
-91.70755
 21
48.314422
  0
LINE
  8
型材断面
  6
DASHDOT
 10
-58.27977
 20
18.314422
 11
-58.27977
 21
48.314422
  0
LINE
  8
型材断面
  6
CONTINUOUS
 10
58.159102
 20
19.147755
 11
58.159102
 21
18.314422
  0
LINE
  8
型材断面
  6
CONTINUOUS
 10
58.992438
 20
19.147755
 11
58.992438
 21
18.314422
  0
LINE
  8
型材断面
  6
CONTINUOUS
 10
25.706322
 20
19.147755
 11
25.706322
 21
18.314422
  0
LINE
  8
型材断面
  6
CONTINUOUS
 10
24.872988
 20
19.147755
 11
24.872988
 21
18.314422
  0
LINE
  8
型材断面
  6
CONTINUOUS
 10
-7.72145
 20
19.147755
 11
-7.72145
 21
18.314422
  0
LINE
  8
型材断面
  6
CONTINUOUS
 10
-8.554785
 20
19.147755
 11
-8.554785
 21
18.314422
  0
LINE
  8
型材断面
  6
CONTINUOUS
 10
58.992438
 20
19.147755
 11
74.314658
 21
19.147755
  0
LINE
  8
型材断面
  6
CONTINUOUS
 10
25.706322
 20
19.147755
 11
58.159102
 21
19.147755
  0
LINE
  8
型材断面
  6
CONTINUOUS
 10
-7.72145
 20
19.147755
 11
24.872988
 21
19.147755
  0
LINE
  8
型材断面
  6
DASHDOT
 10
42.003545
 20
18.314422
 11
42.003545
 21
48.314422
  0
LINE
  8
型材断面
  6
DASHDOT
 10
8.575765
 20
18.314422
 11
8.575765
 21
48.314422
  0
LINE
  8
型材断面
  6
CONTINUOUS
 10
-41.14922
 20
19.147755
 11
-8.554785
 21
19.147755
  0
LINE
  8
型材断面
  6
CONTINUOUS
 10
-107.863108
 20
47.48109
 11
-107.863108
 21
48.314422
  0
LINE
  8
型材断面
  6
CONTINUOUS
 10
-108.696443
 20
47.48109
 11
-108.696443
 21
48.314422
  0
LINE
  8
型材断面
  6
CONTINUOUS
 10
-75.410328
 20
47.48109
 11
-75.410328
 21
48.314422
  0
LINE
  8
型材断面
  6
CONTINUOUS
 10
-74.576992
 20
47.48109
 11
-74.576992
 21
48.314422
  0
LINE
  8
型材断面
  6
CONTINUOUS
 10
-41.982555
 20
47.48109
 11
-41.982555
 21
48.314422
  0
LINE
  8
型材断面
  6
CONTINUOUS
 10
-41.14922
 20
47.48109
 11
-41.14922
 21
48.314422
  0
LINE
  8
型材断面
  6
CONTINUOUS
 10
-108.696443
 20
47.48109
 11
-124.018663
 21
47.48109
  0
LINE
  8
型材断面
  6
CONTINUOUS
 10
-75.410328
 20
47.48109
 11
-107.863108
 21
47.48109
  0
LINE
  8
型材断面
  6
CONTINUOUS
 10
-41.982555
 20
47.48109
 11
-74.576992
 21
47.48109
  0
LINE
  8
型材断面
  6
CONTINUOUS
 10
58.159102
 20
47.48109
 11
58.159102
 21
48.314422
  0
LINE
  8
型材断面
  6
CONTINUOUS
 10
58.992438
 20
47.48109
 11
58.992438
 21
48.314422
  0
LINE
  8
型材断面
  6
CONTINUOUS
 10
25.706322
 20
47.48109
 11
25.706322
 21
48.314422
  0
LINE
  8
型材断面
  6
CONTINUOUS
 10
24.872988
 20
47.48109
 11
24.872988
 21
48.314422
  0
LINE
  8
型材断面
  6
CONTINUOUS
 10
-7.72145
 20
47.48109
 11
-7.72145
 21
48.314422
  0
LINE
  8
型材断面
  6
CONTINUOUS
 10
-8.554785
 20
47.48109
 11
-8.554785
 21
48.314422
  0
LINE
  8
型材断面
  6
CONTINUOUS
 10
58.992438
 20
47.48109
 11
74.314658
 21
47.48109
  0
LINE
  8
型材断面
  6
CONTINUOUS
 10
25.706322
 20
47.48109
 11
58.159102
 21
47.48109
  0
LINE
  8
型材断面
  6
CONTINUOUS
 10
-7.72145
 20
47.48109
 11
24.872988
 21
47.48109
  0
LINE
  8
型材断面
  6
CONTINUOUS
 10
-41.14922
 20
47.48109
 11
-8.554785
 21
47.48109
  0
LINE
  8
型材断面
  6
CONTINUOUS
 10
-90.62425
 20
19.981087
 11
-92.790883
 21
19.981087
  0
LINE
  8
型材断面
  6
CONTINUOUS
 10
-90.62425
 20
46.647758
 11
-92.790883
 21
46.647758
  0
LINE
  8
型材断面
  6
CONTINUOUS
 10
-90.62425
 20
19.981087
 11
-90.62425
 21
46.647758
  0
LINE
  8
型材断面
  6
CONTINUOUS
 10
-91.457582
 20
19.981087
 11
-91.457582
 21
46.647758
  0
LINE
  8
型材断面
  6
CONTINUOUS
 10
-91.95755
 20
19.981087
 11
-91.95755
 21
46.647758
  0
LINE
  8
型材断面
  6
CONTINUOUS
 10
-92.790883
 20
19.971393
 11
-92.790883
 21
46.647758
  0
LINE
  8
型材断面
  6
CONTINUOUS
 10
-57.19647
 20
19.981087
 11
-59.363102
 21
19.981087
  0
LINE
  8
型材断面
  6
CONTINUOUS
 10
-57.19647
 20
46.647758
 11
-59.363102
 21
46.647758
  0
LINE
  8
型材断面
  6
CONTINUOUS
 10
-57.19647
 20
19.981087
 11
-57.19647
 21
46.647758
  0
LINE
  8
型材断面
  6
CONTINUOUS
 10
-58.029803
 20
19.981087
 11
-58.029803
 21
46.647758
  0
LINE
  8
型材断面
  6
CONTINUOUS
 10
-58.52977
 20
19.981087
 11
-58.52977
 21
46.647758
  0
LINE
  8
型材断面
  6
CONTINUOUS
 10
-59.363102
 20
19.971393
 11
-59.363102
 21
46.647758
  0
LINE
  8
型材断面
  6
CONTINUOUS
 10
-23.768703
 20
19.981087
 11
-25.935335
 21
19.981087
  0
LINE
  8
型材断面
  6
CONTINUOUS
 10
-23.768703
 20
46.647758
 11
-25.935335
 21
46.647758
  0
LINE
  8
型材断面
  6
CONTINUOUS
 10
-23.768703
 20
19.981087
 11
-23.768703
 21
46.647758
  0
LINE
  8
型材断面
  6
CONTINUOUS
 10
-24.602035
 20
19.981087
 11
-24.602035
 21
46.647758
  0
LINE
  8
型材断面
  6
CONTINUOUS
 10
-25.102002
 20
19.981087
 11
-25.102002
 21
46.647758
  0
LINE
  8
型材断面
  6
CONTINUOUS
 10
-25.935335
 20
19.971393
 11
-25.935335
 21
46.647758
  0
LINE
  8
型材断面
  6
CONTINUOUS
 10
40.920245
 20
19.981087
 11
43.086878
 21
19.981087
  0
LINE
  8
型材断面
  6
CONTINUOUS
 10
40.920245
 20
46.647758
 11
43.086878
 21
46.647758
  0
LINE
  8
型材断面
  6
CONTINUOUS
 10
40.920245
 20
19.981087
 11
40.920245
 21
46.647758
  0
LINE
  8
型材断面
  6
CONTINUOUS
 10
41.753578
 20
19.981087
 11
41.753578
 21
46.647758
  0
LINE
  8
型材断面
  6
CONTINUOUS
 10
42.253545
 20
19.981087
 11
42.253545
 21
46.647758
  0
LINE
  8
型材断面
  6
CONTINUOUS
 10
43.086878
 20
19.971393
 11
43.086878
 21
46.647758
  0
LINE
  8
型材断面
  6
CONTINUOUS
 10
7.492465
 20
19.981087
 11
9.659097
 21
19.981087
  0
LINE
  8
型材断面
  6
CONTINUOUS
 10
7.492465
 20
46.647758
 11
9.659097
 21
46.647758
  0
LINE
  8
型材断面
  6
CONTINUOUS
 10
7.492465
 20
19.981087
 11
7.492465
 21
46.647758
  0
LINE
  8
型材断面
  6
CONTINUOUS
 10
8.325798
 20
19.981087
 11
8.325798
 21
46.647758
  0
LINE
  8
型材断面
  6
CONTINUOUS
 10
8.825765
 20
19.981087
 11
8.825765
 21
46.647758
  0
LINE
  8
型材断面
  6
CONTINUOUS
 10
9.659097
 20
19.971393
 11
9.659097
 21
46.647758
  0
LINE
  8
型材断面
  6
CONTINUOUS
 10
-108.185335
 20
50.944552
 11
-109.680965
 21
53.53506
  0
LINE
  8
型材断面
  6
CONTINUOUS
 10
-108.185335
 20
50.944552
 11
-106.689705
 21
53.53506
  0
LINE
  8
型材断面
  6
CONTINUOUS
 10
-106.689705
 20
53.53506
 11
-109.680965
 21
53.53506
  0
LINE
  8
型材断面
  6
CONTINUOUS
 10
-165.70421
 20
92.82177
 11
-167.19984
 21
90.231263
  0
LINE
  8
型材断面
  6
CONTINUOUS
 10
-165.70421
 20
92.82177
 11
-164.20858
 21
90.231263
  0
LINE
  8
型材断面
  6
CONTINUOUS
 10
-164.20858
 20
90.231263
 11
-167.19984
 21
90.231263
  0
LINE
  8
型材断面
  6
CONTINUOUS
 10
-171.726797
 20
89.292668
 11
-125.48502
 21
89.292668
  0
LINE
  8
型材断面
  6
CONTINUOUS
 10
-127.482132
 20
33.314422
 11
-130.07264
 21
34.810052
  0
LINE
  8
型材断面
  6
CONTINUOUS
 10
-127.482132
 20
33.314422
 11
-130.07264
 21
31.818793
  0
LINE
  8
型材断面
  6
CONTINUOUS
 10
-130.07264
 20
31.818793
 11
-130.07264
 21
34.810052
  0
LINE
  8
型材断面
  6
CONTINUOUS
 10
-108.185335
 20
15.684293
 11
-109.680965
 21
13.093785
  0
LINE
  8
型材断面
  6
CONTINUOUS
 10
-108.185335
 20
15.684293
 11
-106.689705
 21
13.093785
  0
LINE
  8
型材断面
  6
CONTINUOUS
 10
-106.689705
 20
13.093785
 11
-109.680965
 21
13.093785
  0
LINE
  8
型材断面
  6
CONTINUOUS
 10
58.48133
 20
50.944552
 11
59.97696
 21
53.53506
  0
LINE
  8
型材断面
  6
CONTINUOUS
 10
58.48133
 20
50.944552
 11
56.9857
 21
53.53506
  0
LINE
  8
型材断面
  6
CONTINUOUS
 10
56.9857
 20
53.53506
 11
59.97696
 21
53.53506
  0
LINE
  8
型材断面
  6
CONTINUOUS
 10
58.48133
 20
15.684293
 11
59.97696
 21
13.093785
  0
LINE
  8
型材断面
  6
CONTINUOUS
 10
58.48133
 20
15.684293
 11
56.9857
 21
13.093785
  0
LINE
  8
型材断面
  6
CONTINUOUS
 10
56.9857
 20
13.093785
 11
59.97696
 21
13.093785
  0
LINE
  8
型材断面
  6
CONTINUOUS
 10
-24.852002
 20
50.94455
 11
-23.356372
 21
53.535058
  0
LINE
  8
型材断面
  6
CONTINUOUS
 10
-24.852002
 20
50.94455
 11
-26.347632
 21
53.535058
  0
LINE
  8
型材断面
  6
CONTINUOUS
 10
-26.347632
 20
53.535058
 11
-23.356372
 21
53.535058
  0
LINE
  8
型材断面
  6
CONTINUOUS
 10
-24.852002
 20
15.68429
 11
-23.356372
 21
13.093783
  0
LINE
  8
型材断面
  6
CONTINUOUS
 10
-24.852002
 20
15.68429
 11
-26.347632
 21
13.093783
  0
LINE
  8
型材断面
  6
CONTINUOUS
 10
-26.347632
 20
13.093783
 11
-23.356372
 21
13.093783
  0
LINE
  8
型材断面
  6
CONTINUOUS
 10
77.778127
 20
33.314422
 11
80.368635
 21
34.810052
  0
LINE
  8
型材断面
  6
CONTINUOUS
 10
77.778127
 20
33.314422
 11
80.368635
 21
31.818793
  0
LINE
  8
型材断面
  6
CONTINUOUS
 10
80.368635
 20
31.818793
 11
80.368635
 21
34.810052
  0
LINE
  8
型材断面
  6
CONTINUOUS
 10
-171.726797
 20
83.234462
 11
-125.48502
 21
83.234462
  0
LINE
  8
型材断面
  6
CONTINUOUS
 10
131.697187
 20
-37.886837
 11
152.834763
 21
-37.886837
  0
POLYLINE
  8
ガラス
  6
CONTINUOUS
 66
     1
 70
     1
  0
VERTEX
  8
ガラス
 10
165.676037
 20
-57.76888
  0
VERTEX
  8
ガラス
 10
133.482705
 20
-57.76888
  0
VERTEX
  8
ガラス
 10
133.482705
 20
-87.102213
  0
VERTEX
  8
ガラス
 10
165.676037
 20
-87.102213
  0
SEQEND
  0
TEXT
  7
TextStyle03
  8
文字
  6
CONTINUOUS
 10
78.1
 20
125.25
  1
シリーズ：ＳＴＦＦＫＬ
 40
5.0
 72
     5
 11
139.35
 21
125.25
  0
TEXT
  7
TextStyle03
  8
文字
  6
CONTINUOUS
 10
78.1
 20
119.625
  1
　　　　　（固定）900×6000タイプ
 40
5.0
 72
     5
 11
170.2875
 21
119.625
  0
TEXT
  7
TextStyle03
  8
文字
  6
CONTINUOUS
 10
78.1
 20
114.0
  1
図面名　：外観姿図
 40
5.0
 72
     5
 11
128.1
 21
114.0
  0
TEXT
  7
TextStyle03
  8
文字
  6
CONTINUOUS
 10
78.1
 20
108.375
  1
　　　　　　
 40
5.0
 72
     5
 11
111.225
 21
108.375
  0
TEXT
  7
TextStyle03
  8
文字
  6
CONTINUOUS
 10
-162.9
 20
90.45
  1
は排水穴位置を示す
 40
3.0
 72
     5
 11
-132.9
 21
90.45
  0
TEXT
  7
TextStyle03
  8
文字
  6
CONTINUOUS
 10
-145.875
 20
11.8
  1
アンカーピッチ
 40
3.0
 50
90.0
 72
     5
 11
-145.875
 21
35.05
  0
TEXT
  7
TextStyle03
  8
文字
  6
CONTINUOUS
 10
-111.425
 20
85.475
  1
アンカーピッチ
 40
3.0
 72
     5
 11
-88.175
 21
85.475
  0
TEXT
  7
TextStyle03
  8
文字
  6
CONTINUOUS
 10
-166.625
 20
84.175
  1
アンカー数量　２２ヶ所
 40
3.0
 72
     5
 11
-129.875
 21
84.175
  0
TEXT
  7
TextStyle03
  8
文字
  6
CONTINUOUS
 10
153.4
 20
-84.675
  1
×６枚
 40
3.0
 72
     5
 11
163.15
 21
-84.675
  0
TEXT
  7
TextStyle03
  8
文字
  6
CONTINUOUS
 10
133.725
 20
-36.4
  1
ガラス寸法
 40
3.0
 72
     5
 11
150.225
 21
-36.4
  0
INSERT
  2
*DIM_0006
  8
寸法
  6
CONTINUOUS
 10
0.0
 20
0.0
  0
INSERT
  2
*DIM_0007
  8
寸法
  6
CONTINUOUS
 10
0.0
 20
0.0
  0
INSERT
  2
*DIM_0008
  8
寸法
  6
CONTINUOUS
 10
0.0
 20
0.0
  0
INSERT
  2
*DIM_0009
  8
寸法
  6
CONTINUOUS
 10
0.0
 20
0.0
  0
INSERT
  2
*DIM_0010
  8
寸法
  6
CONTINUOUS
 10
0.0
 20
0.0
  0
INSERT
  2
*DIM_0011
  8
寸法
  6
CONTINUOUS
 10
0.0
 20
0.0
  0
INSERT
  2
*DIM_0012
  8
寸法
  6
CONTINUOUS
 10
0.0
 20
0.0
  0
INSERT
  2
*DIM_0013
  8
寸法
  6
CONTINUOUS
 10
0.0
 20
0.0
  0
INSERT
  2
*DIM_0014
  8
寸法
  6
CONTINUOUS
 10
0.0
 20
0.0
  0
INSERT
  2
*DIM_0015
  8
寸法
  6
CONTINUOUS
 10
0.0
 20
0.0
  0
INSERT
  2
*DIM_0016
  8
寸法
  6
CONTINUOUS
 10
0.0
 20
0.0
  0
INSERT
  2
*DIM_0017
  8
寸法
  6
CONTINUOUS
 10
0.0
 20
0.0
  0
INSERT
  2
*DIM_0018
  8
寸法
  6
CONTINUOUS
 10
0.0
 20
0.0
  0
INSERT
  2
*DIM_0019
  8
寸法
  6
CONTINUOUS
 10
0.0
 20
0.0
  0
INSERT
  2
*DIM_0020
  8
寸法
  6
CONTINUOUS
 10
0.0
 20
0.0
  0
INSERT
  2
*DIM_0021
  8
寸法
  6
CONTINUOUS
 10
0.0
 20
0.0
  0
INSERT
  2
*DIM_0022
  8
寸法
  6
CONTINUOUS
 10
0.0
 20
0.0
  0
INSERT
  2
*DIM_0023
  8
寸法
  6
CONTINUOUS
 10
0.0
 20
0.0
  0
INSERT
  2
*DIM_0024
  8
寸法
  6
CONTINUOUS
 10
0.0
 20
0.0
  0
INSERT
  2
*DIM_0025
  8
寸法
  6
CONTINUOUS
 10
0.0
 20
0.0
  0
INSERT
  2
*DIM_0026
  8
寸法
  6
CONTINUOUS
 10
0.0
 20
0.0
  0
LINE
  8
曲げ物
  6
CONTINUOUS
 10
-73.872245
 20
35.11718
 11
-77.567558
 21
31.421868
  0
LINE
  8
曲げ物
  6
CONTINUOUS
 10
-74.575715
 20
33.58107
 11
-76.031445
 21
32.12534
  0
LINE
  8
曲げ物
  6
CONTINUOUS
 10
-75.408355
 20
34.41371
 11
-76.864085
 21
32.95798
  0
LINE
  8
曲げ物
  6
CONTINUOUS
 10
-40.527578
 20
35.11718
 11
-44.22289
 21
31.421868
  0
LINE
  8
曲げ物
  6
CONTINUOUS
 10
-41.231048
 20
33.58107
 11
-42.686777
 21
32.12534
  0
LINE
  8
曲げ物
  6
CONTINUOUS
 10
-42.063688
 20
34.41371
 11
-43.519417
 21
32.95798
  0
LINE
  8
曲げ物
  6
CONTINUOUS
 10
-107.182913
 20
35.11718
 11
-110.878225
 21
31.421868
  0
LINE
  8
曲げ物
  6
CONTINUOUS
 10
-107.886383
 20
33.58107
 11
-109.342112
 21
32.12534
  0
LINE
  8
曲げ物
  6
CONTINUOUS
 10
-108.719023
 20
34.41371
 11
-110.174752
 21
32.95798
  0
LINE
  8
曲げ物
  6
CONTINUOUS
 10
-7.18291
 20
35.11718
 11
-10.878222
 21
31.421868
  0
LINE
  8
曲げ物
  6
CONTINUOUS
 10
-7.88638
 20
33.58107
 11
-9.34211
 21
32.12534
  0
LINE
  8
曲げ物
  6
CONTINUOUS
 10
-8.71902
 20
34.41371
 11
-10.17475
 21
32.95798
  0
LINE
  8
曲げ物
  6
CONTINUOUS
 10
26.161758
 20
35.11718
 11
22.466445
 21
31.421868
  0
LINE
  8
曲げ物
  6
CONTINUOUS
 10
25.458288
 20
33.58107
 11
24.002557
 21
32.12534
  0
LINE
  8
曲げ物
  6
CONTINUOUS
 10
24.625648
 20
34.41371
 11
23.169917
 21
32.95798
  0
LINE
  8
曲げ物
  6
CONTINUOUS
 10
59.506423
 20
35.11718
 11
55.81111
 21
31.421868
  0
LINE
  8
曲げ物
  6
CONTINUOUS
 10
58.802952
 20
33.58107
 11
57.347222
 21
32.12534
  0
LINE
  8
曲げ物
  6
CONTINUOUS
 10
57.970312
 20
34.41371
 11
56.514582
 21
32.95798
  0
LINE
  8
St
  6
CONTINUOUS
 62
    47
 10
171.63993
 20
16.157608
 11
171.63993
 21
15.707608
  0
LINE
  8
St
  6
CONTINUOUS
 62
    47
 10
171.63993
 20
50.471235
 11
171.63993
 21
50.921235
  0
LINE
  8
St
  6
CONTINUOUS
 62
    47
 10
77.304808
 20
-84.510843
 11
77.754808
 21
-84.510843
  0
LINE
  8
St
  6
CONTINUOUS
 62
    47
 10
-127.008807
 20
-84.510843
 11
-127.458807
 21
-84.510843
  0
ENDSEC
  0
EOF
