  0
SECTION
  2
HEADER
  9
$EXTMIN
 10
-210.0
 20
-148.5
  9
$EXTMAX
 10
210.0
 20
148.5
  9
$PDMODE
 70
    32
  9
$PDSIZE
 40
1.5
  9
$LTSCALE
 40
10.0
  0
ENDSEC
  0
SECTION
  2
TABLES
  0
TABLE
  2
LTYPE
 70
    15
  0
LTYPE
  2
CONTINUOUS
 70
    64
  3
実線
 72
    65
 73
     0
 40
0.0
  0
LTYPE
  2
DASHED
 70
    64
  3
破線A
 72
    65
 73
     2
 40
0.6
 49
0.4
 49
-0.2
  0
LTYPE
  2
DASHEDX2
 70
    64
  3
破線B
 72
    65
 73
     2
 40
1.3
 49
0.9
 49
-0.4
  0
LTYPE
  2
DASHDOT
 70
    64
  3
１点鎖線A
 72
    65
 73
     4
 40
0.5375
 49
0.375
 49
-0.05
 49
0.0625
 49
-0.05
  0
LTYPE
  2
DASHDOTX2
 70
    64
  3
１点鎖線B
 72
    65
 73
     4
 40
1.075
 49
0.75
 49
-0.1
 49
0.125
 49
-0.1
  0
LTYPE
  2
DIVIDE2
 70
    64
  3
２点鎖線A
 72
    65
 73
     6
 40
0.5125
 49
0.3
 49
-0.0375
 49
0.05
 49
-0.0375
 49
0.05
 49
-0.0375
  0
LTYPE
  2
DIVIDE
 70
    64
  3
２点鎖線B
 72
    65
 73
     6
 40
1.05
 49
0.55
 49
-0.1
 49
0.1
 49
-0.1
 49
0.1
 49
-0.1
  0
LTYPE
  2
DOT
 70
    64
  3
点線A
 72
    65
 73
     2
 40
0.1125
 49
0.0625
 49
-0.05
  0
LTYPE
  2
DOTX2
 70
    64
  3
点線B
 72
    65
 73
     2
 40
0.275
 49
0.15
 49
-0.125
  0
LTYPE
  2
CONTINUOUS
 70
    64
  3
実線
 72
    65
 73
     0
 40
0.0
  0
LTYPE
  2
CONTINUOUS
 70
    64
  3
実線
 72
    65
 73
     0
 40
0.0
  0
LTYPE
  2
CONTINUOUS
 70
    64
  3
実線
 72
    65
 73
     0
 40
0.0
  0
LTYPE
  2
CONTINUOUS
 70
    64
  3
実線
 72
    65
 73
     0
 40
0.0
  0
LTYPE
  2
CONTINUOUS
 70
    64
  3
実線
 72
    65
 73
     0
 40
0.0
  0
LTYPE
  2
CONTINUOUS
 70
    64
  3
実線
 72
    65
 73
     0
 40
0.0
  0
ENDTAB
  0
TABLE
  2
LAYER
 70
    34
  0
LAYER
  2
通り芯
 70
     0
 62
    15
  6
CONTINUOUS
  0
LAYER
  2
補助線
 70
     0
 62
    16
  6
DOT
  0
LAYER
  2
躯体
 70
     0
 62
    31
  6
CONTINUOUS
  0
LAYER
  2
型材
 70
     0
 62
    32
  6
CONTINUOUS
  0
LAYER
  2
型材断面
 70
     0
 62
    47
  6
CONTINUOUS
  0
LAYER
  2
ガラス
 70
     0
 62
    48
  6
CONTINUOUS
  0
LAYER
  2
ゴム等
 70
     0
 62
    63
  6
CONTINUOUS
  0
LAYER
  2
ボルト／ビス
 70
     0
 62
    64
  6
CONTINUOUS
  0
LAYER
  2
文字
 70
     0
 62
    79
  6
CONTINUOUS
  0
LAYER
  2
寸法
 70
     0
 62
    80
  6
CONTINUOUS
  0
LAYER
  2
ﾊｯﾁﾝｸﾞ
 70
     0
 62
    95
  6
CONTINUOUS
  0
LAYER
  2
別途部材
 70
     0
 62
    96
  6
CONTINUOUS
  0
LAYER
  2
曲げ物
 70
     0
 62
   111
  6
CONTINUOUS
  0
LAYER
  2
鉄骨等
 70
     0
 62
   112
  6
CONTINUOUS
  0
LAYER
  2
St
 70
     0
 62
   127
  6
CONTINUOUS
  0
LAYER
  2
その他部品等
 70
     0
 62
   128
  6
CONTINUOUS
  0
LAYER
  2
ｶﾞｽｹｯﾄ
 70
     0
 62
   143
  6
CONTINUOUS
  0
LAYER
  2
ｽｹｯﾁ
 70
     0
 62
    14
  6
CONTINUOUS
  0
LAYER
  2
0
 70
     0
 62
    17
  6
CONTINUOUS
  0
LAYER
  2
1
 70
     0
 62
    30
  6
CONTINUOUS
  0
LAYER
  2
4
 70
     0
 62
    33
  6
CONTINUOUS
  0
LAYER
  2
ﾚｲﾔ3
 70
     0
 62
    46
  6
CONTINUOUS
  0
LAYER
  2
外形線
 70
     0
 62
    49
  6
CONTINUOUS
  0
LAYER
  2
部品
 70
     0
 62
    14
  6
CONTINUOUS
  0
LAYER
  2
サッシ芯
 70
     0
 62
    17
  6
DASHDOTX2
  0
LAYER
  2
寸法線
 70
     0
 62
    62
  6
CONTINUOUS
  0
LAYER
  2
姿図外形線
 70
     0
 62
    65
  6
CONTINUOUS
  0
LAYER
  2
姿補助線
 70
     0
 62
    30
  6
CONTINUOUS
  0
LAYER
  2
透視線
 70
     0
 62
    78
  6
DOT
  0
LAYER
  2
用紙
 70
     0
 62
    81
  6
CONTINUOUS
  0
LAYER
  2
実線図枠
 70
     0
 62
    94
  6
CONTINUOUS
  0
LAYER
  2
補助図枠
 70
     0
 62
    97
  6
CONTINUOUS
  0
LAYER
  2
建具記号
 70
     0
 62
   110
  6
CONTINUOUS
  0
LAYER
  2
補助文字
 70
     0
 62
   113
  6
CONTINUOUS
  0
ENDTAB
  0
TABLE
  2
STYLE
 70
    10
  0
STYLE
  2
STANDARD
 70
     0
 40
1.0
 41
1.0
 42
1.0
 50
0.0
 71
     0
  3
TXT
  4
BIGFONT
  0
STYLE
  2
TATE
 70
     4
 40
1.0
 41
1.0
 42
1.0
 50
0.0
 71
     0
  3
TXT
  4
BIGFONT
  0
STYLE
  2
TextStyle03
 70
     0
 40
1.0
 41
1.0
 42
1.0
 50
0.0
 71
     0
  3
MONOTXT
  4
BIGFONT
  0
STYLE
  2
TextStyle04
 70
     0
 40
1.0
 41
1.0
 42
1.0
 50
0.0
 71
     0
  3
MONOTXT
  4
BIGFONT
  0
STYLE
  2
TextStyle05
 70
     0
 40
1.0
 41
1.0
 42
1.0
 50
0.0
 71
     0
  3
MONOTXT
  4
BIGFONT
  0
STYLE
  2
TextStyle06
 70
     0
 40
1.0
 41
1.0
 42
1.0
 50
0.0
 71
     0
  3
MONOTXT
  4
BIGFONT
  0
STYLE
  2
TextStyle07
 70
     0
 40
1.0
 41
1.0
 42
1.0
 50
0.0
 71
     0
  3
MONOTXT
  4
BIGFONT
  0
STYLE
  2
TextStyle08
 70
     0
 40
1.0
 41
1.0
 42
1.0
 50
0.0
 71
     0
  3
MONOTXT
  4
BIGFONT
  0
STYLE
  2
TextStyle09
 70
     0
 40
1.0
 41
1.0
 42
1.0
 50
0.0
 71
     0
  3
MONOTXT
  4
BIGFONT
  0
STYLE
  2
TextStyle10
 70
     0
 40
1.0
 41
1.0
 42
1.0
 50
0.0
 71
     0
  3
MONOTXT
  4
BIGFONT
  0
ENDTAB
  0
ENDSEC
  0
SECTION
  2
BLOCKS
  0
BLOCK
  2
*GRP_0001
 70
    65
 10
0.0
 20
0.0
  0
LINE
  8
型材断面
  6
CONTINUOUS
 10
195.0
 20
133.5
 11
195.0
 21
-133.5
  0
LINE
  8
型材断面
  6
CONTINUOUS
 10
195.0
 20
-133.5
 11
-185.0
 21
-133.5
  0
LINE
  8
型材断面
  6
CONTINUOUS
 10
-185.0
 20
-133.5
 11
-185.0
 21
133.5
  0
LINE
  8
型材断面
  6
CONTINUOUS
 10
195.0
 20
133.5
 11
-185.0
 21
133.5
  0
LINE
  8
型材断面
  6
CONTINUOUS
 10
145.0
 20
-133.5
 11
145.0
 21
-118.5
  0
LINE
  8
型材断面
  6
CONTINUOUS
 10
195.0
 20
-118.5
 11
145.0
 21
-118.5
  0
ENDBLK
  0
BLOCK
  2
*GRP_0002
 70
    65
 10
0.0
 20
0.0
  0
LINE
  8
ボルト／ビス
  6
CONTINUOUS
 10
168.42343
 20
17.281087
 11
168.356765
 21
17.281087
  0
LINE
  8
ボルト／ビス
  6
CONTINUOUS
 10
168.356765
 20
17.281087
 11
168.356765
 21
18.014417
  0
LINE
  8
ボルト／ビス
  6
CONTINUOUS
 10
168.356765
 20
18.014417
 11
168.42343
 21
18.014417
  0
LINE
  8
ボルト／ビス
  6
CONTINUOUS
 10
168.42343
 20
17.281087
 11
168.42343
 21
18.014417
  0
LINE
  8
ボルト／ビス
  6
CONTINUOUS
 10
168.32343
 20
17.347753
 11
168.356765
 21
17.347753
  0
LINE
  8
ボルト／ビス
  6
CONTINUOUS
 10
168.32343
 20
17.347753
 11
168.32343
 21
17.947753
  0
LINE
  8
ボルト／ビス
  6
CONTINUOUS
 10
168.32343
 20
17.947753
 11
168.356762
 21
17.947753
  0
LINE
  8
ボルト／ビス
  6
CONTINUOUS
 62
    64
 10
168.12343
 20
17.487378
 11
168.135105
 21
17.455302
  0
ARC
  8
ボルト／ビス
  6
CONTINUOUS
 62
    64
 10
168.22841
 20
17.503416
 40
0.104978
 50
152.721989
 51
180.000022
  0
ARC
  8
ボルト／ビス
  6
CONTINUOUS
 62
    64
 10
168.525833
 20
17.647753
 40
0.402401
 50
166.165024
 51
193.835007
  0
LINE
  8
ボルト／ビス
  6
CONTINUOUS
 62
    64
 10
168.12343
 20
17.808128
 11
168.135105
 21
17.840202
  0
ARC
  8
ボルト／ビス
  6
CONTINUOUS
 62
    64
 10
168.22841
 20
17.79209
 40
0.104978
 50
180.000022
 51
207.278055
  0
LINE
  8
ボルト／ビス
  6
CONTINUOUS
 62
    64
 10
168.12343
 20
17.487378
 11
168.12343
 21
17.808128
  0
LINE
  8
ボルト／ビス
  6
CONTINUOUS
 62
    64
 10
168.135105
 20
17.840202
 11
168.256762
 21
17.840202
  0
LINE
  8
ボルト／ビス
  6
CONTINUOUS
 62
    64
 10
168.135105
 20
17.743978
 11
168.256765
 21
17.743978
  0
LINE
  8
ボルト／ビス
  6
CONTINUOUS
 62
    64
 10
168.135105
 20
17.455302
 11
168.256762
 21
17.455302
  0
LINE
  8
ボルト／ビス
  6
CONTINUOUS
 62
    64
 10
168.135105
 20
17.551527
 11
168.256762
 21
17.551527
  0
LINE
  8
ボルト／ビス
  6
CONTINUOUS
 10
168.256762
 20
17.455302
 11
168.256762
 21
17.840202
  0
LINE
  8
ボルト／ビス
  6
CONTINUOUS
 10
168.256762
 20
17.447753
 11
168.32343
 21
17.447753
  0
LINE
  8
ボルト／ビス
  6
CONTINUOUS
 10
168.256762
 20
17.447753
 11
168.256762
 21
17.847753
  0
LINE
  8
ボルト／ビス
  6
CONTINUOUS
 10
168.256762
 20
17.847753
 11
168.32343
 21
17.847753
  0
LINE
  8
ボルト／ビス
  6
CONTINUOUS
 62
    64
 10
168.42343
 20
17.747753
 11
168.42343
 21
17.747753
  0
ENDBLK
  0
BLOCK
  2
*GRP_0003
 70
    65
 10
0.0
 20
0.0
  0
LINE
  8
ボルト／ビス
  6
CONTINUOUS
 10
168.42343
 20
49.347758
 11
168.356765
 21
49.347758
  0
LINE
  8
ボルト／ビス
  6
CONTINUOUS
 10
168.356765
 20
49.347758
 11
168.356765
 21
48.614425
  0
LINE
  8
ボルト／ビス
  6
CONTINUOUS
 10
168.356765
 20
48.614425
 11
168.42343
 21
48.614425
  0
LINE
  8
ボルト／ビス
  6
CONTINUOUS
 10
168.42343
 20
49.347758
 11
168.42343
 21
48.614425
  0
LINE
  8
ボルト／ビス
  6
CONTINUOUS
 10
168.32343
 20
49.28109
 11
168.356765
 21
49.28109
  0
LINE
  8
ボルト／ビス
  6
CONTINUOUS
 10
168.32343
 20
49.28109
 11
168.32343
 21
48.681092
  0
LINE
  8
ボルト／ビス
  6
CONTINUOUS
 10
168.32343
 20
48.681092
 11
168.356762
 21
48.681092
  0
LINE
  8
ボルト／ビス
  6
CONTINUOUS
 62
    64
 10
168.12343
 20
49.141467
 11
168.135105
 21
49.17354
  0
ARC
  8
ボルト／ビス
  6
CONTINUOUS
 62
    64
 10
168.22841
 20
49.125427
 40
0.104978
 50
179.999978
 51
207.278011
  0
ARC
  8
ボルト／ビス
  6
CONTINUOUS
 62
    64
 10
168.525833
 20
48.981089
 40
0.402401
 50
166.164993
 51
193.834976
  0
LINE
  8
ボルト／ビス
  6
CONTINUOUS
 62
    64
 10
168.12343
 20
48.820717
 11
168.135105
 21
48.78864
  0
ARC
  8
ボルト／ビス
  6
CONTINUOUS
 62
    64
 10
168.22841
 20
48.836752
 40
0.104978
 50
152.721945
 51
179.999978
  0
LINE
  8
ボルト／ビス
  6
CONTINUOUS
 62
    64
 10
168.12343
 20
49.141467
 11
168.12343
 21
48.820717
  0
LINE
  8
ボルト／ビス
  6
CONTINUOUS
 62
    64
 10
168.135105
 20
48.78864
 11
168.256762
 21
48.78864
  0
LINE
  8
ボルト／ビス
  6
CONTINUOUS
 62
    64
 10
168.135105
 20
48.884867
 11
168.256765
 21
48.884867
  0
LINE
  8
ボルト／ビス
  6
CONTINUOUS
 62
    64
 10
168.135105
 20
49.17354
 11
168.256762
 21
49.17354
  0
LINE
  8
ボルト／ビス
  6
CONTINUOUS
 62
    64
 10
168.135105
 20
49.077315
 11
168.256762
 21
49.077315
  0
LINE
  8
ボルト／ビス
  6
CONTINUOUS
 10
168.256762
 20
49.17354
 11
168.256762
 21
48.78864
  0
LINE
  8
ボルト／ビス
  6
CONTINUOUS
 10
168.256762
 20
49.18109
 11
168.32343
 21
49.18109
  0
LINE
  8
ボルト／ビス
  6
CONTINUOUS
 10
168.256762
 20
49.18109
 11
168.256762
 21
48.781092
  0
LINE
  8
ボルト／ビス
  6
CONTINUOUS
 10
168.256762
 20
48.781092
 11
168.32343
 21
48.781092
  0
LINE
  8
ボルト／ビス
  6
CONTINUOUS
 62
    64
 10
168.42343
 20
48.881092
 11
168.42343
 21
48.881092
  0
ENDBLK
  0
BLOCK
  2
*GRP_0004
 70
    65
 10
0.0
 20
0.0
  0
LINE
  8
ボルト／ビス
  6
CONTINUOUS
 10
67.847995
 20
-81.294343
 11
67.847995
 21
-81.227678
  0
LINE
  8
ボルト／ビス
  6
CONTINUOUS
 10
67.847995
 20
-81.227678
 11
67.114665
 21
-81.227678
  0
LINE
  8
ボルト／ビス
  6
CONTINUOUS
 10
67.114665
 20
-81.227678
 11
67.114665
 21
-81.294343
  0
LINE
  8
ボルト／ビス
  6
CONTINUOUS
 10
67.847995
 20
-81.294343
 11
67.114665
 21
-81.294343
  0
LINE
  8
ボルト／ビス
  6
CONTINUOUS
 10
67.78133
 20
-81.194343
 11
67.78133
 21
-81.227678
  0
LINE
  8
ボルト／ビス
  6
CONTINUOUS
 10
67.78133
 20
-81.194343
 11
67.18133
 21
-81.194343
  0
LINE
  8
ボルト／ビス
  6
CONTINUOUS
 10
67.18133
 20
-81.194343
 11
67.18133
 21
-81.227675
  0
LINE
  8
ボルト／ビス
  6
CONTINUOUS
 62
    64
 10
67.641705
 20
-80.994343
 11
67.67378
 21
-81.006017
  0
ARC
  8
ボルト／ビス
  6
CONTINUOUS
 62
    64
 10
67.625666
 20
-81.099323
 40
0.104978
 50
89.999978
 51
117.278011
  0
ARC
  8
ボルト／ビス
  6
CONTINUOUS
 62
    64
 10
67.481328
 20
-81.396746
 40
0.402401
 50
76.164993
 51
103.834976
  0
LINE
  8
ボルト／ビス
  6
CONTINUOUS
 62
    64
 10
67.320955
 20
-80.994343
 11
67.28888
 21
-81.006017
  0
ARC
  8
ボルト／ビス
  6
CONTINUOUS
 62
    64
 10
67.336991
 20
-81.099323
 40
0.104978
 50
62.721945
 51
89.999978
  0
LINE
  8
ボルト／ビス
  6
CONTINUOUS
 62
    64
 10
67.641705
 20
-80.994343
 11
67.320955
 21
-80.994343
  0
LINE
  8
ボルト／ビス
  6
CONTINUOUS
 62
    64
 10
67.28888
 20
-81.006017
 11
67.28888
 21
-81.127675
  0
LINE
  8
ボルト／ビス
  6
CONTINUOUS
 62
    64
 10
67.385105
 20
-81.006017
 11
67.385105
 21
-81.127678
  0
LINE
  8
ボルト／ビス
  6
CONTINUOUS
 62
    64
 10
67.67378
 20
-81.006017
 11
67.67378
 21
-81.127675
  0
LINE
  8
ボルト／ビス
  6
CONTINUOUS
 62
    64
 10
67.577555
 20
-81.006017
 11
67.577555
 21
-81.127675
  0
LINE
  8
ボルト／ビス
  6
CONTINUOUS
 10
67.67378
 20
-81.127675
 11
67.28888
 21
-81.127675
  0
LINE
  8
ボルト／ビス
  6
CONTINUOUS
 10
67.68133
 20
-81.127675
 11
67.68133
 21
-81.194343
  0
LINE
  8
ボルト／ビス
  6
CONTINUOUS
 10
67.68133
 20
-81.127675
 11
67.28133
 21
-81.127675
  0
LINE
  8
ボルト／ビス
  6
CONTINUOUS
 10
67.28133
 20
-81.127675
 11
67.28133
 21
-81.194343
  0
LINE
  8
ボルト／ビス
  6
CONTINUOUS
 62
    64
 10
67.38133
 20
-81.294343
 11
67.38133
 21
-81.294343
  0
ENDBLK
  0
BLOCK
  2
*GRP_0005
 70
    65
 10
0.0
 20
0.0
  0
LINE
  8
ボルト／ビス
  6
CONTINUOUS
 10
-117.551998
 20
-81.294343
 11
-117.551998
 21
-81.227678
  0
LINE
  8
ボルト／ビス
  6
CONTINUOUS
 10
-117.551998
 20
-81.227678
 11
-116.818665
 21
-81.227678
  0
LINE
  8
ボルト／ビス
  6
CONTINUOUS
 10
-116.818665
 20
-81.227678
 11
-116.818665
 21
-81.294343
  0
LINE
  8
ボルト／ビス
  6
CONTINUOUS
 10
-117.551998
 20
-81.294343
 11
-116.818665
 21
-81.294343
  0
LINE
  8
ボルト／ビス
  6
CONTINUOUS
 10
-117.48533
 20
-81.194343
 11
-117.48533
 21
-81.227678
  0
LINE
  8
ボルト／ビス
  6
CONTINUOUS
 10
-117.48533
 20
-81.194343
 11
-116.885333
 21
-81.194343
  0
LINE
  8
ボルト／ビス
  6
CONTINUOUS
 10
-116.885333
 20
-81.194343
 11
-116.885333
 21
-81.227675
  0
LINE
  8
ボルト／ビス
  6
CONTINUOUS
 62
    64
 10
-117.345708
 20
-80.994343
 11
-117.37778
 21
-81.006017
  0
ARC
  8
ボルト／ビス
  6
CONTINUOUS
 62
    64
 10
-117.329668
 20
-81.099323
 40
0.104978
 50
62.721989
 51
90.000022
  0
ARC
  8
ボルト／ビス
  6
CONTINUOUS
 62
    64
 10
-117.18533
 20
-81.396746
 40
0.402401
 50
76.165024
 51
103.835007
  0
LINE
  8
ボルト／ビス
  6
CONTINUOUS
 62
    64
 10
-117.024957
 20
-80.994343
 11
-116.99288
 21
-81.006017
  0
ARC
  8
ボルト／ビス
  6
CONTINUOUS
 62
    64
 10
-117.040993
 20
-81.099323
 40
0.104978
 50
90.000022
 51
117.278055
  0
LINE
  8
ボルト／ビス
  6
CONTINUOUS
 62
    64
 10
-117.345708
 20
-80.994343
 11
-117.024957
 21
-80.994343
  0
LINE
  8
ボルト／ビス
  6
CONTINUOUS
 62
    64
 10
-116.99288
 20
-81.006017
 11
-116.99288
 21
-81.127675
  0
LINE
  8
ボルト／ビス
  6
CONTINUOUS
 62
    64
 10
-117.089107
 20
-81.006017
 11
-117.089107
 21
-81.127678
  0
LINE
  8
ボルト／ビス
  6
CONTINUOUS
 62
    64
 10
-117.37778
 20
-81.006017
 11
-117.37778
 21
-81.127675
  0
LINE
  8
ボルト／ビス
  6
CONTINUOUS
 62
    64
 10
-117.281555
 20
-81.006017
 11
-117.281555
 21
-81.127675
  0
LINE
  8
ボルト／ビス
  6
CONTINUOUS
 10
-117.37778
 20
-81.127675
 11
-116.99288
 21
-81.127675
  0
LINE
  8
ボルト／ビス
  6
CONTINUOUS
 10
-117.38533
 20
-81.127675
 11
-117.38533
 21
-81.194343
  0
LINE
  8
ボルト／ビス
  6
CONTINUOUS
 10
-117.38533
 20
-81.127675
 11
-116.985333
 21
-81.127675
  0
LINE
  8
ボルト／ビス
  6
CONTINUOUS
 10
-116.985333
 20
-81.127675
 11
-116.985333
 21
-81.194343
  0
LINE
  8
ボルト／ビス
  6
CONTINUOUS
 62
    64
 10
-117.085333
 20
-81.294343
 11
-117.085333
 21
-81.294343
  0
ENDBLK
  0
BLOCK
  2
*DIM_0006
 70
    65
 10
0.0
 20
0.0
  0
LINE
  8
寸法
  6
CONTINUOUS
 10
166.13993
 20
15.70761
 11
151.055333
 21
15.70761
  0
LINE
  8
寸法
  6
CONTINUOUS
 10
151.055333
 20
18.314422
 11
151.055333
 21
15.70761
  0
POINT
  8
寸法
 10
151.055333
 20
18.314422
  0
POINT
  8
寸法
 10
151.055333
 20
15.70761
  0
TEXT
  7
TextStyle03
  8
寸法
  6
CONTINUOUS
 10
150.625
 20
6.99375
  1
78.2
 40
3.0
 50
90.0
 72
     5
 11
150.625
 21
13.55625
  0
ENDBLK
  0
BLOCK
  2
*DIM_0007
 70
    65
 10
0.0
 20
0.0
  0
LINE
  8
寸法
  6
CONTINUOUS
 10
166.13993
 20
50.921237
 11
151.055333
 21
50.921237
  0
LINE
  8
寸法
  6
CONTINUOUS
 10
151.055333
 20
48.314422
 11
151.055333
 21
50.921237
  0
POINT
  8
寸法
 10
151.055333
 20
48.314422
  0
POINT
  8
寸法
 10
151.055333
 20
50.921237
  0
TEXT
  7
TextStyle03
  8
寸法
  6
CONTINUOUS
 10
150.625
 20
53.09375
  1
78.2
 40
3.0
 50
90.0
 72
     5
 11
150.625
 21
59.65625
  0
ENDBLK
  0
BLOCK
  2
*DIM_0008
 70
    65
 10
0.0
 20
0.0
  0
LINE
  8
寸法
  6
CONTINUOUS
 10
151.055333
 20
18.314422
 11
151.055333
 21
48.314422
  0
POINT
  8
寸法
 10
151.055333
 20
18.314422
  0
POINT
  8
寸法
 10
151.055333
 20
48.314422
  0
TEXT
  7
TextStyle03
  8
寸法
  6
CONTINUOUS
 10
150.625
 20
22.45
  1
呼称寸法　900
 40
3.0
 50
90.0
 72
     5
 11
150.625
 21
44.2
  0
ENDBLK
  0
BLOCK
  2
*DIM_0009
 70
    65
 10
0.0
 20
0.0
  0
LINE
  8
寸法
  6
CONTINUOUS
 10
171.63993
 20
10.707608
 11
171.63993
 21
2.443285
  0
LINE
  8
寸法
  6
CONTINUOUS
 10
167.923432
 20
13.314423
 11
167.923432
 21
2.443285
  0
LINE
  8
寸法
  6
CONTINUOUS
 10
171.63993
 20
2.443285
 11
167.923432
 21
2.443285
  0
POINT
  8
寸法
 10
171.63993
 20
2.443285
  0
POINT
  8
寸法
 10
167.923432
 20
2.443285
  0
TEXT
  7
TextStyle03
  8
寸法
  6
CONTINUOUS
 10
165.6
 20
-0.55
  1
111.5
 40
3.0
 50
360.0
 72
     5
 11
173.85
 21
-0.55
  0
ENDBLK
  0
BLOCK
  2
*DIM_0010
 70
    65
 10
0.0
 20
0.0
  0
LINE
  8
寸法
  6
CONTINUOUS
 10
69.421475
 20
-79.010843
 11
69.421475
 21
-63.926245
  0
LINE
  8
寸法
  6
CONTINUOUS
 10
66.81466
 20
-63.926245
 11
69.421475
 21
-63.926245
  0
POINT
  8
寸法
 10
66.81466
 20
-63.926245
  0
POINT
  8
寸法
 10
69.421475
 20
-63.926245
  0
TEXT
  7
TextStyle03
  8
寸法
  6
CONTINUOUS
 10
71.54375
 20
-63.55
  1
78.2
 40
3.0
 72
     5
 11
78.10625
 21
-63.55
  0
ENDBLK
  0
BLOCK
  2
*DIM_0011
 70
    65
 10
0.0
 20
0.0
  0
LINE
  8
寸法
  6
CONTINUOUS
 10
74.421475
 20
-84.510843
 11
82.685798
 21
-84.510843
  0
LINE
  8
寸法
  6
CONTINUOUS
 10
71.81466
 20
-80.794345
 11
82.685798
 21
-80.794345
  0
LINE
  8
寸法
  6
CONTINUOUS
 10
82.685798
 20
-84.510843
 11
82.685798
 21
-80.794345
  0
POINT
  8
寸法
 10
82.685798
 20
-84.510843
  0
POINT
  8
寸法
 10
82.685798
 20
-80.794345
  0
TEXT
  7
TextStyle03
  8
寸法
  6
CONTINUOUS
 10
85.65
 20
-86.775
  1
111.5
 40
3.0
 50
90.0
 72
     5
 11
85.65
 21
-78.525
  0
ENDBLK
  0
BLOCK
  2
*DIM_0012
 70
    65
 10
0.0
 20
0.0
  0
LINE
  8
寸法
  6
CONTINUOUS
 10
-119.125475
 20
-79.010843
 11
-119.125475
 21
-63.926245
  0
LINE
  8
寸法
  6
CONTINUOUS
 10
-116.518663
 20
-63.926245
 11
-119.125475
 21
-63.926245
  0
POINT
  8
寸法
 10
-116.518663
 20
-63.926245
  0
POINT
  8
寸法
 10
-119.125475
 20
-63.926245
  0
TEXT
  7
TextStyle03
  8
寸法
  6
CONTINUOUS
 10
-127.90625
 20
-63.55
  1
78.2
 40
3.0
 72
     5
 11
-121.34375
 21
-63.55
  0
ENDBLK
  0
BLOCK
  2
*DIM_0013
 70
    65
 10
0.0
 20
0.0
  0
LINE
  8
寸法
  6
CONTINUOUS
 10
66.81466
 20
-63.926245
 11
-116.518663
 21
-63.926245
  0
POINT
  8
寸法
 10
66.81466
 20
-63.926245
  0
POINT
  8
寸法
 10
-116.518663
 20
-63.926245
  0
TEXT
  7
TextStyle03
  8
寸法
  6
CONTINUOUS
 10
-36.61875
 20
-63.55
  1
呼称寸法　5500
 40
3.0
 72
     5
 11
-13.18125
 21
-63.55
  0
ENDBLK
  0
BLOCK
  2
*DIM_0014
 70
    65
 10
0.0
 20
0.0
  0
LINE
  8
寸法
  6
BYBLOCK
 62
     0
 10
-99.852
 20
14.684293
 11
-99.852
 21
9.698927
  0
LINE
  8
寸法
  6
BYBLOCK
 62
     0
 10
-24.852002
 20
14.684295
 11
-24.852002
 21
9.698927
  0
LINE
  8
寸法
  6
BYBLOCK
 62
     0
 10
-99.852
 20
9.698927
 11
-24.852002
 21
9.698927
  0
POINT
  8
寸法
 62
     0
 10
-99.852
 20
9.698927
  0
POINT
  8
寸法
 62
     0
 10
-24.852002
 20
9.698927
  0
TEXT
  7
TextStyle03
  8
寸法
  6
CONTINUOUS
 62
     0
 10
-65.65625
 20
10.075
  1
2250
 40
3.0
 72
     5
 11
-59.09375
 21
10.075
  0
ENDBLK
  0
BLOCK
  2
*DIM_0015
 70
    65
 10
0.0
 20
0.0
  0
LINE
  8
寸法
  6
BYBLOCK
 62
     0
 10
50.147995
 20
14.684293
 11
50.147995
 21
9.698927
  0
LINE
  8
寸法
  6
BYBLOCK
 62
     0
 10
-24.852002
 20
9.698927
 11
50.147995
 21
9.698927
  0
POINT
  8
寸法
 62
     0
 10
50.147995
 20
9.698927
  0
TEXT
  7
TextStyle03
  8
寸法
  6
CONTINUOUS
 62
     0
 10
9.34375
 20
10.075
  1
2250
 40
3.0
 72
     5
 11
15.90625
 21
10.075
  0
ENDBLK
  0
BLOCK
  2
*DIM_0016
 70
    65
 10
0.0
 20
0.0
  0
LINE
  8
寸法
  6
BYBLOCK
 62
     0
 10
-119.518667
 20
43.314422
 11
-132.811505
 21
43.314422
  0
LINE
  8
寸法
  6
BYBLOCK
 62
     0
 10
-119.518667
 20
23.314422
 11
-132.811505
 21
23.314422
  0
LINE
  8
寸法
  6
BYBLOCK
 62
     0
 10
-132.811505
 20
43.314422
 11
-132.811505
 21
23.314422
  0
POINT
  8
寸法
 62
     0
 10
-132.811505
 20
43.314422
  0
POINT
  8
寸法
 62
     0
 10
-132.811505
 20
23.314422
  0
TEXT
  7
TextStyle03
  8
寸法
  6
CONTINUOUS
 62
     0
 10
-133.225
 20
30.8875
  1
600
 40
3.0
 50
90.0
 72
     5
 11
-133.225
 21
35.7625
  0
ENDBLK
  0
BLOCK
  2
*DIM_0017
 70
    65
 10
0.0
 20
0.0
  0
LINE
  8
寸法
  6
BYBLOCK
 62
     0
 10
-104.852002
 20
51.314422
 11
-104.852002
 21
80.422495
  0
LINE
  8
寸法
  6
BYBLOCK
 62
     0
 10
-78.185335
 20
51.314422
 11
-78.185335
 21
80.422495
  0
LINE
  8
寸法
  6
BYBLOCK
 62
     0
 10
-104.852002
 20
80.422495
 11
-78.185335
 21
80.422495
  0
POINT
  8
寸法
 62
     0
 10
-104.852002
 20
80.422495
  0
POINT
  8
寸法
 62
     0
 10
-78.185335
 20
80.422495
  0
TEXT
  7
TextStyle03
  8
寸法
  6
CONTINUOUS
 62
     0
 10
-93.9875
 20
80.8
  1
800
 40
3.0
 72
     5
 11
-89.1125
 21
80.8
  0
ENDBLK
  0
BLOCK
  2
*DIM_0018
 70
    65
 10
0.0
 20
0.0
  0
LINE
  8
寸法
  6
BYBLOCK
 62
     0
 10
-51.51867
 20
51.314422
 11
-51.51867
 21
80.422495
  0
LINE
  8
寸法
  6
BYBLOCK
 62
     0
 10
-78.185335
 20
80.422495
 11
-51.51867
 21
80.422495
  0
POINT
  8
寸法
 62
     0
 10
-51.51867
 20
80.422495
  0
TEXT
  7
TextStyle03
  8
寸法
  6
CONTINUOUS
 62
     0
 10
-67.3125
 20
80.8
  1
800
 40
3.0
 72
     5
 11
-62.4375
 21
80.8
  0
ENDBLK
  0
BLOCK
  2
*DIM_0019
 70
    65
 10
0.0
 20
0.0
  0
LINE
  8
寸法
  6
BYBLOCK
 62
     0
 10
-24.852002
 20
51.314422
 11
-24.852002
 21
80.422495
  0
LINE
  8
寸法
  6
BYBLOCK
 62
     0
 10
-51.51867
 20
80.422495
 11
-24.852002
 21
80.422495
  0
POINT
  8
寸法
 62
     0
 10
-24.852002
 20
80.422495
  0
TEXT
  7
TextStyle03
  8
寸法
  6
CONTINUOUS
 62
     0
 10
-40.6375
 20
80.8
  1
800
 40
3.0
 72
     5
 11
-35.7625
 21
80.8
  0
ENDBLK
  0
BLOCK
  2
*DIM_0020
 70
    65
 10
0.0
 20
0.0
  0
LINE
  8
寸法
  6
BYBLOCK
 62
     0
 10
1.814665
 20
51.314422
 11
1.814665
 21
80.422495
  0
LINE
  8
寸法
  6
BYBLOCK
 62
     0
 10
-24.852002
 20
80.422495
 11
1.814665
 21
80.422495
  0
POINT
  8
寸法
 62
     0
 10
1.814665
 20
80.422495
  0
TEXT
  7
TextStyle03
  8
寸法
  6
CONTINUOUS
 62
     0
 10
-13.9875
 20
80.8
  1
800
 40
3.0
 72
     5
 11
-9.1125
 21
80.8
  0
ENDBLK
  0
BLOCK
  2
*DIM_0021
 70
    65
 10
0.0
 20
0.0
  0
LINE
  8
寸法
  6
BYBLOCK
 62
     0
 10
28.48133
 20
51.314422
 11
28.48133
 21
80.422495
  0
LINE
  8
寸法
  6
BYBLOCK
 62
     0
 10
1.814665
 20
80.422495
 11
28.48133
 21
80.422495
  0
POINT
  8
寸法
 62
     0
 10
28.48133
 20
80.422495
  0
TEXT
  7
TextStyle03
  8
寸法
  6
CONTINUOUS
 62
     0
 10
12.6875
 20
80.8
  1
800
 40
3.0
 72
     5
 11
17.5625
 21
80.8
  0
ENDBLK
  0
BLOCK
  2
*DIM_0022
 70
    65
 10
0.0
 20
0.0
  0
LINE
  8
寸法
  6
BYBLOCK
 62
     0
 10
55.147998
 20
51.314422
 11
55.147998
 21
80.422495
  0
LINE
  8
寸法
  6
BYBLOCK
 62
     0
 10
28.48133
 20
80.422495
 11
55.147998
 21
80.422495
  0
POINT
  8
寸法
 62
     0
 10
55.147998
 20
80.422495
  0
TEXT
  7
TextStyle03
  8
寸法
  6
CONTINUOUS
 62
     0
 10
39.3625
 20
80.8
  1
800
 40
3.0
 72
     5
 11
44.2375
 21
80.8
  0
ENDBLK
  0
BLOCK
  2
*DIM_0023
 70
    65
 10
0.0
 20
0.0
  0
LINE
  8
寸法
  6
CONTINUOUS
 10
126.153533
 20
-52.297015
 11
126.153533
 21
-44.819207
  0
LINE
  8
寸法
  6
CONTINUOUS
 10
161.7002
 20
-52.297015
 11
161.7002
 21
-44.819207
  0
LINE
  8
寸法
  6
CONTINUOUS
 10
126.153533
 20
-44.819207
 11
161.7002
 21
-44.819207
  0
POINT
  8
寸法
 10
126.153533
 20
-44.819207
  0
POINT
  8
寸法
 10
161.7002
 20
-44.819207
  0
TEXT
  7
TextStyle03
  8
寸法
  6
CONTINUOUS
 10
138.93125
 20
-44.45
  1
1066.4
 40
3.0
 72
     5
 11
148.86875
 21
-44.45
  0
ENDBLK
  0
BLOCK
  2
*DIM_0024
 70
    65
 10
0.0
 20
0.0
  0
LINE
  8
寸法
  6
CONTINUOUS
 10
166.7002
 20
-57.297015
 11
175.723417
 21
-57.297015
  0
LINE
  8
寸法
  6
CONTINUOUS
 10
166.7002
 20
-86.630347
 11
175.723417
 21
-86.630347
  0
LINE
  8
寸法
  6
CONTINUOUS
 10
175.723417
 20
-57.297015
 11
175.723417
 21
-86.630347
  0
POINT
  8
寸法
 10
175.723417
 20
-57.297015
  0
POINT
  8
寸法
 10
175.723417
 20
-86.630347
  0
TEXT
  7
TextStyle03
  8
寸法
  6
CONTINUOUS
 10
175.325
 20
-74.3875
  1
880
 40
3.0
 50
90.0
 72
     5
 11
175.325
 21
-69.5125
  0
ENDBLK
  0
ENDSEC
  0
SECTION
  2
ENTITIES
  0
POLYLINE
  8
通り芯
  6
CONTINUOUS
 66
     1
 70
     1
  0
VERTEX
  8
通り芯
 10
-210.0
 20
-148.5
  0
VERTEX
  8
通り芯
 10
210.0
 20
-148.5
  0
VERTEX
  8
通り芯
 10
210.0
 20
148.5
  0
VERTEX
  8
通り芯
 10
-210.0
 20
148.5
  0
SEQEND
  0
INSERT
  2
*GRP_0001
  8
型材断面
  6
CONTINUOUS
 10
0.0
 20
0.0
  0
LINE
  8
型材断面
  6
CONTINUOUS
 10
172.08993
 20
16.157608
 11
171.63993
 21
16.157608
  0
LINE
  8
型材断面
  6
CONTINUOUS
 62
    47
 10
171.63993
 20
15.707608
 11
171.13993
 21
15.707608
  0
LINE
  8
型材断面
  6
CONTINUOUS
 62
    47
 10
170.344312
 20
18.264423
 11
171.13993
 21
15.707608
  0
LINE
  8
型材断面
  6
CONTINUOUS
 10
171.63993
 20
16.157608
 11
171.63993
 21
15.707608
  0
LINE
  8
型材断面
  6
CONTINUOUS
 10
169.256765
 20
16.647758
 11
169.256762
 21
16.697758
  0
LINE
  8
型材断面
  6
CONTINUOUS
 10
169.256765
 20
16.647758
 11
168.42343
 21
16.647758
  0
LINE
  8
型材断面
  6
CONTINUOUS
 10
167.923432
 20
18.314422
 11
168.42343
 21
18.314422
  0
LINE
  8
型材断面
  6
CONTINUOUS
 10
168.42343
 20
16.647758
 11
168.42343
 21
18.314422
  0
INSERT
  2
*GRP_0002
  8
型材断面
  6
CONTINUOUS
 10
0.0
 20
0.0
  0
LINE
  8
型材断面
  6
CONTINUOUS
 10
169.256762
 20
18.264423
 11
170.344312
 21
18.264423
  0
LINE
  8
型材断面
  6
CONTINUOUS
 10
172.08993
 20
50.471235
 11
171.63993
 21
50.471235
  0
LINE
  8
型材断面
  6
CONTINUOUS
 62
    47
 10
171.63993
 20
50.921235
 11
171.13993
 21
50.921235
  0
LINE
  8
型材断面
  6
CONTINUOUS
 62
    47
 10
170.344312
 20
48.364423
 11
171.13993
 21
50.921235
  0
LINE
  8
型材断面
  6
CONTINUOUS
 10
171.63993
 20
50.471235
 11
171.63993
 21
50.921235
  0
LINE
  8
型材断面
  6
CONTINUOUS
 10
169.256765
 20
49.981085
 11
169.256762
 21
49.931085
  0
LINE
  8
型材断面
  6
CONTINUOUS
 10
169.256765
 20
49.981085
 11
168.42343
 21
49.981085
  0
LINE
  8
型材断面
  6
CONTINUOUS
 10
167.923432
 20
48.314422
 11
168.42343
 21
48.314422
  0
LINE
  8
型材断面
  6
CONTINUOUS
 10
168.42343
 20
49.981085
 11
168.42343
 21
48.314422
  0
INSERT
  2
*GRP_0003
  8
型材断面
  6
CONTINUOUS
 10
0.0
 20
0.0
  0
LINE
  8
型材断面
  6
CONTINUOUS
 10
169.256762
 20
48.364423
 11
170.344312
 21
48.364423
  0
LINE
  8
型材断面
  6
DASHDOT
 10
-24.852002
 20
-86.575325
 11
-24.852002
 21
48.314422
  0
LINE
  8
型材断面
  6
CONTINUOUS
 10
171.63993
 20
50.921235
 11
171.63993
 21
15.707608
  0
LINE
  8
型材断面
  6
CONTINUOUS
 10
171.13993
 20
50.921235
 11
171.13993
 21
15.707608
  0
LINE
  8
型材断面
  6
CONTINUOUS
 10
170.344312
 20
18.264423
 11
170.344312
 21
48.364423
  0
LINE
  8
型材断面
  6
CONTINUOUS
 10
172.08993
 20
16.157608
 11
172.08993
 21
50.471235
  0
LINE
  8
型材断面
  6
CONTINUOUS
 10
167.92343
 20
18.314422
 11
167.92343
 21
48.314422
  0
LINE
  8
型材断面
  6
CONTINUOUS
 10
169.256762
 20
16.647758
 11
169.256762
 21
49.981085
  0
LINE
  8
型材断面
  6
CONTINUOUS
 10
168.42343
 20
16.647758
 11
168.42343
 21
49.981085
  0
LINE
  8
型材断面
  6
CONTINUOUS
 10
68.971475
 20
-84.960843
 11
68.971475
 21
-84.510843
  0
LINE
  8
型材断面
  6
CONTINUOUS
 62
    47
 10
69.421475
 20
-84.510843
 11
69.421475
 21
-84.010843
  0
LINE
  8
型材断面
  6
CONTINUOUS
 62
    47
 10
66.86466
 20
-83.215225
 11
69.421475
 21
-84.010843
  0
LINE
  8
型材断面
  6
CONTINUOUS
 10
68.971475
 20
-84.510843
 11
69.421475
 21
-84.510843
  0
LINE
  8
型材断面
  6
CONTINUOUS
 10
68.481325
 20
-82.127678
 11
68.431325
 21
-82.127675
  0
LINE
  8
型材断面
  6
CONTINUOUS
 10
68.481325
 20
-82.127678
 11
68.481325
 21
-81.294343
  0
LINE
  8
型材断面
  6
CONTINUOUS
 10
66.81466
 20
-80.794345
 11
66.81466
 21
-81.294343
  0
LINE
  8
型材断面
  6
CONTINUOUS
 10
68.481325
 20
-81.294343
 11
66.81466
 21
-81.294343
  0
INSERT
  2
*GRP_0004
  8
型材断面
  6
CONTINUOUS
 10
0.0
 20
0.0
  0
LINE
  8
型材断面
  6
CONTINUOUS
 10
66.86466
 20
-82.127675
 11
66.86466
 21
-83.215225
  0
LINE
  8
型材断面
  6
CONTINUOUS
 10
65.981328
 20
32.897755
 11
66.81466
 21
32.897755
  0
LINE
  8
型材断面
  6
CONTINUOUS
 10
65.981328
 20
33.731087
 11
66.81466
 21
33.731087
  0
LINE
  8
型材断面
  6
DASHDOT
 10
66.81466
 20
-86.575325
 11
66.81466
 21
18.314422
  0
LINE
  8
型材断面
  6
DASHDOT
 10
173.704413
 20
18.314422
 11
66.81466
 21
18.314422
  0
LINE
  8
型材断面
  6
CONTINUOUS
 10
66.81466
 20
18.314422
 11
66.81466
 21
33.314422
  0
LINE
  8
型材断面
  6
CONTINUOUS
 10
65.981328
 20
32.897755
 11
65.981328
 21
19.147755
  0
LINE
  8
型材断面
  6
CONTINUOUS
 10
69.421475
 20
15.707608
 11
65.981328
 21
19.147755
  0
LINE
  8
型材断面
  6
DASHDOT
 10
173.704413
 20
48.314422
 11
66.81466
 21
48.314422
  0
LINE
  8
型材断面
  6
CONTINUOUS
 10
66.81466
 20
48.314422
 11
66.81466
 21
33.314422
  0
LINE
  8
型材断面
  6
CONTINUOUS
 10
69.421475
 20
50.921235
 11
65.981328
 21
47.48109
  0
LINE
  8
型材断面
  6
CONTINUOUS
 10
65.981328
 20
33.731087
 11
65.981328
 21
47.48109
  0
LINE
  8
型材断面
  6
CONTINUOUS
 10
69.421475
 20
15.707608
 11
69.421475
 21
50.921235
  0
LINE
  8
型材断面
  6
CONTINUOUS
 10
68.481325
 20
16.647758
 11
68.481325
 21
49.981085
  0
LINE
  8
型材断面
  6
CONTINUOUS
 10
-118.675475
 20
-84.960843
 11
-118.675475
 21
-84.510843
  0
LINE
  8
型材断面
  6
CONTINUOUS
 62
    47
 10
-119.125475
 20
-84.510843
 11
-119.125475
 21
-84.010843
  0
LINE
  8
型材断面
  6
CONTINUOUS
 62
    47
 10
-116.568663
 20
-83.215225
 11
-119.125475
 21
-84.010843
  0
LINE
  8
型材断面
  6
CONTINUOUS
 10
-118.675475
 20
-84.510843
 11
-119.125475
 21
-84.510843
  0
LINE
  8
型材断面
  6
CONTINUOUS
 10
-118.185325
 20
-82.127678
 11
-118.135325
 21
-82.127675
  0
LINE
  8
型材断面
  6
CONTINUOUS
 10
-118.185325
 20
-82.127678
 11
-118.185325
 21
-81.294343
  0
LINE
  8
型材断面
  6
CONTINUOUS
 10
-116.518663
 20
-80.794345
 11
-116.518663
 21
-81.294343
  0
LINE
  8
型材断面
  6
CONTINUOUS
 10
-118.185325
 20
-81.294343
 11
-116.518663
 21
-81.294343
  0
INSERT
  2
*GRP_0005
  8
型材断面
  6
CONTINUOUS
 10
0.0
 20
0.0
  0
LINE
  8
型材断面
  6
CONTINUOUS
 10
-116.568663
 20
-82.127675
 11
-116.568663
 21
-83.215225
  0
LINE
  8
型材断面
  6
DASHDOT
 10
173.704413
 20
33.314422
 11
-116.518663
 21
33.314422
  0
LINE
  8
型材断面
  6
CONTINUOUS
 10
-115.68533
 20
32.897755
 11
-116.518663
 21
32.897755
  0
LINE
  8
型材断面
  6
CONTINUOUS
 10
-115.68533
 20
33.731087
 11
-116.518663
 21
33.731087
  0
LINE
  8
型材断面
  6
DASHDOT
 10
-116.518663
 20
-86.575325
 11
-116.518663
 21
18.314422
  0
LINE
  8
型材断面
  6
CONTINUOUS
 10
-116.518663
 20
18.314422
 11
-116.518663
 21
33.314422
  0
LINE
  8
型材断面
  6
CONTINUOUS
 10
-115.68533
 20
32.897755
 11
-115.68533
 21
19.147755
  0
LINE
  8
型材断面
  6
CONTINUOUS
 10
-119.125475
 20
15.707608
 11
-115.68533
 21
19.147755
  0
LINE
  8
型材断面
  6
CONTINUOUS
 10
-116.518663
 20
48.314422
 11
-116.518663
 21
33.314422
  0
LINE
  8
型材断面
  6
CONTINUOUS
 10
-115.68533
 20
33.731087
 11
-115.68533
 21
47.48109
  0
LINE
  8
型材断面
  6
CONTINUOUS
 10
-119.125475
 20
50.921235
 11
-115.68533
 21
47.48109
  0
LINE
  8
型材断面
  6
CONTINUOUS
 10
-118.185325
 20
49.981085
 11
-118.185325
 21
16.647758
  0
LINE
  8
型材断面
  6
CONTINUOUS
 10
-119.125475
 20
50.921235
 11
-119.125475
 21
15.707608
  0
LINE
  8
型材断面
  6
CONTINUOUS
 10
-119.125475
 20
-84.510843
 11
69.421475
 21
-84.510843
  0
LINE
  8
型材断面
  6
CONTINUOUS
 10
-119.125475
 20
-84.010843
 11
69.421475
 21
-84.010843
  0
LINE
  8
型材断面
  6
CONTINUOUS
 10
66.86466
 20
-83.215225
 11
-116.568663
 21
-83.215225
  0
LINE
  8
型材断面
  6
CONTINUOUS
 10
68.971475
 20
-84.960843
 11
-118.675475
 21
-84.960843
  0
LINE
  8
型材断面
  6
CONTINUOUS
 10
66.81466
 20
-80.794343
 11
-116.518663
 21
-80.794343
  0
LINE
  8
型材断面
  6
CONTINUOUS
 10
68.481325
 20
-82.127675
 11
-118.185325
 21
-82.127675
  0
LINE
  8
型材断面
  6
CONTINUOUS
 10
68.481325
 20
-81.294343
 11
-118.185325
 21
-81.294343
  0
LINE
  8
型材断面
  6
CONTINUOUS
 10
68.481325
 20
16.647758
 11
-118.185325
 21
16.647758
  0
LINE
  8
型材断面
  6
CONTINUOUS
 10
69.421475
 20
15.707608
 11
-119.125475
 21
15.707608
  0
LINE
  8
型材断面
  6
CONTINUOUS
 10
66.81466
 20
18.314422
 11
-116.518663
 21
18.314422
  0
LINE
  8
型材断面
  6
CONTINUOUS
 10
68.481325
 20
49.981085
 11
-118.185325
 21
49.981085
  0
LINE
  8
型材断面
  6
CONTINUOUS
 10
69.421475
 20
50.921235
 11
-119.125475
 21
50.921235
  0
LINE
  8
型材断面
  6
CONTINUOUS
 10
66.81466
 20
48.314422
 11
-116.518663
 21
48.314422
  0
LINE
  8
型材断面
  6
CONTINUOUS
 10
-24.43534
 20
19.147755
 11
-24.43534
 21
18.314422
  0
LINE
  8
型材断面
  6
CONTINUOUS
 10
-25.268675
 20
19.147755
 11
-25.268675
 21
18.314422
  0
LINE
  8
型材断面
  6
CONTINUOUS
 10
-97.853662
 20
18.314422
 11
-97.853662
 21
19.147755
  0
LINE
  8
型材断面
  6
CONTINUOUS
 10
-98.686997
 20
18.314422
 11
-98.686997
 21
19.147755
  0
LINE
  8
型材断面
  6
CONTINUOUS
 10
-61.215327
 20
19.147755
 11
-61.215327
 21
18.314422
  0
LINE
  8
型材断面
  6
CONTINUOUS
 10
-62.048662
 20
19.147755
 11
-62.048662
 21
18.314422
  0
LINE
  8
型材断面
  6
DASHDOT
 10
-80.021995
 20
18.314422
 11
-80.021995
 21
48.314422
  0
LINE
  8
型材断面
  6
DASHDOT
 10
-43.241993
 20
18.314422
 11
-43.241993
 21
48.314422
  0
LINE
  8
型材断面
  6
CONTINUOUS
 10
-62.048662
 20
19.147755
 11
-97.853662
 21
19.147755
  0
LINE
  8
型材断面
  6
CONTINUOUS
 10
-98.686997
 20
19.147755
 11
-115.68533
 21
19.147755
  0
LINE
  8
型材断面
  6
CONTINUOUS
 10
48.149657
 20
18.314422
 11
48.149657
 21
19.147755
  0
LINE
  8
型材断面
  6
CONTINUOUS
 10
48.982993
 20
18.314422
 11
48.982993
 21
19.147755
  0
LINE
  8
型材断面
  6
CONTINUOUS
 10
11.511322
 20
19.147755
 11
11.511322
 21
18.314422
  0
LINE
  8
型材断面
  6
CONTINUOUS
 10
12.344657
 20
19.147755
 11
12.344657
 21
18.314422
  0
LINE
  8
型材断面
  6
DASHDOT
 10
30.31799
 20
18.314422
 11
30.31799
 21
48.314422
  0
LINE
  8
型材断面
  6
DASHDOT
 10
-6.462013
 20
18.314422
 11
-6.462013
 21
48.314422
  0
LINE
  8
型材断面
  6
CONTINUOUS
 10
12.344657
 20
19.147755
 11
48.149657
 21
19.147755
  0
LINE
  8
型材断面
  6
CONTINUOUS
 10
48.982993
 20
19.147755
 11
65.981325
 21
19.147755
  0
LINE
  8
型材断面
  6
CONTINUOUS
 10
-25.268675
 20
19.147755
 11
-61.215327
 21
19.147755
  0
LINE
  8
型材断面
  6
CONTINUOUS
 10
-24.43534
 20
19.147755
 11
11.511322
 21
19.147755
  0
LINE
  8
型材断面
  6
CONTINUOUS
 10
-24.43534
 20
47.48109
 11
-24.43534
 21
48.314422
  0
LINE
  8
型材断面
  6
CONTINUOUS
 10
-25.268675
 20
47.48109
 11
-25.268675
 21
48.314422
  0
LINE
  8
型材断面
  6
CONTINUOUS
 10
-97.853662
 20
48.314422
 11
-97.853662
 21
47.48109
  0
LINE
  8
型材断面
  6
CONTINUOUS
 10
-98.686997
 20
48.314422
 11
-98.686997
 21
47.48109
  0
LINE
  8
型材断面
  6
CONTINUOUS
 10
-61.215327
 20
47.48109
 11
-61.215327
 21
48.314422
  0
LINE
  8
型材断面
  6
CONTINUOUS
 10
-62.048662
 20
47.48109
 11
-62.048662
 21
48.314422
  0
LINE
  8
型材断面
  6
CONTINUOUS
 10
-62.048662
 20
47.48109
 11
-97.853662
 21
47.48109
  0
LINE
  8
型材断面
  6
CONTINUOUS
 10
-98.686997
 20
47.48109
 11
-115.68533
 21
47.48109
  0
LINE
  8
型材断面
  6
CONTINUOUS
 10
48.149657
 20
48.314422
 11
48.149657
 21
47.48109
  0
LINE
  8
型材断面
  6
CONTINUOUS
 10
48.982993
 20
48.314422
 11
48.982993
 21
47.48109
  0
LINE
  8
型材断面
  6
CONTINUOUS
 10
11.511322
 20
47.48109
 11
11.511322
 21
48.314422
  0
LINE
  8
型材断面
  6
CONTINUOUS
 10
12.344657
 20
47.48109
 11
12.344657
 21
48.314422
  0
LINE
  8
型材断面
  6
CONTINUOUS
 10
12.344657
 20
47.48109
 11
48.149657
 21
47.48109
  0
LINE
  8
型材断面
  6
CONTINUOUS
 10
48.982993
 20
47.48109
 11
65.981325
 21
47.48109
  0
LINE
  8
型材断面
  6
CONTINUOUS
 10
-25.268675
 20
47.48109
 11
-61.215327
 21
47.48109
  0
LINE
  8
型材断面
  6
CONTINUOUS
 10
-24.43534
 20
47.48109
 11
11.511322
 21
47.48109
  0
LINE
  8
型材断面
  6
CONTINUOUS
 10
-78.938695
 20
19.981087
 11
-81.105328
 21
19.981087
  0
LINE
  8
型材断面
  6
CONTINUOUS
 10
-78.938695
 20
46.647758
 11
-81.105328
 21
46.647758
  0
LINE
  8
型材断面
  6
CONTINUOUS
 10
-78.938695
 20
19.981087
 11
-78.938695
 21
46.647758
  0
LINE
  8
型材断面
  6
CONTINUOUS
 10
-79.772027
 20
19.981087
 11
-79.772027
 21
46.647758
  0
LINE
  8
型材断面
  6
CONTINUOUS
 10
-80.271995
 20
19.981087
 11
-80.271995
 21
46.647758
  0
LINE
  8
型材断面
  6
CONTINUOUS
 10
-81.105328
 20
19.971393
 11
-81.105328
 21
46.647758
  0
LINE
  8
型材断面
  6
CONTINUOUS
 10
-42.158692
 20
19.981087
 11
-44.325325
 21
19.981087
  0
LINE
  8
型材断面
  6
CONTINUOUS
 10
-42.158692
 20
46.647758
 11
-44.325325
 21
46.647758
  0
LINE
  8
型材断面
  6
CONTINUOUS
 10
-42.158692
 20
19.981087
 11
-42.158692
 21
46.647758
  0
LINE
  8
型材断面
  6
CONTINUOUS
 10
-42.992025
 20
19.981087
 11
-42.992025
 21
46.647758
  0
LINE
  8
型材断面
  6
CONTINUOUS
 10
-43.491993
 20
19.981087
 11
-43.491993
 21
46.647758
  0
LINE
  8
型材断面
  6
CONTINUOUS
 10
-44.325325
 20
19.971393
 11
-44.325325
 21
46.647758
  0
LINE
  8
型材断面
  6
CONTINUOUS
 10
29.23469
 20
19.981087
 11
31.401323
 21
19.981087
  0
LINE
  8
型材断面
  6
CONTINUOUS
 10
29.23469
 20
46.647758
 11
31.401323
 21
46.647758
  0
LINE
  8
型材断面
  6
CONTINUOUS
 10
29.23469
 20
19.981087
 11
29.23469
 21
46.647758
  0
LINE
  8
型材断面
  6
CONTINUOUS
 10
30.068023
 20
19.981087
 11
30.068023
 21
46.647758
  0
LINE
  8
型材断面
  6
CONTINUOUS
 10
30.56799
 20
19.981087
 11
30.56799
 21
46.647758
  0
LINE
  8
型材断面
  6
CONTINUOUS
 10
31.401323
 20
19.971393
 11
31.401323
 21
46.647758
  0
LINE
  8
型材断面
  6
CONTINUOUS
 10
-7.545312
 20
19.981087
 11
-5.37868
 21
19.981087
  0
LINE
  8
型材断面
  6
CONTINUOUS
 10
-7.545312
 20
46.647758
 11
-5.37868
 21
46.647758
  0
LINE
  8
型材断面
  6
CONTINUOUS
 10
-7.545312
 20
19.981087
 11
-7.545312
 21
46.647758
  0
LINE
  8
型材断面
  6
CONTINUOUS
 10
-6.71198
 20
19.981087
 11
-6.71198
 21
46.647758
  0
LINE
  8
型材断面
  6
CONTINUOUS
 10
-6.212013
 20
19.981087
 11
-6.212013
 21
46.647758
  0
LINE
  8
型材断面
  6
CONTINUOUS
 10
-5.37868
 20
19.971393
 11
-5.37868
 21
46.647758
  0
LINE
  8
型材断面
  6
CONTINUOUS
 10
-99.852
 20
50.944552
 11
-101.34763
 21
53.53506
  0
LINE
  8
型材断面
  6
CONTINUOUS
 10
-99.852
 20
50.944552
 11
-98.35637
 21
53.53506
  0
LINE
  8
型材断面
  6
CONTINUOUS
 10
-98.35637
 20
53.53506
 11
-101.34763
 21
53.53506
  0
LINE
  8
型材断面
  6
CONTINUOUS
 10
-157.370875
 20
92.82177
 11
-158.866505
 21
90.231263
  0
LINE
  8
型材断面
  6
CONTINUOUS
 10
-157.370875
 20
92.82177
 11
-155.875245
 21
90.231263
  0
LINE
  8
型材断面
  6
CONTINUOUS
 10
-155.875245
 20
90.231263
 11
-158.866505
 21
90.231263
  0
LINE
  8
型材断面
  6
CONTINUOUS
 10
-163.393463
 20
89.292668
 11
-117.151685
 21
89.292668
  0
LINE
  8
型材断面
  6
CONTINUOUS
 10
-119.148798
 20
33.314422
 11
-121.739305
 21
34.810052
  0
LINE
  8
型材断面
  6
CONTINUOUS
 10
-119.148798
 20
33.314422
 11
-121.739305
 21
31.818793
  0
LINE
  8
型材断面
  6
CONTINUOUS
 10
-121.739305
 20
31.818793
 11
-121.739305
 21
34.810052
  0
LINE
  8
型材断面
  6
CONTINUOUS
 10
-99.852
 20
15.684293
 11
-101.34763
 21
13.093785
  0
LINE
  8
型材断面
  6
CONTINUOUS
 10
-99.852
 20
15.684293
 11
-98.35637
 21
13.093785
  0
LINE
  8
型材断面
  6
CONTINUOUS
 10
-98.35637
 20
13.093785
 11
-101.34763
 21
13.093785
  0
LINE
  8
型材断面
  6
CONTINUOUS
 10
50.147995
 20
50.944552
 11
51.643625
 21
53.53506
  0
LINE
  8
型材断面
  6
CONTINUOUS
 10
50.147995
 20
50.944552
 11
48.652365
 21
53.53506
  0
LINE
  8
型材断面
  6
CONTINUOUS
 10
48.652365
 20
53.53506
 11
51.643625
 21
53.53506
  0
LINE
  8
型材断面
  6
CONTINUOUS
 10
69.444793
 20
33.314422
 11
72.0353
 21
34.810052
  0
LINE
  8
型材断面
  6
CONTINUOUS
 10
69.444793
 20
33.314422
 11
72.0353
 21
31.818793
  0
LINE
  8
型材断面
  6
CONTINUOUS
 10
72.0353
 20
31.818793
 11
72.0353
 21
34.810052
  0
LINE
  8
型材断面
  6
CONTINUOUS
 10
50.147995
 20
15.684293
 11
51.643625
 21
13.093785
  0
LINE
  8
型材断面
  6
CONTINUOUS
 10
50.147995
 20
15.684293
 11
48.652365
 21
13.093785
  0
LINE
  8
型材断面
  6
CONTINUOUS
 10
48.652365
 20
13.093785
 11
51.643625
 21
13.093785
  0
LINE
  8
型材断面
  6
CONTINUOUS
 10
-24.852002
 20
50.94455
 11
-26.347632
 21
53.535058
  0
LINE
  8
型材断面
  6
CONTINUOUS
 10
-24.852002
 20
50.94455
 11
-23.356372
 21
53.535058
  0
LINE
  8
型材断面
  6
CONTINUOUS
 10
-23.356372
 20
53.535058
 11
-26.347632
 21
53.535058
  0
LINE
  8
型材断面
  6
CONTINUOUS
 10
-24.852002
 20
15.68429
 11
-26.347632
 21
13.093783
  0
LINE
  8
型材断面
  6
CONTINUOUS
 10
-24.852002
 20
15.68429
 11
-23.356372
 21
13.093783
  0
LINE
  8
型材断面
  6
CONTINUOUS
 10
-23.356372
 20
13.093783
 11
-26.347632
 21
13.093783
  0
LINE
  8
型材断面
  6
CONTINUOUS
 10
-163.393463
 20
83.544463
 11
-117.151685
 21
83.544463
  0
LINE
  8
型材断面
  6
CONTINUOUS
 10
125.078133
 20
-39.69443
 11
146.215707
 21
-39.69443
  0
POLYLINE
  8
ガラス
  6
CONTINUOUS
 66
     1
 70
     1
  0
VERTEX
  8
ガラス
 10
161.7002
 20
-57.297015
  0
VERTEX
  8
ガラス
 10
126.153533
 20
-57.297015
  0
VERTEX
  8
ガラス
 10
126.153533
 20
-86.630347
  0
VERTEX
  8
ガラス
 10
161.7002
 20
-86.630347
  0
SEQEND
  0
TEXT
  7
TextStyle03
  8
文字
  6
CONTINUOUS
 10
78.1
 20
125.25
  1
シリーズ：ＳＴＦＦＫＬ
 40
5.0
 72
     5
 11
139.35
 21
125.25
  0
TEXT
  7
TextStyle03
  8
文字
  6
CONTINUOUS
 10
78.1
 20
119.625
  1
　　　　　（固定）900×5500タイプ
 40
5.0
 72
     5
 11
170.2875
 21
119.625
  0
TEXT
  7
TextStyle03
  8
文字
  6
CONTINUOUS
 10
78.1
 20
114.0
  1
図面名　：外観姿図
 40
5.0
 72
     5
 11
128.1
 21
114.0
  0
TEXT
  7
TextStyle03
  8
文字
  6
CONTINUOUS
 10
78.1
 20
108.375
  1
　　　　　　
 40
5.0
 72
     5
 11
111.225
 21
108.375
  0
TEXT
  7
TextStyle03
  8
文字
  6
CONTINUOUS
 10
-154.575
 20
90.45
  1
は排水穴位置を示す
 40
3.0
 72
     5
 11
-124.575
 21
90.45
  0
TEXT
  7
TextStyle03
  8
文字
  6
CONTINUOUS
 10
-137.55
 20
11.8
  1
アンカーピッチ
 40
3.0
 50
90.0
 72
     5
 11
-137.55
 21
35.05
  0
TEXT
  7
TextStyle03
  8
文字
  6
CONTINUOUS
 10
-102.475
 20
84.725
  1
アンカーピッチ
 40
3.0
 72
     5
 11
-79.225
 21
84.725
  0
TEXT
  7
TextStyle03
  8
文字
  6
CONTINUOUS
 10
-158.3
 20
84.475
  1
アンカー数量　１８ヶ所
 40
3.0
 72
     5
 11
-121.55
 21
84.475
  0
TEXT
  7
TextStyle03
  8
文字
  6
CONTINUOUS
 10
148.175
 20
-83.9
  1
×５枚
 40
3.0
 72
     5
 11
157.925
 21
-83.9
  0
TEXT
  7
TextStyle03
  8
文字
  6
CONTINUOUS
 10
127.125
 20
-38.2
  1
ガラス寸法
 40
3.0
 72
     5
 11
143.625
 21
-38.2
  0
INSERT
  2
*DIM_0006
  8
寸法
  6
CONTINUOUS
 10
0.0
 20
0.0
  0
INSERT
  2
*DIM_0007
  8
寸法
  6
CONTINUOUS
 10
0.0
 20
0.0
  0
INSERT
  2
*DIM_0008
  8
寸法
  6
CONTINUOUS
 10
0.0
 20
0.0
  0
INSERT
  2
*DIM_0009
  8
寸法
  6
CONTINUOUS
 10
0.0
 20
0.0
  0
INSERT
  2
*DIM_0010
  8
寸法
  6
CONTINUOUS
 10
0.0
 20
0.0
  0
INSERT
  2
*DIM_0011
  8
寸法
  6
CONTINUOUS
 10
0.0
 20
0.0
  0
INSERT
  2
*DIM_0012
  8
寸法
  6
CONTINUOUS
 10
0.0
 20
0.0
  0
INSERT
  2
*DIM_0013
  8
寸法
  6
CONTINUOUS
 10
0.0
 20
0.0
  0
INSERT
  2
*DIM_0014
  8
寸法
  6
CONTINUOUS
 10
0.0
 20
0.0
  0
INSERT
  2
*DIM_0015
  8
寸法
  6
CONTINUOUS
 10
0.0
 20
0.0
  0
INSERT
  2
*DIM_0016
  8
寸法
  6
CONTINUOUS
 10
0.0
 20
0.0
  0
INSERT
  2
*DIM_0017
  8
寸法
  6
CONTINUOUS
 10
0.0
 20
0.0
  0
INSERT
  2
*DIM_0018
  8
寸法
  6
CONTINUOUS
 10
0.0
 20
0.0
  0
INSERT
  2
*DIM_0019
  8
寸法
  6
CONTINUOUS
 10
0.0
 20
0.0
  0
INSERT
  2
*DIM_0020
  8
寸法
  6
CONTINUOUS
 10
0.0
 20
0.0
  0
INSERT
  2
*DIM_0021
  8
寸法
  6
CONTINUOUS
 10
0.0
 20
0.0
  0
INSERT
  2
*DIM_0022
  8
寸法
  6
CONTINUOUS
 10
0.0
 20
0.0
  0
INSERT
  2
*DIM_0023
  8
寸法
  6
CONTINUOUS
 10
0.0
 20
0.0
  0
INSERT
  2
*DIM_0024
  8
寸法
  6
CONTINUOUS
 10
0.0
 20
0.0
  0
LINE
  8
曲げ物
  6
CONTINUOUS
 10
-23.049245
 20
35.11718
 11
-26.744557
 21
31.421868
  0
LINE
  8
曲げ物
  6
CONTINUOUS
 10
-23.752715
 20
33.58107
 11
-25.208445
 21
32.12534
  0
LINE
  8
曲げ物
  6
CONTINUOUS
 10
-24.585355
 20
34.41371
 11
-26.041085
 21
32.95798
  0
LINE
  8
曲げ物
  6
CONTINUOUS
 10
13.630755
 20
35.11718
 11
9.935442
 21
31.421868
  0
LINE
  8
曲げ物
  6
CONTINUOUS
 10
12.927285
 20
33.58107
 11
11.471555
 21
32.12534
  0
LINE
  8
曲げ物
  6
CONTINUOUS
 10
12.094645
 20
34.41371
 11
10.638915
 21
32.95798
  0
LINE
  8
曲げ物
  6
CONTINUOUS
 10
50.310752
 20
35.11718
 11
46.61544
 21
31.421868
  0
LINE
  8
曲げ物
  6
CONTINUOUS
 10
49.607282
 20
33.58107
 11
48.151553
 21
32.12534
  0
LINE
  8
曲げ物
  6
CONTINUOUS
 10
48.774642
 20
34.41371
 11
47.318913
 21
32.95798
  0
LINE
  8
曲げ物
  6
CONTINUOUS
 10
-96.40924
 20
35.11718
 11
-100.104553
 21
31.421868
  0
LINE
  8
曲げ物
  6
CONTINUOUS
 10
-97.11271
 20
33.58107
 11
-98.56844
 21
32.12534
  0
LINE
  8
曲げ物
  6
CONTINUOUS
 10
-97.94535
 20
34.41371
 11
-99.40108
 21
32.95798
  0
LINE
  8
曲げ物
  6
CONTINUOUS
 10
-59.729242
 20
35.11718
 11
-63.424555
 21
31.421868
  0
LINE
  8
曲げ物
  6
CONTINUOUS
 10
-60.432712
 20
33.58107
 11
-61.888443
 21
32.12534
  0
LINE
  8
曲げ物
  6
CONTINUOUS
 10
-61.265352
 20
34.41371
 11
-62.721083
 21
32.95798
  0
LINE
  8
St
  6
CONTINUOUS
 62
    47
 10
171.63993
 20
16.157608
 11
171.63993
 21
15.707608
  0
LINE
  8
St
  6
CONTINUOUS
 62
    47
 10
171.63993
 20
50.471235
 11
171.63993
 21
50.921235
  0
LINE
  8
St
  6
CONTINUOUS
 62
    47
 10
68.971475
 20
-84.510843
 11
69.421475
 21
-84.510843
  0
LINE
  8
St
  6
CONTINUOUS
 62
    47
 10
-118.675475
 20
-84.510843
 11
-119.125475
 21
-84.510843
  0
ENDSEC
  0
EOF
