  0
SECTION
  2
HEADER
  9
$EXTMIN
 10
-210.0
 20
-148.5
  9
$EXTMAX
 10
210.0
 20
148.5
  9
$PDMODE
 70
    32
  9
$PDSIZE
 40
1.5
  9
$LTSCALE
 40
10.0
  0
ENDSEC
  0
SECTION
  2
TABLES
  0
TABLE
  2
LTYPE
 70
    15
  0
LTYPE
  2
CONTINUOUS
 70
    64
  3
実線
 72
    65
 73
     0
 40
0.0
  0
LTYPE
  2
DASHED
 70
    64
  3
破線A
 72
    65
 73
     2
 40
0.6
 49
0.4
 49
-0.2
  0
LTYPE
  2
DASHEDX2
 70
    64
  3
破線B
 72
    65
 73
     2
 40
1.3
 49
0.9
 49
-0.4
  0
LTYPE
  2
DASHDOT
 70
    64
  3
１点鎖線A
 72
    65
 73
     4
 40
0.5375
 49
0.375
 49
-0.05
 49
0.0625
 49
-0.05
  0
LTYPE
  2
DASHDOTX2
 70
    64
  3
１点鎖線B
 72
    65
 73
     4
 40
1.075
 49
0.75
 49
-0.1
 49
0.125
 49
-0.1
  0
LTYPE
  2
DIVIDE2
 70
    64
  3
２点鎖線A
 72
    65
 73
     6
 40
0.5125
 49
0.3
 49
-0.0375
 49
0.05
 49
-0.0375
 49
0.05
 49
-0.0375
  0
LTYPE
  2
DIVIDE
 70
    64
  3
２点鎖線B
 72
    65
 73
     6
 40
1.05
 49
0.55
 49
-0.1
 49
0.1
 49
-0.1
 49
0.1
 49
-0.1
  0
LTYPE
  2
DOT
 70
    64
  3
点線A
 72
    65
 73
     2
 40
0.1125
 49
0.0625
 49
-0.05
  0
LTYPE
  2
DOTX2
 70
    64
  3
点線B
 72
    65
 73
     2
 40
0.275
 49
0.15
 49
-0.125
  0
LTYPE
  2
CONTINUOUS
 70
    64
  3
実線
 72
    65
 73
     0
 40
0.0
  0
LTYPE
  2
CONTINUOUS
 70
    64
  3
実線
 72
    65
 73
     0
 40
0.0
  0
LTYPE
  2
CONTINUOUS
 70
    64
  3
実線
 72
    65
 73
     0
 40
0.0
  0
LTYPE
  2
CONTINUOUS
 70
    64
  3
実線
 72
    65
 73
     0
 40
0.0
  0
LTYPE
  2
CONTINUOUS
 70
    64
  3
実線
 72
    65
 73
     0
 40
0.0
  0
LTYPE
  2
CONTINUOUS
 70
    64
  3
実線
 72
    65
 73
     0
 40
0.0
  0
ENDTAB
  0
TABLE
  2
LAYER
 70
    34
  0
LAYER
  2
通り芯
 70
     0
 62
    15
  6
CONTINUOUS
  0
LAYER
  2
補助線
 70
     0
 62
    16
  6
DOT
  0
LAYER
  2
躯体
 70
     0
 62
    31
  6
CONTINUOUS
  0
LAYER
  2
型材
 70
     0
 62
    32
  6
CONTINUOUS
  0
LAYER
  2
型材断面
 70
     0
 62
    47
  6
CONTINUOUS
  0
LAYER
  2
ガラス
 70
     0
 62
    48
  6
CONTINUOUS
  0
LAYER
  2
ゴム等
 70
     0
 62
    63
  6
CONTINUOUS
  0
LAYER
  2
ボルト／ビス
 70
     0
 62
    64
  6
CONTINUOUS
  0
LAYER
  2
文字
 70
     0
 62
    79
  6
CONTINUOUS
  0
LAYER
  2
寸法
 70
     0
 62
    80
  6
CONTINUOUS
  0
LAYER
  2
ﾊｯﾁﾝｸﾞ
 70
     0
 62
    95
  6
CONTINUOUS
  0
LAYER
  2
別途部材
 70
     0
 62
    96
  6
CONTINUOUS
  0
LAYER
  2
曲げ物
 70
     0
 62
   111
  6
CONTINUOUS
  0
LAYER
  2
鉄骨等
 70
     0
 62
   112
  6
CONTINUOUS
  0
LAYER
  2
St
 70
     0
 62
   127
  6
CONTINUOUS
  0
LAYER
  2
その他部品等
 70
     0
 62
   128
  6
CONTINUOUS
  0
LAYER
  2
ｶﾞｽｹｯﾄ
 70
     0
 62
   143
  6
CONTINUOUS
  0
LAYER
  2
ｽｹｯﾁ
 70
     0
 62
    14
  6
CONTINUOUS
  0
LAYER
  2
0
 70
     0
 62
    17
  6
CONTINUOUS
  0
LAYER
  2
1
 70
     0
 62
    30
  6
CONTINUOUS
  0
LAYER
  2
4
 70
     0
 62
    33
  6
CONTINUOUS
  0
LAYER
  2
ﾚｲﾔ3
 70
     0
 62
    46
  6
CONTINUOUS
  0
LAYER
  2
外形線
 70
     0
 62
    49
  6
CONTINUOUS
  0
LAYER
  2
部品
 70
     0
 62
    14
  6
CONTINUOUS
  0
LAYER
  2
サッシ芯
 70
     0
 62
    17
  6
DASHDOTX2
  0
LAYER
  2
寸法線
 70
     0
 62
    62
  6
CONTINUOUS
  0
LAYER
  2
姿図外形線
 70
     0
 62
    65
  6
CONTINUOUS
  0
LAYER
  2
姿補助線
 70
     0
 62
    30
  6
CONTINUOUS
  0
LAYER
  2
透視線
 70
     0
 62
    78
  6
DOT
  0
LAYER
  2
用紙
 70
     0
 62
    81
  6
CONTINUOUS
  0
LAYER
  2
実線図枠
 70
     0
 62
    94
  6
CONTINUOUS
  0
LAYER
  2
補助図枠
 70
     0
 62
    97
  6
CONTINUOUS
  0
LAYER
  2
建具記号
 70
     0
 62
   110
  6
CONTINUOUS
  0
LAYER
  2
補助文字
 70
     0
 62
   113
  6
CONTINUOUS
  0
ENDTAB
  0
TABLE
  2
STYLE
 70
    10
  0
STYLE
  2
STANDARD
 70
     0
 40
1.0
 41
1.0
 42
1.0
 50
0.0
 71
     0
  3
TXT
  4
BIGFONT
  0
STYLE
  2
TATE
 70
     4
 40
1.0
 41
1.0
 42
1.0
 50
0.0
 71
     0
  3
TXT
  4
BIGFONT
  0
STYLE
  2
TextStyle03
 70
     0
 40
1.0
 41
1.0
 42
1.0
 50
0.0
 71
     0
  3
MONOTXT
  4
BIGFONT
  0
STYLE
  2
TextStyle04
 70
     0
 40
1.0
 41
1.0
 42
1.0
 50
0.0
 71
     0
  3
MONOTXT
  4
BIGFONT
  0
STYLE
  2
TextStyle05
 70
     0
 40
1.0
 41
1.0
 42
1.0
 50
0.0
 71
     0
  3
MONOTXT
  4
BIGFONT
  0
STYLE
  2
TextStyle06
 70
     0
 40
1.0
 41
1.0
 42
1.0
 50
0.0
 71
     0
  3
MONOTXT
  4
BIGFONT
  0
STYLE
  2
TextStyle07
 70
     0
 40
1.0
 41
1.0
 42
1.0
 50
0.0
 71
     0
  3
MONOTXT
  4
BIGFONT
  0
STYLE
  2
TextStyle08
 70
     0
 40
1.0
 41
1.0
 42
1.0
 50
0.0
 71
     0
  3
MONOTXT
  4
BIGFONT
  0
STYLE
  2
TextStyle09
 70
     0
 40
1.0
 41
1.0
 42
1.0
 50
0.0
 71
     0
  3
MONOTXT
  4
BIGFONT
  0
STYLE
  2
TextStyle10
 70
     0
 40
1.0
 41
1.0
 42
1.0
 50
0.0
 71
     0
  3
MONOTXT
  4
BIGFONT
  0
ENDTAB
  0
ENDSEC
  0
SECTION
  2
BLOCKS
  0
BLOCK
  2
*GRP_0001
 70
    65
 10
0.0
 20
0.0
  0
LINE
  8
型材断面
  6
CONTINUOUS
 10
195.0
 20
133.5
 11
195.0
 21
-133.5
  0
LINE
  8
型材断面
  6
CONTINUOUS
 10
195.0
 20
-133.5
 11
-185.0
 21
-133.5
  0
LINE
  8
型材断面
  6
CONTINUOUS
 10
-185.0
 20
-133.5
 11
-185.0
 21
133.5
  0
LINE
  8
型材断面
  6
CONTINUOUS
 10
195.0
 20
133.5
 11
-185.0
 21
133.5
  0
LINE
  8
型材断面
  6
CONTINUOUS
 10
145.0
 20
-133.5
 11
145.0
 21
-118.5
  0
LINE
  8
型材断面
  6
CONTINUOUS
 10
195.0
 20
-118.5
 11
145.0
 21
-118.5
  0
ENDBLK
  0
BLOCK
  2
*GRP_0002
 70
    65
 10
0.0
 20
0.0
  0
LINE
  8
ボルト／ビス
  6
CONTINUOUS
 10
168.42343
 20
17.281087
 11
168.356765
 21
17.281087
  0
LINE
  8
ボルト／ビス
  6
CONTINUOUS
 10
168.356765
 20
17.281087
 11
168.356765
 21
18.014417
  0
LINE
  8
ボルト／ビス
  6
CONTINUOUS
 10
168.356765
 20
18.014417
 11
168.42343
 21
18.014417
  0
LINE
  8
ボルト／ビス
  6
CONTINUOUS
 10
168.42343
 20
17.281087
 11
168.42343
 21
18.014417
  0
LINE
  8
ボルト／ビス
  6
CONTINUOUS
 10
168.32343
 20
17.347753
 11
168.356765
 21
17.347753
  0
LINE
  8
ボルト／ビス
  6
CONTINUOUS
 10
168.32343
 20
17.347753
 11
168.32343
 21
17.947753
  0
LINE
  8
ボルト／ビス
  6
CONTINUOUS
 10
168.32343
 20
17.947753
 11
168.356762
 21
17.947753
  0
LINE
  8
ボルト／ビス
  6
CONTINUOUS
 62
    64
 10
168.12343
 20
17.487378
 11
168.135105
 21
17.455302
  0
ARC
  8
ボルト／ビス
  6
CONTINUOUS
 62
    64
 10
168.22841
 20
17.503416
 40
0.104978
 50
152.721989
 51
180.000022
  0
ARC
  8
ボルト／ビス
  6
CONTINUOUS
 62
    64
 10
168.525833
 20
17.647753
 40
0.402401
 50
166.165024
 51
193.835007
  0
LINE
  8
ボルト／ビス
  6
CONTINUOUS
 62
    64
 10
168.12343
 20
17.808128
 11
168.135105
 21
17.840202
  0
ARC
  8
ボルト／ビス
  6
CONTINUOUS
 62
    64
 10
168.22841
 20
17.79209
 40
0.104978
 50
180.000022
 51
207.278055
  0
LINE
  8
ボルト／ビス
  6
CONTINUOUS
 62
    64
 10
168.12343
 20
17.487378
 11
168.12343
 21
17.808128
  0
LINE
  8
ボルト／ビス
  6
CONTINUOUS
 62
    64
 10
168.135105
 20
17.840202
 11
168.256762
 21
17.840202
  0
LINE
  8
ボルト／ビス
  6
CONTINUOUS
 62
    64
 10
168.135105
 20
17.743978
 11
168.256765
 21
17.743978
  0
LINE
  8
ボルト／ビス
  6
CONTINUOUS
 62
    64
 10
168.135105
 20
17.455302
 11
168.256762
 21
17.455302
  0
LINE
  8
ボルト／ビス
  6
CONTINUOUS
 62
    64
 10
168.135105
 20
17.551527
 11
168.256762
 21
17.551527
  0
LINE
  8
ボルト／ビス
  6
CONTINUOUS
 10
168.256762
 20
17.455302
 11
168.256762
 21
17.840202
  0
LINE
  8
ボルト／ビス
  6
CONTINUOUS
 10
168.256762
 20
17.447753
 11
168.32343
 21
17.447753
  0
LINE
  8
ボルト／ビス
  6
CONTINUOUS
 10
168.256762
 20
17.447753
 11
168.256762
 21
17.847753
  0
LINE
  8
ボルト／ビス
  6
CONTINUOUS
 10
168.256762
 20
17.847753
 11
168.32343
 21
17.847753
  0
LINE
  8
ボルト／ビス
  6
CONTINUOUS
 62
    64
 10
168.42343
 20
17.747753
 11
168.42343
 21
17.747753
  0
ENDBLK
  0
BLOCK
  2
*GRP_0003
 70
    65
 10
0.0
 20
0.0
  0
LINE
  8
ボルト／ビス
  6
CONTINUOUS
 10
168.42343
 20
49.347758
 11
168.356765
 21
49.347758
  0
LINE
  8
ボルト／ビス
  6
CONTINUOUS
 10
168.356765
 20
49.347758
 11
168.356765
 21
48.614425
  0
LINE
  8
ボルト／ビス
  6
CONTINUOUS
 10
168.356765
 20
48.614425
 11
168.42343
 21
48.614425
  0
LINE
  8
ボルト／ビス
  6
CONTINUOUS
 10
168.42343
 20
49.347758
 11
168.42343
 21
48.614425
  0
LINE
  8
ボルト／ビス
  6
CONTINUOUS
 10
168.32343
 20
49.28109
 11
168.356765
 21
49.28109
  0
LINE
  8
ボルト／ビス
  6
CONTINUOUS
 10
168.32343
 20
49.28109
 11
168.32343
 21
48.681092
  0
LINE
  8
ボルト／ビス
  6
CONTINUOUS
 10
168.32343
 20
48.681092
 11
168.356762
 21
48.681092
  0
LINE
  8
ボルト／ビス
  6
CONTINUOUS
 62
    64
 10
168.12343
 20
49.141467
 11
168.135105
 21
49.17354
  0
ARC
  8
ボルト／ビス
  6
CONTINUOUS
 62
    64
 10
168.22841
 20
49.125427
 40
0.104978
 50
179.999978
 51
207.278011
  0
ARC
  8
ボルト／ビス
  6
CONTINUOUS
 62
    64
 10
168.525833
 20
48.981089
 40
0.402401
 50
166.164993
 51
193.834976
  0
LINE
  8
ボルト／ビス
  6
CONTINUOUS
 62
    64
 10
168.12343
 20
48.820717
 11
168.135105
 21
48.78864
  0
ARC
  8
ボルト／ビス
  6
CONTINUOUS
 62
    64
 10
168.22841
 20
48.836752
 40
0.104978
 50
152.721945
 51
179.999978
  0
LINE
  8
ボルト／ビス
  6
CONTINUOUS
 62
    64
 10
168.12343
 20
49.141467
 11
168.12343
 21
48.820717
  0
LINE
  8
ボルト／ビス
  6
CONTINUOUS
 62
    64
 10
168.135105
 20
48.78864
 11
168.256762
 21
48.78864
  0
LINE
  8
ボルト／ビス
  6
CONTINUOUS
 62
    64
 10
168.135105
 20
48.884867
 11
168.256765
 21
48.884867
  0
LINE
  8
ボルト／ビス
  6
CONTINUOUS
 62
    64
 10
168.135105
 20
49.17354
 11
168.256762
 21
49.17354
  0
LINE
  8
ボルト／ビス
  6
CONTINUOUS
 62
    64
 10
168.135105
 20
49.077315
 11
168.256762
 21
49.077315
  0
LINE
  8
ボルト／ビス
  6
CONTINUOUS
 10
168.256762
 20
49.17354
 11
168.256762
 21
48.78864
  0
LINE
  8
ボルト／ビス
  6
CONTINUOUS
 10
168.256762
 20
49.18109
 11
168.32343
 21
49.18109
  0
LINE
  8
ボルト／ビス
  6
CONTINUOUS
 10
168.256762
 20
49.18109
 11
168.256762
 21
48.781092
  0
LINE
  8
ボルト／ビス
  6
CONTINUOUS
 10
168.256762
 20
48.781092
 11
168.32343
 21
48.781092
  0
LINE
  8
ボルト／ビス
  6
CONTINUOUS
 62
    64
 10
168.42343
 20
48.881092
 11
168.42343
 21
48.881092
  0
ENDBLK
  0
BLOCK
  2
*GRP_0004
 70
    65
 10
0.0
 20
0.0
  0
LINE
  8
ボルト／ビス
  6
CONTINUOUS
 10
51.18133
 20
-81.294343
 11
51.18133
 21
-81.227678
  0
LINE
  8
ボルト／ビス
  6
CONTINUOUS
 10
51.18133
 20
-81.227678
 11
50.448
 21
-81.227678
  0
LINE
  8
ボルト／ビス
  6
CONTINUOUS
 10
50.448
 20
-81.227678
 11
50.448
 21
-81.294343
  0
LINE
  8
ボルト／ビス
  6
CONTINUOUS
 10
51.18133
 20
-81.294343
 11
50.448
 21
-81.294343
  0
LINE
  8
ボルト／ビス
  6
CONTINUOUS
 10
51.114665
 20
-81.194343
 11
51.114665
 21
-81.227678
  0
LINE
  8
ボルト／ビス
  6
CONTINUOUS
 10
51.114665
 20
-81.194343
 11
50.514665
 21
-81.194343
  0
LINE
  8
ボルト／ビス
  6
CONTINUOUS
 10
50.514665
 20
-81.194343
 11
50.514665
 21
-81.227675
  0
LINE
  8
ボルト／ビス
  6
CONTINUOUS
 62
    64
 10
50.97504
 20
-80.994343
 11
51.007115
 21
-81.006017
  0
ARC
  8
ボルト／ビス
  6
CONTINUOUS
 62
    64
 10
50.959001
 20
-81.099323
 40
0.104978
 50
89.999978
 51
117.278011
  0
ARC
  8
ボルト／ビス
  6
CONTINUOUS
 62
    64
 10
50.814663
 20
-81.396746
 40
0.402401
 50
76.164993
 51
103.834976
  0
LINE
  8
ボルト／ビス
  6
CONTINUOUS
 62
    64
 10
50.65429
 20
-80.994343
 11
50.622215
 21
-81.006017
  0
ARC
  8
ボルト／ビス
  6
CONTINUOUS
 62
    64
 10
50.670326
 20
-81.099323
 40
0.104978
 50
62.721945
 51
89.999978
  0
LINE
  8
ボルト／ビス
  6
CONTINUOUS
 62
    64
 10
50.97504
 20
-80.994343
 11
50.65429
 21
-80.994343
  0
LINE
  8
ボルト／ビス
  6
CONTINUOUS
 62
    64
 10
50.622215
 20
-81.006017
 11
50.622215
 21
-81.127675
  0
LINE
  8
ボルト／ビス
  6
CONTINUOUS
 62
    64
 10
50.71844
 20
-81.006017
 11
50.71844
 21
-81.127678
  0
LINE
  8
ボルト／ビス
  6
CONTINUOUS
 62
    64
 10
51.007115
 20
-81.006017
 11
51.007115
 21
-81.127675
  0
LINE
  8
ボルト／ビス
  6
CONTINUOUS
 62
    64
 10
50.91089
 20
-81.006017
 11
50.91089
 21
-81.127675
  0
LINE
  8
ボルト／ビス
  6
CONTINUOUS
 10
51.007115
 20
-81.127675
 11
50.622215
 21
-81.127675
  0
LINE
  8
ボルト／ビス
  6
CONTINUOUS
 10
51.014665
 20
-81.127675
 11
51.014665
 21
-81.194343
  0
LINE
  8
ボルト／ビス
  6
CONTINUOUS
 10
51.014665
 20
-81.127675
 11
50.614665
 21
-81.127675
  0
LINE
  8
ボルト／ビス
  6
CONTINUOUS
 10
50.614665
 20
-81.127675
 11
50.614665
 21
-81.194343
  0
LINE
  8
ボルト／ビス
  6
CONTINUOUS
 62
    64
 10
50.714665
 20
-81.294343
 11
50.714665
 21
-81.294343
  0
ENDBLK
  0
BLOCK
  2
*GRP_0005
 70
    65
 10
0.0
 20
0.0
  0
LINE
  8
ボルト／ビス
  6
CONTINUOUS
 10
-100.885333
 20
-81.294343
 11
-100.885333
 21
-81.227678
  0
LINE
  8
ボルト／ビス
  6
CONTINUOUS
 10
-100.885333
 20
-81.227678
 11
-100.152
 21
-81.227678
  0
LINE
  8
ボルト／ビス
  6
CONTINUOUS
 10
-100.152
 20
-81.227678
 11
-100.152
 21
-81.294343
  0
LINE
  8
ボルト／ビス
  6
CONTINUOUS
 10
-100.885333
 20
-81.294343
 11
-100.152
 21
-81.294343
  0
LINE
  8
ボルト／ビス
  6
CONTINUOUS
 10
-100.818665
 20
-81.194343
 11
-100.818665
 21
-81.227678
  0
LINE
  8
ボルト／ビス
  6
CONTINUOUS
 10
-100.818665
 20
-81.194343
 11
-100.218668
 21
-81.194343
  0
LINE
  8
ボルト／ビス
  6
CONTINUOUS
 10
-100.218668
 20
-81.194343
 11
-100.218668
 21
-81.227675
  0
LINE
  8
ボルト／ビス
  6
CONTINUOUS
 62
    64
 10
-100.679043
 20
-80.994343
 11
-100.711115
 21
-81.006017
  0
ARC
  8
ボルト／ビス
  6
CONTINUOUS
 62
    64
 10
-100.663003
 20
-81.099323
 40
0.104978
 50
62.721989
 51
90.000022
  0
ARC
  8
ボルト／ビス
  6
CONTINUOUS
 62
    64
 10
-100.518665
 20
-81.396746
 40
0.402401
 50
76.165024
 51
103.835007
  0
LINE
  8
ボルト／ビス
  6
CONTINUOUS
 62
    64
 10
-100.358292
 20
-80.994343
 11
-100.326215
 21
-81.006017
  0
ARC
  8
ボルト／ビス
  6
CONTINUOUS
 62
    64
 10
-100.374328
 20
-81.099323
 40
0.104978
 50
90.000022
 51
117.278055
  0
LINE
  8
ボルト／ビス
  6
CONTINUOUS
 62
    64
 10
-100.679043
 20
-80.994343
 11
-100.358292
 21
-80.994343
  0
LINE
  8
ボルト／ビス
  6
CONTINUOUS
 62
    64
 10
-100.326215
 20
-81.006017
 11
-100.326215
 21
-81.127675
  0
LINE
  8
ボルト／ビス
  6
CONTINUOUS
 62
    64
 10
-100.422443
 20
-81.006017
 11
-100.422443
 21
-81.127678
  0
LINE
  8
ボルト／ビス
  6
CONTINUOUS
 62
    64
 10
-100.711115
 20
-81.006017
 11
-100.711115
 21
-81.127675
  0
LINE
  8
ボルト／ビス
  6
CONTINUOUS
 62
    64
 10
-100.61489
 20
-81.006017
 11
-100.61489
 21
-81.127675
  0
LINE
  8
ボルト／ビス
  6
CONTINUOUS
 10
-100.711115
 20
-81.127675
 11
-100.326215
 21
-81.127675
  0
LINE
  8
ボルト／ビス
  6
CONTINUOUS
 10
-100.718665
 20
-81.127675
 11
-100.718665
 21
-81.194343
  0
LINE
  8
ボルト／ビス
  6
CONTINUOUS
 10
-100.718665
 20
-81.127675
 11
-100.318667
 21
-81.127675
  0
LINE
  8
ボルト／ビス
  6
CONTINUOUS
 10
-100.318667
 20
-81.127675
 11
-100.318667
 21
-81.194343
  0
LINE
  8
ボルト／ビス
  6
CONTINUOUS
 62
    64
 10
-100.418668
 20
-81.294343
 11
-100.418668
 21
-81.294343
  0
ENDBLK
  0
BLOCK
  2
*DIM_0006
 70
    65
 10
0.0
 20
0.0
  0
LINE
  8
寸法
  6
CONTINUOUS
 10
166.13993
 20
15.70761
 11
151.055333
 21
15.70761
  0
LINE
  8
寸法
  6
CONTINUOUS
 10
151.055333
 20
18.314422
 11
151.055333
 21
15.70761
  0
POINT
  8
寸法
 10
151.055333
 20
18.314422
  0
POINT
  8
寸法
 10
151.055333
 20
15.70761
  0
TEXT
  7
TextStyle03
  8
寸法
  6
CONTINUOUS
 10
150.625
 20
6.99375
  1
78.2
 40
3.0
 50
90.0
 72
     5
 11
150.625
 21
13.55625
  0
ENDBLK
  0
BLOCK
  2
*DIM_0007
 70
    65
 10
0.0
 20
0.0
  0
LINE
  8
寸法
  6
CONTINUOUS
 10
166.13993
 20
50.921237
 11
151.055333
 21
50.921237
  0
LINE
  8
寸法
  6
CONTINUOUS
 10
151.055333
 20
48.314422
 11
151.055333
 21
50.921237
  0
POINT
  8
寸法
 10
151.055333
 20
48.314422
  0
POINT
  8
寸法
 10
151.055333
 20
50.921237
  0
TEXT
  7
TextStyle03
  8
寸法
  6
CONTINUOUS
 10
150.625
 20
53.09375
  1
78.2
 40
3.0
 50
90.0
 72
     5
 11
150.625
 21
59.65625
  0
ENDBLK
  0
BLOCK
  2
*DIM_0008
 70
    65
 10
0.0
 20
0.0
  0
LINE
  8
寸法
  6
CONTINUOUS
 10
151.055333
 20
18.314422
 11
151.055333
 21
48.314422
  0
POINT
  8
寸法
 10
151.055333
 20
18.314422
  0
POINT
  8
寸法
 10
151.055333
 20
48.314422
  0
TEXT
  7
TextStyle03
  8
寸法
  6
CONTINUOUS
 10
150.625
 20
22.45
  1
呼称寸法　900
 40
3.0
 50
90.0
 72
     5
 11
150.625
 21
44.2
  0
ENDBLK
  0
BLOCK
  2
*DIM_0009
 70
    65
 10
0.0
 20
0.0
  0
LINE
  8
寸法
  6
CONTINUOUS
 10
171.63993
 20
10.707608
 11
171.63993
 21
2.443285
  0
LINE
  8
寸法
  6
CONTINUOUS
 10
167.923432
 20
13.314423
 11
167.923432
 21
2.443285
  0
LINE
  8
寸法
  6
CONTINUOUS
 10
171.63993
 20
2.443285
 11
167.923432
 21
2.443285
  0
POINT
  8
寸法
 10
171.63993
 20
2.443285
  0
POINT
  8
寸法
 10
167.923432
 20
2.443285
  0
TEXT
  7
TextStyle03
  8
寸法
  6
CONTINUOUS
 10
165.6
 20
-0.55
  1
111.5
 40
3.0
 50
360.0
 72
     5
 11
173.85
 21
-0.55
  0
ENDBLK
  0
BLOCK
  2
*DIM_0010
 70
    65
 10
0.0
 20
0.0
  0
LINE
  8
寸法
  6
CONTINUOUS
 10
52.75481
 20
-79.010843
 11
52.75481
 21
-63.926245
  0
LINE
  8
寸法
  6
CONTINUOUS
 10
50.147995
 20
-63.926245
 11
52.75481
 21
-63.926245
  0
POINT
  8
寸法
 10
50.147995
 20
-63.926245
  0
POINT
  8
寸法
 10
52.75481
 20
-63.926245
  0
TEXT
  7
TextStyle03
  8
寸法
  6
CONTINUOUS
 10
54.86875
 20
-63.55
  1
78.2
 40
3.0
 72
     5
 11
61.43125
 21
-63.55
  0
ENDBLK
  0
BLOCK
  2
*DIM_0011
 70
    65
 10
0.0
 20
0.0
  0
LINE
  8
寸法
  6
CONTINUOUS
 10
57.75481
 20
-84.510843
 11
66.019132
 21
-84.510843
  0
LINE
  8
寸法
  6
CONTINUOUS
 10
55.147995
 20
-80.794345
 11
66.019132
 21
-80.794345
  0
LINE
  8
寸法
  6
CONTINUOUS
 10
66.019132
 20
-84.510843
 11
66.019132
 21
-80.794345
  0
POINT
  8
寸法
 10
66.019132
 20
-84.510843
  0
POINT
  8
寸法
 10
66.019132
 20
-80.794345
  0
TEXT
  7
TextStyle03
  8
寸法
  6
CONTINUOUS
 10
68.975
 20
-86.775
  1
111.5
 40
3.0
 50
90.0
 72
     5
 11
68.975
 21
-78.525
  0
ENDBLK
  0
BLOCK
  2
*DIM_0012
 70
    65
 10
0.0
 20
0.0
  0
LINE
  8
寸法
  6
CONTINUOUS
 10
-102.45881
 20
-79.010843
 11
-102.45881
 21
-63.926245
  0
LINE
  8
寸法
  6
CONTINUOUS
 10
-99.851998
 20
-63.926245
 11
-102.45881
 21
-63.926245
  0
POINT
  8
寸法
 10
-99.851998
 20
-63.926245
  0
POINT
  8
寸法
 10
-102.45881
 20
-63.926245
  0
TEXT
  7
TextStyle03
  8
寸法
  6
CONTINUOUS
 10
-111.23125
 20
-63.55
  1
78.2
 40
3.0
 72
     5
 11
-104.66875
 21
-63.55
  0
ENDBLK
  0
BLOCK
  2
*DIM_0013
 70
    65
 10
0.0
 20
0.0
  0
LINE
  8
寸法
  6
CONTINUOUS
 10
50.147995
 20
-63.926245
 11
-99.851998
 21
-63.926245
  0
POINT
  8
寸法
 10
50.147995
 20
-63.926245
  0
POINT
  8
寸法
 10
-99.851998
 20
-63.926245
  0
TEXT
  7
TextStyle03
  8
寸法
  6
CONTINUOUS
 10
-36.61875
 20
-63.55
  1
呼称寸法　4500
 40
3.0
 72
     5
 11
-13.18125
 21
-63.55
  0
ENDBLK
  0
BLOCK
  2
*DIM_0014
 70
    65
 10
0.0
 20
0.0
  0
LINE
  8
寸法
  6
BYBLOCK
 62
     0
 10
-83.185335
 20
14.684293
 11
-83.185335
 21
9.41251
  0
LINE
  8
寸法
  6
BYBLOCK
 62
     0
 10
-24.852002
 20
14.684295
 11
-24.852002
 21
9.41251
  0
LINE
  8
寸法
  6
BYBLOCK
 62
     0
 10
-83.185335
 20
9.41251
 11
-24.852002
 21
9.41251
  0
POINT
  8
寸法
 62
     0
 10
-83.185335
 20
9.41251
  0
POINT
  8
寸法
 62
     0
 10
-24.852002
 20
9.41251
  0
TEXT
  7
TextStyle03
  8
寸法
  6
CONTINUOUS
 62
     0
 10
-57.33125
 20
9.775
  1
1750
 40
3.0
 72
     5
 11
-50.76875
 21
9.775
  0
ENDBLK
  0
BLOCK
  2
*DIM_0015
 70
    65
 10
0.0
 20
0.0
  0
LINE
  8
寸法
  6
BYBLOCK
 62
     0
 10
33.48133
 20
14.684293
 11
33.48133
 21
9.41251
  0
LINE
  8
寸法
  6
BYBLOCK
 62
     0
 10
-24.852002
 20
9.41251
 11
33.48133
 21
9.41251
  0
POINT
  8
寸法
 62
     0
 10
33.48133
 20
9.41251
  0
TEXT
  7
TextStyle03
  8
寸法
  6
CONTINUOUS
 62
     0
 10
1.01875
 20
9.775
  1
1750
 40
3.0
 72
     5
 11
7.58125
 21
9.775
  0
ENDBLK
  0
BLOCK
  2
*DIM_0016
 70
    65
 10
0.0
 20
0.0
  0
LINE
  8
寸法
  6
BYBLOCK
 62
     0
 10
-102.852002
 20
43.314422
 11
-116.14484
 21
43.314422
  0
LINE
  8
寸法
  6
BYBLOCK
 62
     0
 10
-102.852002
 20
23.314422
 11
-116.14484
 21
23.314422
  0
LINE
  8
寸法
  6
BYBLOCK
 62
     0
 10
-116.14484
 20
43.314422
 11
-116.14484
 21
23.314422
  0
POINT
  8
寸法
 62
     0
 10
-116.14484
 20
43.314422
  0
POINT
  8
寸法
 62
     0
 10
-116.14484
 20
23.314422
  0
TEXT
  7
TextStyle03
  8
寸法
  6
CONTINUOUS
 62
     0
 10
-116.55
 20
30.8625
  1
600
 40
3.0
 50
90.0
 72
     5
 11
-116.55
 21
35.7375
  0
ENDBLK
  0
BLOCK
  2
*DIM_0017
 70
    65
 10
0.0
 20
0.0
  0
LINE
  8
寸法
  6
BYBLOCK
 62
     0
 10
-91.51867
 20
51.314422
 11
-91.51867
 21
80.422495
  0
LINE
  8
寸法
  6
BYBLOCK
 62
     0
 10
-64.852002
 20
51.314422
 11
-64.852002
 21
80.422495
  0
LINE
  8
寸法
  6
BYBLOCK
 62
     0
 10
-91.51867
 20
80.422495
 11
-64.852002
 21
80.422495
  0
POINT
  8
寸法
 62
     0
 10
-91.51867
 20
80.422495
  0
POINT
  8
寸法
 62
     0
 10
-64.852002
 20
80.422495
  0
TEXT
  7
TextStyle03
  8
寸法
  6
CONTINUOUS
 62
     0
 10
-80.6625
 20
80.775
  1
800
 40
3.0
 72
     5
 11
-75.7875
 21
80.775
  0
ENDBLK
  0
BLOCK
  2
*DIM_0018
 70
    65
 10
0.0
 20
0.0
  0
LINE
  8
寸法
  6
BYBLOCK
 62
     0
 10
-38.185335
 20
51.314422
 11
-38.185335
 21
80.422495
  0
LINE
  8
寸法
  6
BYBLOCK
 62
     0
 10
-64.852002
 20
80.422495
 11
-38.185335
 21
80.422495
  0
POINT
  8
寸法
 62
     0
 10
-38.185335
 20
80.422495
  0
TEXT
  7
TextStyle03
  8
寸法
  6
CONTINUOUS
 62
     0
 10
-53.9875
 20
80.775
  1
800
 40
3.0
 72
     5
 11
-49.1125
 21
80.775
  0
ENDBLK
  0
BLOCK
  2
*DIM_0019
 70
    65
 10
0.0
 20
0.0
  0
LINE
  8
寸法
  6
BYBLOCK
 62
     0
 10
-11.51867
 20
51.314422
 11
-11.51867
 21
80.422495
  0
LINE
  8
寸法
  6
BYBLOCK
 62
     0
 10
-38.185335
 20
80.422495
 11
-11.51867
 21
80.422495
  0
POINT
  8
寸法
 62
     0
 10
-11.51867
 20
80.422495
  0
TEXT
  7
TextStyle03
  8
寸法
  6
CONTINUOUS
 62
     0
 10
-27.3125
 20
80.775
  1
800
 40
3.0
 72
     5
 11
-22.4375
 21
80.775
  0
ENDBLK
  0
BLOCK
  2
*DIM_0020
 70
    65
 10
0.0
 20
0.0
  0
LINE
  8
寸法
  6
BYBLOCK
 62
     0
 10
15.147998
 20
51.314422
 11
15.147998
 21
80.422495
  0
LINE
  8
寸法
  6
BYBLOCK
 62
     0
 10
-11.51867
 20
80.422495
 11
15.147998
 21
80.422495
  0
POINT
  8
寸法
 62
     0
 10
15.147998
 20
80.422495
  0
TEXT
  7
TextStyle03
  8
寸法
  6
CONTINUOUS
 62
     0
 10
-0.6625
 20
80.775
  1
800
 40
3.0
 72
     5
 11
4.2125
 21
80.775
  0
ENDBLK
  0
BLOCK
  2
*DIM_0021
 70
    65
 10
0.0
 20
0.0
  0
LINE
  8
寸法
  6
BYBLOCK
 62
     0
 10
41.814665
 20
51.314422
 11
41.814665
 21
80.422495
  0
LINE
  8
寸法
  6
BYBLOCK
 62
     0
 10
15.147998
 20
80.422495
 11
41.814665
 21
80.422495
  0
POINT
  8
寸法
 62
     0
 10
41.814665
 20
80.422495
  0
TEXT
  7
TextStyle03
  8
寸法
  6
CONTINUOUS
 62
     0
 10
26.0125
 20
80.775
  1
800
 40
3.0
 72
     5
 11
30.8875
 21
80.775
  0
ENDBLK
  0
BLOCK
  2
*DIM_0022
 70
    65
 10
0.0
 20
0.0
  0
LINE
  8
寸法
  6
CONTINUOUS
 10
119.188075
 20
-57.768747
 11
119.188075
 21
-45.822473
  0
LINE
  8
寸法
  6
CONTINUOUS
 10
155.598075
 20
-57.768747
 11
155.598075
 21
-45.822473
  0
LINE
  8
寸法
  6
CONTINUOUS
 10
119.188075
 20
-45.822473
 11
155.598075
 21
-45.822473
  0
POINT
  8
寸法
 10
119.188075
 20
-45.822473
  0
POINT
  8
寸法
 10
155.598075
 20
-45.822473
  0
TEXT
  7
TextStyle03
  8
寸法
  6
CONTINUOUS
 10
132.40625
 20
-45.45
  1
1092.3
 40
3.0
 72
     5
 11
142.34375
 21
-45.45
  0
ENDBLK
  0
BLOCK
  2
*DIM_0023
 70
    65
 10
0.0
 20
0.0
  0
LINE
  8
寸法
  6
CONTINUOUS
 10
160.598075
 20
-62.768747
 11
172.901535
 21
-62.768747
  0
LINE
  8
寸法
  6
CONTINUOUS
 10
160.598075
 20
-92.10208
 11
172.901535
 21
-92.10208
  0
LINE
  8
寸法
  6
CONTINUOUS
 10
172.901535
 20
-62.768747
 11
172.901535
 21
-92.10208
  0
POINT
  8
寸法
 10
172.901535
 20
-62.768747
  0
POINT
  8
寸法
 10
172.901535
 20
-92.10208
  0
TEXT
  7
TextStyle03
  8
寸法
  6
CONTINUOUS
 10
172.5
 20
-79.8625
  1
880
 40
3.0
 50
90.0
 72
     5
 11
172.5
 21
-74.9875
  0
ENDBLK
  0
ENDSEC
  0
SECTION
  2
ENTITIES
  0
POLYLINE
  8
通り芯
  6
CONTINUOUS
 66
     1
 70
     1
  0
VERTEX
  8
通り芯
 10
-210.0
 20
-148.5
  0
VERTEX
  8
通り芯
 10
210.0
 20
-148.5
  0
VERTEX
  8
通り芯
 10
210.0
 20
148.5
  0
VERTEX
  8
通り芯
 10
-210.0
 20
148.5
  0
SEQEND
  0
INSERT
  2
*GRP_0001
  8
型材断面
  6
CONTINUOUS
 10
0.0
 20
0.0
  0
LINE
  8
型材断面
  6
CONTINUOUS
 10
172.08993
 20
16.157608
 11
171.63993
 21
16.157608
  0
LINE
  8
型材断面
  6
CONTINUOUS
 62
    47
 10
171.63993
 20
15.707608
 11
171.13993
 21
15.707608
  0
LINE
  8
型材断面
  6
CONTINUOUS
 62
    47
 10
170.344312
 20
18.264423
 11
171.13993
 21
15.707608
  0
LINE
  8
型材断面
  6
CONTINUOUS
 10
171.63993
 20
16.157608
 11
171.63993
 21
15.707608
  0
LINE
  8
型材断面
  6
CONTINUOUS
 10
169.256765
 20
16.647758
 11
169.256762
 21
16.697758
  0
LINE
  8
型材断面
  6
CONTINUOUS
 10
169.256765
 20
16.647758
 11
168.42343
 21
16.647758
  0
LINE
  8
型材断面
  6
CONTINUOUS
 10
167.923432
 20
18.314422
 11
168.42343
 21
18.314422
  0
LINE
  8
型材断面
  6
CONTINUOUS
 10
168.42343
 20
16.647758
 11
168.42343
 21
18.314422
  0
INSERT
  2
*GRP_0002
  8
型材断面
  6
CONTINUOUS
 10
0.0
 20
0.0
  0
LINE
  8
型材断面
  6
CONTINUOUS
 10
169.256762
 20
18.264423
 11
170.344312
 21
18.264423
  0
LINE
  8
型材断面
  6
CONTINUOUS
 10
172.08993
 20
50.471235
 11
171.63993
 21
50.471235
  0
LINE
  8
型材断面
  6
CONTINUOUS
 62
    47
 10
171.63993
 20
50.921235
 11
171.13993
 21
50.921235
  0
LINE
  8
型材断面
  6
CONTINUOUS
 62
    47
 10
170.344312
 20
48.364423
 11
171.13993
 21
50.921235
  0
LINE
  8
型材断面
  6
CONTINUOUS
 10
171.63993
 20
50.471235
 11
171.63993
 21
50.921235
  0
LINE
  8
型材断面
  6
CONTINUOUS
 10
169.256765
 20
49.981085
 11
169.256762
 21
49.931085
  0
LINE
  8
型材断面
  6
CONTINUOUS
 10
169.256765
 20
49.981085
 11
168.42343
 21
49.981085
  0
LINE
  8
型材断面
  6
CONTINUOUS
 10
167.923432
 20
48.314422
 11
168.42343
 21
48.314422
  0
LINE
  8
型材断面
  6
CONTINUOUS
 10
168.42343
 20
49.981085
 11
168.42343
 21
48.314422
  0
INSERT
  2
*GRP_0003
  8
型材断面
  6
CONTINUOUS
 10
0.0
 20
0.0
  0
LINE
  8
型材断面
  6
CONTINUOUS
 10
169.256762
 20
48.364423
 11
170.344312
 21
48.364423
  0
LINE
  8
型材断面
  6
DASHDOT
 10
-24.852002
 20
-86.575325
 11
-24.852002
 21
48.314422
  0
LINE
  8
型材断面
  6
CONTINUOUS
 10
171.63993
 20
50.921235
 11
171.63993
 21
15.707608
  0
LINE
  8
型材断面
  6
CONTINUOUS
 10
171.13993
 20
50.921235
 11
171.13993
 21
15.707608
  0
LINE
  8
型材断面
  6
CONTINUOUS
 10
170.344312
 20
18.264423
 11
170.344312
 21
48.364423
  0
LINE
  8
型材断面
  6
CONTINUOUS
 10
172.08993
 20
16.157608
 11
172.08993
 21
50.471235
  0
LINE
  8
型材断面
  6
CONTINUOUS
 10
167.92343
 20
18.314422
 11
167.92343
 21
48.314422
  0
LINE
  8
型材断面
  6
CONTINUOUS
 10
169.256762
 20
16.647758
 11
169.256762
 21
49.981085
  0
LINE
  8
型材断面
  6
CONTINUOUS
 10
168.42343
 20
16.647758
 11
168.42343
 21
49.981085
  0
LINE
  8
型材断面
  6
CONTINUOUS
 10
52.30481
 20
-84.960843
 11
52.30481
 21
-84.510843
  0
LINE
  8
型材断面
  6
CONTINUOUS
 62
    47
 10
52.75481
 20
-84.510843
 11
52.75481
 21
-84.010843
  0
LINE
  8
型材断面
  6
CONTINUOUS
 62
    47
 10
50.197995
 20
-83.215225
 11
52.75481
 21
-84.010843
  0
LINE
  8
型材断面
  6
CONTINUOUS
 10
52.30481
 20
-84.510843
 11
52.75481
 21
-84.510843
  0
LINE
  8
型材断面
  6
CONTINUOUS
 10
51.81466
 20
-82.127678
 11
51.76466
 21
-82.127675
  0
LINE
  8
型材断面
  6
CONTINUOUS
 10
51.81466
 20
-82.127678
 11
51.81466
 21
-81.294343
  0
LINE
  8
型材断面
  6
CONTINUOUS
 10
50.147995
 20
-80.794345
 11
50.147995
 21
-81.294343
  0
LINE
  8
型材断面
  6
CONTINUOUS
 10
51.81466
 20
-81.294343
 11
50.147995
 21
-81.294343
  0
INSERT
  2
*GRP_0004
  8
型材断面
  6
CONTINUOUS
 10
0.0
 20
0.0
  0
LINE
  8
型材断面
  6
CONTINUOUS
 10
50.197995
 20
-82.127675
 11
50.197995
 21
-83.215225
  0
LINE
  8
型材断面
  6
CONTINUOUS
 10
49.314662
 20
32.897755
 11
50.147995
 21
32.897755
  0
LINE
  8
型材断面
  6
CONTINUOUS
 10
49.314662
 20
33.731087
 11
50.147995
 21
33.731087
  0
LINE
  8
型材断面
  6
DASHDOT
 10
50.147995
 20
-86.575325
 11
50.147995
 21
18.314422
  0
LINE
  8
型材断面
  6
DASHDOT
 10
173.704413
 20
18.314422
 11
50.147995
 21
18.314422
  0
LINE
  8
型材断面
  6
CONTINUOUS
 10
50.147995
 20
18.314422
 11
50.147995
 21
33.314422
  0
LINE
  8
型材断面
  6
CONTINUOUS
 10
49.314662
 20
32.897755
 11
49.314662
 21
19.147755
  0
LINE
  8
型材断面
  6
CONTINUOUS
 10
52.75481
 20
15.707608
 11
49.314662
 21
19.147755
  0
LINE
  8
型材断面
  6
DASHDOT
 10
173.704413
 20
48.314422
 11
50.147995
 21
48.314422
  0
LINE
  8
型材断面
  6
CONTINUOUS
 10
50.147995
 20
48.314422
 11
50.147995
 21
33.314422
  0
LINE
  8
型材断面
  6
CONTINUOUS
 10
52.75481
 20
50.921235
 11
49.314662
 21
47.48109
  0
LINE
  8
型材断面
  6
CONTINUOUS
 10
49.314662
 20
33.731087
 11
49.314662
 21
47.48109
  0
LINE
  8
型材断面
  6
CONTINUOUS
 10
52.75481
 20
15.707608
 11
52.75481
 21
50.921235
  0
LINE
  8
型材断面
  6
CONTINUOUS
 10
51.81466
 20
16.647758
 11
51.81466
 21
49.981085
  0
LINE
  8
型材断面
  6
CONTINUOUS
 10
-102.00881
 20
-84.960843
 11
-102.00881
 21
-84.510843
  0
LINE
  8
型材断面
  6
CONTINUOUS
 62
    47
 10
-102.45881
 20
-84.510843
 11
-102.45881
 21
-84.010843
  0
LINE
  8
型材断面
  6
CONTINUOUS
 62
    47
 10
-99.901998
 20
-83.215225
 11
-102.45881
 21
-84.010843
  0
LINE
  8
型材断面
  6
CONTINUOUS
 10
-102.00881
 20
-84.510843
 11
-102.45881
 21
-84.510843
  0
LINE
  8
型材断面
  6
CONTINUOUS
 10
-101.51866
 20
-82.127678
 11
-101.46866
 21
-82.127675
  0
LINE
  8
型材断面
  6
CONTINUOUS
 10
-101.51866
 20
-82.127678
 11
-101.51866
 21
-81.294343
  0
LINE
  8
型材断面
  6
CONTINUOUS
 10
-99.851998
 20
-80.794345
 11
-99.851998
 21
-81.294343
  0
LINE
  8
型材断面
  6
CONTINUOUS
 10
-101.51866
 20
-81.294343
 11
-99.851998
 21
-81.294343
  0
INSERT
  2
*GRP_0005
  8
型材断面
  6
CONTINUOUS
 10
0.0
 20
0.0
  0
LINE
  8
型材断面
  6
CONTINUOUS
 10
-99.901998
 20
-82.127675
 11
-99.901998
 21
-83.215225
  0
LINE
  8
型材断面
  6
DASHDOT
 10
173.704413
 20
33.314422
 11
-99.851998
 21
33.314422
  0
LINE
  8
型材断面
  6
CONTINUOUS
 10
-99.018665
 20
32.897755
 11
-99.851998
 21
32.897755
  0
LINE
  8
型材断面
  6
CONTINUOUS
 10
-99.018665
 20
33.731087
 11
-99.851998
 21
33.731087
  0
LINE
  8
型材断面
  6
DASHDOT
 10
-99.851998
 20
-86.575325
 11
-99.851998
 21
18.314422
  0
LINE
  8
型材断面
  6
CONTINUOUS
 10
-99.851998
 20
18.314422
 11
-99.851998
 21
33.314422
  0
LINE
  8
型材断面
  6
CONTINUOUS
 10
-99.018665
 20
32.897755
 11
-99.018665
 21
19.147755
  0
LINE
  8
型材断面
  6
CONTINUOUS
 10
-102.45881
 20
15.707608
 11
-99.018665
 21
19.147755
  0
LINE
  8
型材断面
  6
CONTINUOUS
 10
-99.851998
 20
48.314422
 11
-99.851998
 21
33.314422
  0
LINE
  8
型材断面
  6
CONTINUOUS
 10
-99.018665
 20
33.731087
 11
-99.018665
 21
47.48109
  0
LINE
  8
型材断面
  6
CONTINUOUS
 10
-102.45881
 20
50.921235
 11
-99.018665
 21
47.48109
  0
LINE
  8
型材断面
  6
CONTINUOUS
 10
-101.51866
 20
49.981085
 11
-101.51866
 21
16.647758
  0
LINE
  8
型材断面
  6
CONTINUOUS
 10
-102.45881
 20
50.921235
 11
-102.45881
 21
15.707608
  0
LINE
  8
型材断面
  6
CONTINUOUS
 10
-102.45881
 20
-84.510843
 11
52.75481
 21
-84.510843
  0
LINE
  8
型材断面
  6
CONTINUOUS
 10
-102.45881
 20
-84.010843
 11
52.75481
 21
-84.010843
  0
LINE
  8
型材断面
  6
CONTINUOUS
 10
50.197995
 20
-83.215225
 11
-99.901998
 21
-83.215225
  0
LINE
  8
型材断面
  6
CONTINUOUS
 10
52.30481
 20
-84.960843
 11
-102.00881
 21
-84.960843
  0
LINE
  8
型材断面
  6
CONTINUOUS
 10
50.147995
 20
-80.794343
 11
-99.851998
 21
-80.794343
  0
LINE
  8
型材断面
  6
CONTINUOUS
 10
51.81466
 20
-82.127675
 11
-101.51866
 21
-82.127675
  0
LINE
  8
型材断面
  6
CONTINUOUS
 10
51.81466
 20
-81.294343
 11
-101.51866
 21
-81.294343
  0
LINE
  8
型材断面
  6
CONTINUOUS
 10
51.81466
 20
16.647758
 11
-101.51866
 21
16.647758
  0
LINE
  8
型材断面
  6
CONTINUOUS
 10
52.75481
 20
15.707608
 11
-102.45881
 21
15.707608
  0
LINE
  8
型材断面
  6
CONTINUOUS
 10
50.147995
 20
18.314422
 11
-99.851998
 21
18.314422
  0
LINE
  8
型材断面
  6
CONTINUOUS
 10
51.81466
 20
49.981085
 11
-101.51866
 21
49.981085
  0
LINE
  8
型材断面
  6
CONTINUOUS
 10
52.75481
 20
50.921235
 11
-102.45881
 21
50.921235
  0
LINE
  8
型材断面
  6
CONTINUOUS
 10
50.147995
 20
48.314422
 11
-99.851998
 21
48.314422
  0
LINE
  8
型材断面
  6
CONTINUOUS
 10
-83.185335
 20
50.944552
 11
-84.680965
 21
53.53506
  0
LINE
  8
型材断面
  6
CONTINUOUS
 10
-83.185335
 20
50.944552
 11
-81.689705
 21
53.53506
  0
LINE
  8
型材断面
  6
CONTINUOUS
 10
-81.689705
 20
53.53506
 11
-84.680965
 21
53.53506
  0
LINE
  8
型材断面
  6
CONTINUOUS
 10
-140.70421
 20
92.82177
 11
-142.19984
 21
90.231263
  0
LINE
  8
型材断面
  6
CONTINUOUS
 10
-140.70421
 20
92.82177
 11
-139.20858
 21
90.231263
  0
LINE
  8
型材断面
  6
CONTINUOUS
 10
-139.20858
 20
90.231263
 11
-142.19984
 21
90.231263
  0
LINE
  8
型材断面
  6
CONTINUOUS
 10
-146.726797
 20
89.292668
 11
-100.48502
 21
89.292668
  0
LINE
  8
型材断面
  6
CONTINUOUS
 10
-102.482132
 20
33.314422
 11
-105.07264
 21
34.810052
  0
LINE
  8
型材断面
  6
CONTINUOUS
 10
-102.482132
 20
33.314422
 11
-105.07264
 21
31.818793
  0
LINE
  8
型材断面
  6
CONTINUOUS
 10
-105.07264
 20
31.818793
 11
-105.07264
 21
34.810052
  0
LINE
  8
型材断面
  6
CONTINUOUS
 10
-83.185335
 20
15.684293
 11
-84.680965
 21
13.093785
  0
LINE
  8
型材断面
  6
CONTINUOUS
 10
-83.185335
 20
15.684293
 11
-81.689705
 21
13.093785
  0
LINE
  8
型材断面
  6
CONTINUOUS
 10
-81.689705
 20
13.093785
 11
-84.680965
 21
13.093785
  0
LINE
  8
型材断面
  6
CONTINUOUS
 10
33.48133
 20
50.944552
 11
34.97696
 21
53.53506
  0
LINE
  8
型材断面
  6
CONTINUOUS
 10
33.48133
 20
50.944552
 11
31.9857
 21
53.53506
  0
LINE
  8
型材断面
  6
CONTINUOUS
 10
31.9857
 20
53.53506
 11
34.97696
 21
53.53506
  0
LINE
  8
型材断面
  6
CONTINUOUS
 10
52.778127
 20
33.314422
 11
55.368635
 21
34.810052
  0
LINE
  8
型材断面
  6
CONTINUOUS
 10
52.778127
 20
33.314422
 11
55.368635
 21
31.818793
  0
LINE
  8
型材断面
  6
CONTINUOUS
 10
55.368635
 20
31.818793
 11
55.368635
 21
34.810052
  0
LINE
  8
型材断面
  6
CONTINUOUS
 10
33.48133
 20
15.684293
 11
34.97696
 21
13.093785
  0
LINE
  8
型材断面
  6
CONTINUOUS
 10
33.48133
 20
15.684293
 11
31.9857
 21
13.093785
  0
LINE
  8
型材断面
  6
CONTINUOUS
 10
31.9857
 20
13.093785
 11
34.97696
 21
13.093785
  0
LINE
  8
型材断面
  6
CONTINUOUS
 10
-24.852002
 20
50.94455
 11
-23.356372
 21
53.535058
  0
LINE
  8
型材断面
  6
CONTINUOUS
 10
-24.852002
 20
50.94455
 11
-26.347632
 21
53.535058
  0
LINE
  8
型材断面
  6
CONTINUOUS
 10
-26.347632
 20
53.535058
 11
-23.356372
 21
53.535058
  0
LINE
  8
型材断面
  6
CONTINUOUS
 10
-24.852002
 20
15.68429
 11
-23.356372
 21
13.093783
  0
LINE
  8
型材断面
  6
CONTINUOUS
 10
-24.852002
 20
15.68429
 11
-26.347632
 21
13.093783
  0
LINE
  8
型材断面
  6
CONTINUOUS
 10
-26.347632
 20
13.093783
 11
-23.356372
 21
13.093783
  0
LINE
  8
型材断面
  6
CONTINUOUS
 10
-146.726797
 20
83.544463
 11
-100.48502
 21
83.544463
  0
LINE
  8
型材断面
  6
DASHDOT
 10
-62.493665
 20
18.314422
 11
-62.493665
 21
48.314422
  0
LINE
  8
型材断面
  6
DASHDOT
 10
12.78966
 20
18.314422
 11
12.78966
 21
48.314422
  0
LINE
  8
型材断面
  6
CONTINUOUS
 10
-61.410365
 20
19.981087
 11
-63.576998
 21
19.981087
  0
LINE
  8
型材断面
  6
CONTINUOUS
 10
-61.410365
 20
46.647758
 11
-63.576998
 21
46.647758
  0
LINE
  8
型材断面
  6
CONTINUOUS
 10
-61.410365
 20
19.981087
 11
-61.410365
 21
46.647758
  0
LINE
  8
型材断面
  6
CONTINUOUS
 10
-62.243697
 20
19.981087
 11
-62.243697
 21
46.647758
  0
LINE
  8
型材断面
  6
CONTINUOUS
 10
-62.743665
 20
19.981087
 11
-62.743665
 21
46.647758
  0
LINE
  8
型材断面
  6
CONTINUOUS
 10
-63.576998
 20
19.971393
 11
-63.576998
 21
46.647758
  0
LINE
  8
型材断面
  6
CONTINUOUS
 10
11.70636
 20
19.981087
 11
13.872992
 21
19.981087
  0
LINE
  8
型材断面
  6
CONTINUOUS
 10
11.70636
 20
46.647758
 11
13.872992
 21
46.647758
  0
LINE
  8
型材断面
  6
CONTINUOUS
 10
11.70636
 20
19.981087
 11
11.70636
 21
46.647758
  0
LINE
  8
型材断面
  6
CONTINUOUS
 10
12.539692
 20
19.981087
 11
12.539692
 21
46.647758
  0
LINE
  8
型材断面
  6
CONTINUOUS
 10
13.03966
 20
19.981087
 11
13.03966
 21
46.647758
  0
LINE
  8
型材断面
  6
CONTINUOUS
 10
13.872992
 20
19.971393
 11
13.872992
 21
46.647758
  0
LINE
  8
型材断面
  6
CONTINUOUS
 10
-25.935303
 20
19.981087
 11
-23.76867
 21
19.981087
  0
LINE
  8
型材断面
  6
CONTINUOUS
 10
-25.935303
 20
46.647758
 11
-23.76867
 21
46.647758
  0
LINE
  8
型材断面
  6
CONTINUOUS
 10
-25.935303
 20
19.981087
 11
-25.935303
 21
46.647758
  0
LINE
  8
型材断面
  6
CONTINUOUS
 10
-25.10197
 20
19.981087
 11
-25.10197
 21
46.647758
  0
LINE
  8
型材断面
  6
CONTINUOUS
 10
-24.602002
 20
19.981087
 11
-24.602002
 21
46.647758
  0
LINE
  8
型材断面
  6
CONTINUOUS
 10
-23.76867
 20
19.971393
 11
-23.76867
 21
46.647758
  0
LINE
  8
型材断面
  6
CONTINUOUS
 10
-81.5895
 20
19.147755
 11
-81.5895
 21
18.314422
  0
LINE
  8
型材断面
  6
CONTINUOUS
 10
-80.756165
 20
19.147755
 11
-80.756165
 21
18.314422
  0
LINE
  8
型材断面
  6
CONTINUOUS
 10
-44.089502
 20
19.147755
 11
-44.089502
 21
18.314422
  0
LINE
  8
型材断面
  6
CONTINUOUS
 10
-43.256167
 20
19.147755
 11
-43.256167
 21
18.314422
  0
LINE
  8
型材断面
  6
CONTINUOUS
 10
-81.5895
 20
19.147755
 11
-99.018665
 21
19.147755
  0
LINE
  8
型材断面
  6
CONTINUOUS
 10
-44.089502
 20
19.147755
 11
-80.756165
 21
19.147755
  0
LINE
  8
型材断面
  6
CONTINUOUS
 10
31.885495
 20
19.147755
 11
31.885495
 21
18.314422
  0
LINE
  8
型材断面
  6
CONTINUOUS
 10
31.05216
 20
19.147755
 11
31.05216
 21
18.314422
  0
LINE
  8
型材断面
  6
CONTINUOUS
 10
-5.614502
 20
19.147755
 11
-5.614502
 21
18.314422
  0
LINE
  8
型材断面
  6
CONTINUOUS
 10
-6.447837
 20
19.147755
 11
-6.447837
 21
18.314422
  0
LINE
  8
型材断面
  6
CONTINUOUS
 10
31.885495
 20
19.147755
 11
49.31466
 21
19.147755
  0
LINE
  8
型材断面
  6
CONTINUOUS
 10
-5.614502
 20
19.147755
 11
31.05216
 21
19.147755
  0
LINE
  8
型材断面
  6
CONTINUOUS
 10
-43.256167
 20
19.147755
 11
-6.447837
 21
19.147755
  0
LINE
  8
型材断面
  6
CONTINUOUS
 10
-81.5895
 20
47.48109
 11
-81.5895
 21
48.314422
  0
LINE
  8
型材断面
  6
CONTINUOUS
 10
-80.756165
 20
47.48109
 11
-80.756165
 21
48.314422
  0
LINE
  8
型材断面
  6
CONTINUOUS
 10
-44.089502
 20
47.48109
 11
-44.089502
 21
48.314422
  0
LINE
  8
型材断面
  6
CONTINUOUS
 10
-43.256167
 20
47.48109
 11
-43.256167
 21
48.314422
  0
LINE
  8
型材断面
  6
CONTINUOUS
 10
-81.5895
 20
47.48109
 11
-99.018665
 21
47.48109
  0
LINE
  8
型材断面
  6
CONTINUOUS
 10
-44.089502
 20
47.48109
 11
-80.756165
 21
47.48109
  0
LINE
  8
型材断面
  6
CONTINUOUS
 10
31.885495
 20
47.48109
 11
31.885495
 21
48.314422
  0
LINE
  8
型材断面
  6
CONTINUOUS
 10
31.05216
 20
47.48109
 11
31.05216
 21
48.314422
  0
LINE
  8
型材断面
  6
CONTINUOUS
 10
-5.614502
 20
47.48109
 11
-5.614502
 21
48.314422
  0
LINE
  8
型材断面
  6
CONTINUOUS
 10
-6.447837
 20
47.48109
 11
-6.447837
 21
48.314422
  0
LINE
  8
型材断面
  6
CONTINUOUS
 10
31.885495
 20
47.48109
 11
49.31466
 21
47.48109
  0
LINE
  8
型材断面
  6
CONTINUOUS
 10
-5.614502
 20
47.48109
 11
31.05216
 21
47.48109
  0
LINE
  8
型材断面
  6
CONTINUOUS
 10
-43.256167
 20
47.48109
 11
-6.447837
 21
47.48109
  0
LINE
  8
型材断面
  6
CONTINUOUS
 10
118.715707
 20
-40.709518
 11
139.853283
 21
-40.709518
  0
POLYLINE
  8
ガラス
  6
CONTINUOUS
 66
     1
 70
     1
  0
VERTEX
  8
ガラス
 10
155.598075
 20
-62.768747
  0
VERTEX
  8
ガラス
 10
119.188075
 20
-62.768747
  0
VERTEX
  8
ガラス
 10
119.188075
 20
-92.10208
  0
VERTEX
  8
ガラス
 10
155.598075
 20
-92.10208
  0
SEQEND
  0
TEXT
  7
TextStyle03
  8
文字
  6
CONTINUOUS
 10
78.1
 20
125.25
  1
シリーズ：ＳＴＦＦＫＬ
 40
5.0
 72
     5
 11
139.35
 21
125.25
  0
TEXT
  7
TextStyle03
  8
文字
  6
CONTINUOUS
 10
78.1
 20
119.625
  1
　　　　　（固定）900×4500タイプ
 40
5.0
 72
     5
 11
170.2875
 21
119.625
  0
TEXT
  7
TextStyle03
  8
文字
  6
CONTINUOUS
 10
78.1
 20
114.0
  1
図面名　：外観姿図
 40
5.0
 72
     5
 11
128.1
 21
114.0
  0
TEXT
  7
TextStyle03
  8
文字
  6
CONTINUOUS
 10
78.1
 20
108.375
  1
　　　　　　
 40
5.0
 72
     5
 11
111.225
 21
108.375
  0
TEXT
  7
TextStyle03
  8
文字
  6
CONTINUOUS
 10
-137.925
 20
90.425
  1
は排水穴位置を示す
 40
3.0
 72
     5
 11
-107.925
 21
90.425
  0
TEXT
  7
TextStyle03
  8
文字
  6
CONTINUOUS
 10
-120.875
 20
11.775
  1
アンカーピッチ
 40
3.0
 50
90.0
 72
     5
 11
-120.875
 21
35.025
  0
TEXT
  7
TextStyle03
  8
文字
  6
CONTINUOUS
 10
-84.925
 20
85.375
  1
アンカーピッチ
 40
3.0
 72
     5
 11
-61.675
 21
85.375
  0
TEXT
  7
TextStyle03
  8
文字
  6
CONTINUOUS
 10
-141.65
 20
84.45
  1
アンカー数量　１６ヶ所
 40
3.0
 72
     5
 11
-104.9
 21
84.45
  0
TEXT
  7
TextStyle03
  8
文字
  6
CONTINUOUS
 10
141.3
 20
-89.075
  1
×４枚
 40
3.0
 72
     5
 11
151.05
 21
-89.075
  0
TEXT
  7
TextStyle03
  8
文字
  6
CONTINUOUS
 10
120.75
 20
-39.225
  1
ガラス寸法
 40
3.0
 72
     5
 11
137.25
 21
-39.225
  0
INSERT
  2
*DIM_0006
  8
寸法
  6
CONTINUOUS
 10
0.0
 20
0.0
  0
INSERT
  2
*DIM_0007
  8
寸法
  6
CONTINUOUS
 10
0.0
 20
0.0
  0
INSERT
  2
*DIM_0008
  8
寸法
  6
CONTINUOUS
 10
0.0
 20
0.0
  0
INSERT
  2
*DIM_0009
  8
寸法
  6
CONTINUOUS
 10
0.0
 20
0.0
  0
INSERT
  2
*DIM_0010
  8
寸法
  6
CONTINUOUS
 10
0.0
 20
0.0
  0
INSERT
  2
*DIM_0011
  8
寸法
  6
CONTINUOUS
 10
0.0
 20
0.0
  0
INSERT
  2
*DIM_0012
  8
寸法
  6
CONTINUOUS
 10
0.0
 20
0.0
  0
INSERT
  2
*DIM_0013
  8
寸法
  6
CONTINUOUS
 10
0.0
 20
0.0
  0
INSERT
  2
*DIM_0014
  8
寸法
  6
CONTINUOUS
 10
0.0
 20
0.0
  0
INSERT
  2
*DIM_0015
  8
寸法
  6
CONTINUOUS
 10
0.0
 20
0.0
  0
INSERT
  2
*DIM_0016
  8
寸法
  6
CONTINUOUS
 10
0.0
 20
0.0
  0
INSERT
  2
*DIM_0017
  8
寸法
  6
CONTINUOUS
 10
0.0
 20
0.0
  0
INSERT
  2
*DIM_0018
  8
寸法
  6
CONTINUOUS
 10
0.0
 20
0.0
  0
INSERT
  2
*DIM_0019
  8
寸法
  6
CONTINUOUS
 10
0.0
 20
0.0
  0
INSERT
  2
*DIM_0020
  8
寸法
  6
CONTINUOUS
 10
0.0
 20
0.0
  0
INSERT
  2
*DIM_0021
  8
寸法
  6
CONTINUOUS
 10
0.0
 20
0.0
  0
INSERT
  2
*DIM_0022
  8
寸法
  6
CONTINUOUS
 10
0.0
 20
0.0
  0
INSERT
  2
*DIM_0023
  8
寸法
  6
CONTINUOUS
 10
0.0
 20
0.0
  0
LINE
  8
曲げ物
  6
CONTINUOUS
 10
-42.262425
 20
35.11718
 11
-45.957737
 21
31.421868
  0
LINE
  8
曲げ物
  6
CONTINUOUS
 10
-42.965895
 20
33.58107
 11
-44.421625
 21
32.12534
  0
LINE
  8
曲げ物
  6
CONTINUOUS
 10
-43.798535
 20
34.41371
 11
-45.254265
 21
32.95798
  0
LINE
  8
曲げ物
  6
CONTINUOUS
 10
-42.965895
 20
33.58107
 11
-44.421625
 21
32.12534
  0
LINE
  8
曲げ物
  6
CONTINUOUS
 10
-43.798535
 20
34.41371
 11
-45.254265
 21
32.95798
  0
LINE
  8
曲げ物
  6
CONTINUOUS
 10
-79.779093
 20
35.11718
 11
-83.474405
 21
31.421868
  0
LINE
  8
曲げ物
  6
CONTINUOUS
 10
-80.482563
 20
33.58107
 11
-81.938292
 21
32.12534
  0
LINE
  8
曲げ物
  6
CONTINUOUS
 10
-81.315203
 20
34.41371
 11
-82.770932
 21
32.95798
  0
LINE
  8
曲げ物
  6
CONTINUOUS
 10
-80.482563
 20
33.58107
 11
-81.938292
 21
32.12534
  0
LINE
  8
曲げ物
  6
CONTINUOUS
 10
-81.315203
 20
34.41371
 11
-82.770932
 21
32.95798
  0
LINE
  8
曲げ物
  6
CONTINUOUS
 10
32.77091
 20
35.11718
 11
29.075598
 21
31.421868
  0
LINE
  8
曲げ物
  6
CONTINUOUS
 10
32.06744
 20
33.58107
 11
30.61171
 21
32.12534
  0
LINE
  8
曲げ物
  6
CONTINUOUS
 10
31.2348
 20
34.41371
 11
29.77907
 21
32.95798
  0
LINE
  8
曲げ物
  6
CONTINUOUS
 10
32.06744
 20
33.58107
 11
30.61171
 21
32.12534
  0
LINE
  8
曲げ物
  6
CONTINUOUS
 10
31.2348
 20
34.41371
 11
29.77907
 21
32.95798
  0
LINE
  8
曲げ物
  6
CONTINUOUS
 10
-4.745758
 20
35.11718
 11
-8.44107
 21
31.421868
  0
LINE
  8
曲げ物
  6
CONTINUOUS
 10
-5.449227
 20
33.58107
 11
-6.904958
 21
32.12534
  0
LINE
  8
曲げ物
  6
CONTINUOUS
 10
-6.281868
 20
34.41371
 11
-7.737597
 21
32.95798
  0
LINE
  8
曲げ物
  6
CONTINUOUS
 10
-5.449227
 20
33.58107
 11
-6.904958
 21
32.12534
  0
LINE
  8
曲げ物
  6
CONTINUOUS
 10
-6.281868
 20
34.41371
 11
-7.737597
 21
32.95798
  0
LINE
  8
St
  6
CONTINUOUS
 62
    47
 10
171.63993
 20
16.157608
 11
171.63993
 21
15.707608
  0
LINE
  8
St
  6
CONTINUOUS
 62
    47
 10
171.63993
 20
50.471235
 11
171.63993
 21
50.921235
  0
LINE
  8
St
  6
CONTINUOUS
 62
    47
 10
52.30481
 20
-84.510843
 11
52.75481
 21
-84.510843
  0
LINE
  8
St
  6
CONTINUOUS
 62
    47
 10
-102.00881
 20
-84.510843
 11
-102.45881
 21
-84.510843
  0
ENDSEC
  0
EOF
