  0
SECTION
  2
HEADER
  9
$EXTMIN
 10
-210.0
 20
-148.5
  9
$EXTMAX
 10
210.0
 20
148.5
  9
$PDMODE
 70
    32
  9
$PDSIZE
 40
1.5
  9
$LTSCALE
 40
10.0
  0
ENDSEC
  0
SECTION
  2
TABLES
  0
TABLE
  2
LTYPE
 70
    15
  0
LTYPE
  2
CONTINUOUS
 70
    64
  3
実線
 72
    65
 73
     0
 40
0.0
  0
LTYPE
  2
DASHED
 70
    64
  3
破線A
 72
    65
 73
     2
 40
0.6
 49
0.4
 49
-0.2
  0
LTYPE
  2
DASHEDX2
 70
    64
  3
破線B
 72
    65
 73
     2
 40
1.3
 49
0.9
 49
-0.4
  0
LTYPE
  2
DASHDOT
 70
    64
  3
１点鎖線A
 72
    65
 73
     4
 40
0.5375
 49
0.375
 49
-0.05
 49
0.0625
 49
-0.05
  0
LTYPE
  2
DASHDOTX2
 70
    64
  3
１点鎖線B
 72
    65
 73
     4
 40
1.075
 49
0.75
 49
-0.1
 49
0.125
 49
-0.1
  0
LTYPE
  2
DIVIDE2
 70
    64
  3
２点鎖線A
 72
    65
 73
     6
 40
0.5125
 49
0.3
 49
-0.0375
 49
0.05
 49
-0.0375
 49
0.05
 49
-0.0375
  0
LTYPE
  2
DIVIDE
 70
    64
  3
２点鎖線B
 72
    65
 73
     6
 40
1.05
 49
0.55
 49
-0.1
 49
0.1
 49
-0.1
 49
0.1
 49
-0.1
  0
LTYPE
  2
DOT
 70
    64
  3
点線A
 72
    65
 73
     2
 40
0.1125
 49
0.0625
 49
-0.05
  0
LTYPE
  2
DOTX2
 70
    64
  3
点線B
 72
    65
 73
     2
 40
0.275
 49
0.15
 49
-0.125
  0
LTYPE
  2
CONTINUOUS
 70
    64
  3
実線
 72
    65
 73
     0
 40
0.0
  0
LTYPE
  2
CONTINUOUS
 70
    64
  3
実線
 72
    65
 73
     0
 40
0.0
  0
LTYPE
  2
CONTINUOUS
 70
    64
  3
実線
 72
    65
 73
     0
 40
0.0
  0
LTYPE
  2
CONTINUOUS
 70
    64
  3
実線
 72
    65
 73
     0
 40
0.0
  0
LTYPE
  2
CONTINUOUS
 70
    64
  3
実線
 72
    65
 73
     0
 40
0.0
  0
LTYPE
  2
CONTINUOUS
 70
    64
  3
実線
 72
    65
 73
     0
 40
0.0
  0
ENDTAB
  0
TABLE
  2
LAYER
 70
    34
  0
LAYER
  2
通り芯
 70
     0
 62
    15
  6
CONTINUOUS
  0
LAYER
  2
補助線
 70
     0
 62
    16
  6
DOT
  0
LAYER
  2
躯体
 70
     0
 62
    31
  6
CONTINUOUS
  0
LAYER
  2
型材
 70
     0
 62
    32
  6
CONTINUOUS
  0
LAYER
  2
型材断面
 70
     0
 62
    47
  6
CONTINUOUS
  0
LAYER
  2
ガラス
 70
     0
 62
    48
  6
CONTINUOUS
  0
LAYER
  2
ゴム等
 70
     0
 62
    63
  6
CONTINUOUS
  0
LAYER
  2
ボルト／ビス
 70
     0
 62
    64
  6
CONTINUOUS
  0
LAYER
  2
文字
 70
     0
 62
    79
  6
CONTINUOUS
  0
LAYER
  2
寸法
 70
     0
 62
    80
  6
CONTINUOUS
  0
LAYER
  2
ﾊｯﾁﾝｸﾞ
 70
     0
 62
    95
  6
CONTINUOUS
  0
LAYER
  2
別途部材
 70
     0
 62
    96
  6
CONTINUOUS
  0
LAYER
  2
曲げ物
 70
     0
 62
   111
  6
CONTINUOUS
  0
LAYER
  2
鉄骨等
 70
     0
 62
   112
  6
CONTINUOUS
  0
LAYER
  2
St
 70
     0
 62
   127
  6
CONTINUOUS
  0
LAYER
  2
その他部品等
 70
     0
 62
   128
  6
CONTINUOUS
  0
LAYER
  2
ｶﾞｽｹｯﾄ
 70
     0
 62
   143
  6
CONTINUOUS
  0
LAYER
  2
ｽｹｯﾁ
 70
     0
 62
    14
  6
CONTINUOUS
  0
LAYER
  2
0
 70
     0
 62
    17
  6
CONTINUOUS
  0
LAYER
  2
1
 70
     0
 62
    30
  6
CONTINUOUS
  0
LAYER
  2
4
 70
     0
 62
    33
  6
CONTINUOUS
  0
LAYER
  2
ﾚｲﾔ3
 70
     0
 62
    46
  6
CONTINUOUS
  0
LAYER
  2
外形線
 70
     0
 62
    49
  6
CONTINUOUS
  0
LAYER
  2
部品
 70
     0
 62
    14
  6
CONTINUOUS
  0
LAYER
  2
サッシ芯
 70
     0
 62
    17
  6
DASHDOTX2
  0
LAYER
  2
寸法線
 70
     0
 62
    62
  6
CONTINUOUS
  0
LAYER
  2
姿図外形線
 70
     0
 62
    65
  6
CONTINUOUS
  0
LAYER
  2
姿補助線
 70
     0
 62
    30
  6
CONTINUOUS
  0
LAYER
  2
透視線
 70
     0
 62
    78
  6
DOT
  0
LAYER
  2
用紙
 70
     0
 62
    81
  6
CONTINUOUS
  0
LAYER
  2
実線図枠
 70
     0
 62
    94
  6
CONTINUOUS
  0
LAYER
  2
補助図枠
 70
     0
 62
    97
  6
CONTINUOUS
  0
LAYER
  2
建具記号
 70
     0
 62
   110
  6
CONTINUOUS
  0
LAYER
  2
補助文字
 70
     0
 62
   113
  6
CONTINUOUS
  0
ENDTAB
  0
TABLE
  2
STYLE
 70
    10
  0
STYLE
  2
STANDARD
 70
     0
 40
1.0
 41
1.0
 42
1.0
 50
0.0
 71
     0
  3
TXT
  4
BIGFONT
  0
STYLE
  2
TATE
 70
     4
 40
1.0
 41
1.0
 42
1.0
 50
0.0
 71
     0
  3
TXT
  4
BIGFONT
  0
STYLE
  2
TextStyle03
 70
     0
 40
1.0
 41
1.0
 42
1.0
 50
0.0
 71
     0
  3
MONOTXT
  4
BIGFONT
  0
STYLE
  2
TextStyle04
 70
     0
 40
1.0
 41
1.0
 42
1.0
 50
0.0
 71
     0
  3
MONOTXT
  4
BIGFONT
  0
STYLE
  2
TextStyle05
 70
     0
 40
1.0
 41
1.0
 42
1.0
 50
0.0
 71
     0
  3
MONOTXT
  4
BIGFONT
  0
STYLE
  2
TextStyle06
 70
     0
 40
1.0
 41
1.0
 42
1.0
 50
0.0
 71
     0
  3
MONOTXT
  4
BIGFONT
  0
STYLE
  2
TextStyle07
 70
     0
 40
1.0
 41
1.0
 42
1.0
 50
0.0
 71
     0
  3
MONOTXT
  4
BIGFONT
  0
STYLE
  2
TextStyle08
 70
     0
 40
1.0
 41
1.0
 42
1.0
 50
0.0
 71
     0
  3
MONOTXT
  4
BIGFONT
  0
STYLE
  2
TextStyle09
 70
     0
 40
1.0
 41
1.0
 42
1.0
 50
0.0
 71
     0
  3
MONOTXT
  4
BIGFONT
  0
STYLE
  2
TextStyle10
 70
     0
 40
1.0
 41
1.0
 42
1.0
 50
0.0
 71
     0
  3
MONOTXT
  4
BIGFONT
  0
ENDTAB
  0
ENDSEC
  0
SECTION
  2
BLOCKS
  0
BLOCK
  2
*GRP_0001
 70
    65
 10
0.0
 20
0.0
  0
LINE
  8
型材断面
  6
CONTINUOUS
 10
195.0
 20
133.5
 11
195.0
 21
-133.5
  0
LINE
  8
型材断面
  6
CONTINUOUS
 10
195.0
 20
-133.5
 11
-185.0
 21
-133.5
  0
LINE
  8
型材断面
  6
CONTINUOUS
 10
-185.0
 20
-133.5
 11
-185.0
 21
133.5
  0
LINE
  8
型材断面
  6
CONTINUOUS
 10
195.0
 20
133.5
 11
-185.0
 21
133.5
  0
LINE
  8
型材断面
  6
CONTINUOUS
 10
145.0
 20
-133.5
 11
145.0
 21
-118.5
  0
LINE
  8
型材断面
  6
CONTINUOUS
 10
195.0
 20
-118.5
 11
145.0
 21
-118.5
  0
ENDBLK
  0
BLOCK
  2
*GRP_0002
 70
    65
 10
0.0
 20
0.0
  0
LINE
  8
ボルト／ビス
  6
CONTINUOUS
 10
168.42343
 20
22.281087
 11
168.356765
 21
22.281087
  0
LINE
  8
ボルト／ビス
  6
CONTINUOUS
 10
168.356765
 20
22.281087
 11
168.356765
 21
23.014417
  0
LINE
  8
ボルト／ビス
  6
CONTINUOUS
 10
168.356765
 20
23.014417
 11
168.42343
 21
23.014417
  0
LINE
  8
ボルト／ビス
  6
CONTINUOUS
 10
168.42343
 20
22.281087
 11
168.42343
 21
23.014417
  0
LINE
  8
ボルト／ビス
  6
CONTINUOUS
 10
168.32343
 20
22.347753
 11
168.356765
 21
22.347753
  0
LINE
  8
ボルト／ビス
  6
CONTINUOUS
 10
168.32343
 20
22.347753
 11
168.32343
 21
22.947753
  0
LINE
  8
ボルト／ビス
  6
CONTINUOUS
 10
168.32343
 20
22.947753
 11
168.356762
 21
22.947753
  0
LINE
  8
ボルト／ビス
  6
CONTINUOUS
 62
    64
 10
168.12343
 20
22.487378
 11
168.135105
 21
22.455302
  0
ARC
  8
ボルト／ビス
  6
CONTINUOUS
 62
    64
 10
168.22841
 20
22.503416
 40
0.104978
 50
152.721989
 51
180.000022
  0
ARC
  8
ボルト／ビス
  6
CONTINUOUS
 62
    64
 10
168.525833
 20
22.647753
 40
0.402401
 50
166.165024
 51
193.835007
  0
LINE
  8
ボルト／ビス
  6
CONTINUOUS
 62
    64
 10
168.12343
 20
22.808128
 11
168.135105
 21
22.840202
  0
ARC
  8
ボルト／ビス
  6
CONTINUOUS
 62
    64
 10
168.22841
 20
22.79209
 40
0.104978
 50
180.000022
 51
207.278055
  0
LINE
  8
ボルト／ビス
  6
CONTINUOUS
 62
    64
 10
168.12343
 20
22.487378
 11
168.12343
 21
22.808128
  0
LINE
  8
ボルト／ビス
  6
CONTINUOUS
 62
    64
 10
168.135105
 20
22.840202
 11
168.256762
 21
22.840202
  0
LINE
  8
ボルト／ビス
  6
CONTINUOUS
 62
    64
 10
168.135105
 20
22.743978
 11
168.256765
 21
22.743978
  0
LINE
  8
ボルト／ビス
  6
CONTINUOUS
 62
    64
 10
168.135105
 20
22.455302
 11
168.256762
 21
22.455302
  0
LINE
  8
ボルト／ビス
  6
CONTINUOUS
 62
    64
 10
168.135105
 20
22.551527
 11
168.256762
 21
22.551527
  0
LINE
  8
ボルト／ビス
  6
CONTINUOUS
 10
168.256762
 20
22.455302
 11
168.256762
 21
22.840202
  0
LINE
  8
ボルト／ビス
  6
CONTINUOUS
 10
168.256762
 20
22.447753
 11
168.32343
 21
22.447753
  0
LINE
  8
ボルト／ビス
  6
CONTINUOUS
 10
168.256762
 20
22.447753
 11
168.256762
 21
22.847753
  0
LINE
  8
ボルト／ビス
  6
CONTINUOUS
 10
168.256762
 20
22.847753
 11
168.32343
 21
22.847753
  0
LINE
  8
ボルト／ビス
  6
CONTINUOUS
 62
    64
 10
168.42343
 20
22.747753
 11
168.42343
 21
22.747753
  0
ENDBLK
  0
BLOCK
  2
*GRP_0003
 70
    65
 10
0.0
 20
0.0
  0
LINE
  8
ボルト／ビス
  6
CONTINUOUS
 10
168.42343
 20
44.347758
 11
168.356765
 21
44.347758
  0
LINE
  8
ボルト／ビス
  6
CONTINUOUS
 10
168.356765
 20
44.347758
 11
168.356765
 21
43.614425
  0
LINE
  8
ボルト／ビス
  6
CONTINUOUS
 10
168.356765
 20
43.614425
 11
168.42343
 21
43.614425
  0
LINE
  8
ボルト／ビス
  6
CONTINUOUS
 10
168.42343
 20
44.347758
 11
168.42343
 21
43.614425
  0
LINE
  8
ボルト／ビス
  6
CONTINUOUS
 10
168.32343
 20
44.28109
 11
168.356765
 21
44.28109
  0
LINE
  8
ボルト／ビス
  6
CONTINUOUS
 10
168.32343
 20
44.28109
 11
168.32343
 21
43.681092
  0
LINE
  8
ボルト／ビス
  6
CONTINUOUS
 10
168.32343
 20
43.681092
 11
168.356762
 21
43.681092
  0
LINE
  8
ボルト／ビス
  6
CONTINUOUS
 62
    64
 10
168.12343
 20
44.141467
 11
168.135105
 21
44.17354
  0
ARC
  8
ボルト／ビス
  6
CONTINUOUS
 62
    64
 10
168.22841
 20
44.125427
 40
0.104978
 50
179.999978
 51
207.278011
  0
ARC
  8
ボルト／ビス
  6
CONTINUOUS
 62
    64
 10
168.525833
 20
43.981089
 40
0.402401
 50
166.164993
 51
193.834976
  0
LINE
  8
ボルト／ビス
  6
CONTINUOUS
 62
    64
 10
168.12343
 20
43.820717
 11
168.135105
 21
43.78864
  0
ARC
  8
ボルト／ビス
  6
CONTINUOUS
 62
    64
 10
168.22841
 20
43.836752
 40
0.104978
 50
152.721945
 51
179.999978
  0
LINE
  8
ボルト／ビス
  6
CONTINUOUS
 62
    64
 10
168.12343
 20
44.141467
 11
168.12343
 21
43.820717
  0
LINE
  8
ボルト／ビス
  6
CONTINUOUS
 62
    64
 10
168.135105
 20
43.78864
 11
168.256762
 21
43.78864
  0
LINE
  8
ボルト／ビス
  6
CONTINUOUS
 62
    64
 10
168.135105
 20
43.884867
 11
168.256765
 21
43.884867
  0
LINE
  8
ボルト／ビス
  6
CONTINUOUS
 62
    64
 10
168.135105
 20
44.17354
 11
168.256762
 21
44.17354
  0
LINE
  8
ボルト／ビス
  6
CONTINUOUS
 62
    64
 10
168.135105
 20
44.077315
 11
168.256762
 21
44.077315
  0
LINE
  8
ボルト／ビス
  6
CONTINUOUS
 10
168.256762
 20
44.17354
 11
168.256762
 21
43.78864
  0
LINE
  8
ボルト／ビス
  6
CONTINUOUS
 10
168.256762
 20
44.18109
 11
168.32343
 21
44.18109
  0
LINE
  8
ボルト／ビス
  6
CONTINUOUS
 10
168.256762
 20
44.18109
 11
168.256762
 21
43.781092
  0
LINE
  8
ボルト／ビス
  6
CONTINUOUS
 10
168.256762
 20
43.781092
 11
168.32343
 21
43.781092
  0
LINE
  8
ボルト／ビス
  6
CONTINUOUS
 62
    64
 10
168.42343
 20
43.881092
 11
168.42343
 21
43.881092
  0
ENDBLK
  0
BLOCK
  2
*GRP_0004
 70
    65
 10
0.0
 20
0.0
  0
LINE
  8
ボルト／ビス
  6
CONTINUOUS
 10
59.514662
 20
-81.294343
 11
59.514662
 21
-81.227678
  0
LINE
  8
ボルト／ビス
  6
CONTINUOUS
 10
59.514662
 20
-81.227678
 11
58.781332
 21
-81.227678
  0
LINE
  8
ボルト／ビス
  6
CONTINUOUS
 10
58.781332
 20
-81.227678
 11
58.781332
 21
-81.294343
  0
LINE
  8
ボルト／ビス
  6
CONTINUOUS
 10
59.514662
 20
-81.294343
 11
58.781332
 21
-81.294343
  0
LINE
  8
ボルト／ビス
  6
CONTINUOUS
 10
59.447998
 20
-81.194343
 11
59.447998
 21
-81.227678
  0
LINE
  8
ボルト／ビス
  6
CONTINUOUS
 10
59.447998
 20
-81.194343
 11
58.847998
 21
-81.194343
  0
LINE
  8
ボルト／ビス
  6
CONTINUOUS
 10
58.847998
 20
-81.194343
 11
58.847998
 21
-81.227675
  0
LINE
  8
ボルト／ビス
  6
CONTINUOUS
 62
    64
 10
59.308373
 20
-80.994343
 11
59.340447
 21
-81.006017
  0
ARC
  8
ボルト／ビス
  6
CONTINUOUS
 62
    64
 10
59.292333
 20
-81.099323
 40
0.104978
 50
89.999978
 51
117.278011
  0
ARC
  8
ボルト／ビス
  6
CONTINUOUS
 62
    64
 10
59.147996
 20
-81.396746
 40
0.402401
 50
76.164993
 51
103.834976
  0
LINE
  8
ボルト／ビス
  6
CONTINUOUS
 62
    64
 10
58.987623
 20
-80.994343
 11
58.955547
 21
-81.006017
  0
ARC
  8
ボルト／ビス
  6
CONTINUOUS
 62
    64
 10
59.003659
 20
-81.099323
 40
0.104978
 50
62.721945
 51
89.999978
  0
LINE
  8
ボルト／ビス
  6
CONTINUOUS
 62
    64
 10
59.308373
 20
-80.994343
 11
58.987623
 21
-80.994343
  0
LINE
  8
ボルト／ビス
  6
CONTINUOUS
 62
    64
 10
58.955547
 20
-81.006017
 11
58.955547
 21
-81.127675
  0
LINE
  8
ボルト／ビス
  6
CONTINUOUS
 62
    64
 10
59.051772
 20
-81.006017
 11
59.051772
 21
-81.127678
  0
LINE
  8
ボルト／ビス
  6
CONTINUOUS
 62
    64
 10
59.340447
 20
-81.006017
 11
59.340447
 21
-81.127675
  0
LINE
  8
ボルト／ビス
  6
CONTINUOUS
 62
    64
 10
59.244223
 20
-81.006017
 11
59.244223
 21
-81.127675
  0
LINE
  8
ボルト／ビス
  6
CONTINUOUS
 10
59.340447
 20
-81.127675
 11
58.955547
 21
-81.127675
  0
LINE
  8
ボルト／ビス
  6
CONTINUOUS
 10
59.347998
 20
-81.127675
 11
59.347998
 21
-81.194343
  0
LINE
  8
ボルト／ビス
  6
CONTINUOUS
 10
59.347998
 20
-81.127675
 11
58.947998
 21
-81.127675
  0
LINE
  8
ボルト／ビス
  6
CONTINUOUS
 10
58.947998
 20
-81.127675
 11
58.947998
 21
-81.194343
  0
LINE
  8
ボルト／ビス
  6
CONTINUOUS
 62
    64
 10
59.047998
 20
-81.294343
 11
59.047998
 21
-81.294343
  0
ENDBLK
  0
BLOCK
  2
*GRP_0005
 70
    65
 10
0.0
 20
0.0
  0
LINE
  8
ボルト／ビス
  6
CONTINUOUS
 10
-109.218665
 20
-81.294343
 11
-109.218665
 21
-81.227678
  0
LINE
  8
ボルト／ビス
  6
CONTINUOUS
 10
-109.218665
 20
-81.227678
 11
-108.485333
 21
-81.227678
  0
LINE
  8
ボルト／ビス
  6
CONTINUOUS
 10
-108.485333
 20
-81.227678
 11
-108.485333
 21
-81.294343
  0
LINE
  8
ボルト／ビス
  6
CONTINUOUS
 10
-109.218665
 20
-81.294343
 11
-108.485333
 21
-81.294343
  0
LINE
  8
ボルト／ビス
  6
CONTINUOUS
 10
-109.151998
 20
-81.194343
 11
-109.151998
 21
-81.227678
  0
LINE
  8
ボルト／ビス
  6
CONTINUOUS
 10
-109.151998
 20
-81.194343
 11
-108.552
 21
-81.194343
  0
LINE
  8
ボルト／ビス
  6
CONTINUOUS
 10
-108.552
 20
-81.194343
 11
-108.552
 21
-81.227675
  0
LINE
  8
ボルト／ビス
  6
CONTINUOUS
 62
    64
 10
-109.012375
 20
-80.994343
 11
-109.044448
 21
-81.006017
  0
ARC
  8
ボルト／ビス
  6
CONTINUOUS
 62
    64
 10
-108.996335
 20
-81.099323
 40
0.104978
 50
62.721989
 51
90.000022
  0
ARC
  8
ボルト／ビス
  6
CONTINUOUS
 62
    64
 10
-108.851998
 20
-81.396746
 40
0.402401
 50
76.165024
 51
103.835007
  0
LINE
  8
ボルト／ビス
  6
CONTINUOUS
 62
    64
 10
-108.691625
 20
-80.994343
 11
-108.659548
 21
-81.006017
  0
ARC
  8
ボルト／ビス
  6
CONTINUOUS
 62
    64
 10
-108.70766
 20
-81.099323
 40
0.104978
 50
90.000022
 51
117.278055
  0
LINE
  8
ボルト／ビス
  6
CONTINUOUS
 62
    64
 10
-109.012375
 20
-80.994343
 11
-108.691625
 21
-80.994343
  0
LINE
  8
ボルト／ビス
  6
CONTINUOUS
 62
    64
 10
-108.659548
 20
-81.006017
 11
-108.659548
 21
-81.127675
  0
LINE
  8
ボルト／ビス
  6
CONTINUOUS
 62
    64
 10
-108.755775
 20
-81.006017
 11
-108.755775
 21
-81.127678
  0
LINE
  8
ボルト／ビス
  6
CONTINUOUS
 62
    64
 10
-109.044448
 20
-81.006017
 11
-109.044448
 21
-81.127675
  0
LINE
  8
ボルト／ビス
  6
CONTINUOUS
 62
    64
 10
-108.948222
 20
-81.006017
 11
-108.948222
 21
-81.127675
  0
LINE
  8
ボルト／ビス
  6
CONTINUOUS
 10
-109.044448
 20
-81.127675
 11
-108.659548
 21
-81.127675
  0
LINE
  8
ボルト／ビス
  6
CONTINUOUS
 10
-109.051998
 20
-81.127675
 11
-109.051998
 21
-81.194343
  0
LINE
  8
ボルト／ビス
  6
CONTINUOUS
 10
-109.051998
 20
-81.127675
 11
-108.652
 21
-81.127675
  0
LINE
  8
ボルト／ビス
  6
CONTINUOUS
 10
-108.652
 20
-81.127675
 11
-108.652
 21
-81.194343
  0
LINE
  8
ボルト／ビス
  6
CONTINUOUS
 62
    64
 10
-108.752
 20
-81.294343
 11
-108.752
 21
-81.294343
  0
ENDBLK
  0
BLOCK
  2
*DIM_0006
 70
    65
 10
0.0
 20
0.0
  0
LINE
  8
寸法
  6
CONTINUOUS
 10
151.055333
 20
23.314422
 11
151.055333
 21
43.314422
  0
POINT
  8
寸法
 10
151.055333
 20
23.314422
  0
POINT
  8
寸法
 10
151.055333
 20
43.314422
  0
TEXT
  7
TextStyle03
  8
寸法
  6
CONTINUOUS
 10
150.625
 20
22.45
  1
呼称寸法　600
 40
3.0
 50
90.0
 72
     5
 11
150.625
 21
44.2
  0
ENDBLK
  0
BLOCK
  2
*DIM_0007
 70
    65
 10
0.0
 20
0.0
  0
LINE
  8
寸法
  6
CONTINUOUS
 10
171.63993
 20
15.707608
 11
171.63993
 21
7.443285
  0
LINE
  8
寸法
  6
CONTINUOUS
 10
167.923432
 20
18.314422
 11
167.923432
 21
7.443285
  0
LINE
  8
寸法
  6
CONTINUOUS
 10
171.63993
 20
7.443285
 11
167.923432
 21
7.443285
  0
POINT
  8
寸法
 10
171.63993
 20
7.443285
  0
POINT
  8
寸法
 10
167.923432
 20
7.443285
  0
TEXT
  7
TextStyle03
  8
寸法
  6
CONTINUOUS
 10
165.6
 20
4.45
  1
111.5
 40
3.0
 50
360.0
 72
     5
 11
173.85
 21
4.45
  0
ENDBLK
  0
BLOCK
  2
*DIM_0008
 70
    65
 10
0.0
 20
0.0
  0
LINE
  8
寸法
  6
CONTINUOUS
 10
166.13993
 20
45.921237
 11
151.055333
 21
45.921237
  0
LINE
  8
寸法
  6
CONTINUOUS
 10
151.055333
 20
43.314422
 11
151.055333
 21
45.921237
  0
POINT
  8
寸法
 10
151.055333
 20
43.314422
  0
POINT
  8
寸法
 10
151.055333
 20
45.921237
  0
TEXT
  7
TextStyle03
  8
寸法
  6
CONTINUOUS
 10
150.625
 20
48.09375
  1
78.2
 40
3.0
 50
90.0
 72
     5
 11
150.625
 21
54.65625
  0
ENDBLK
  0
BLOCK
  2
*DIM_0009
 70
    65
 10
0.0
 20
0.0
  0
LINE
  8
寸法
  6
CONTINUOUS
 10
166.13993
 20
20.70761
 11
151.055333
 21
20.70761
  0
LINE
  8
寸法
  6
CONTINUOUS
 10
151.055333
 20
23.314422
 11
151.055333
 21
20.70761
  0
POINT
  8
寸法
 10
151.055333
 20
23.314422
  0
POINT
  8
寸法
 10
151.055333
 20
20.70761
  0
TEXT
  7
TextStyle03
  8
寸法
  6
CONTINUOUS
 10
150.625
 20
11.99375
  1
78.2
 40
3.0
 50
90.0
 72
     5
 11
150.625
 21
18.55625
  0
ENDBLK
  0
BLOCK
  2
*DIM_0010
 70
    65
 10
0.0
 20
0.0
  0
LINE
  8
寸法
  6
CONTINUOUS
 10
61.088142
 20
-79.010843
 11
61.088142
 21
-63.926245
  0
LINE
  8
寸法
  6
CONTINUOUS
 10
58.481328
 20
-63.926245
 11
61.088142
 21
-63.926245
  0
POINT
  8
寸法
 10
58.481328
 20
-63.926245
  0
POINT
  8
寸法
 10
61.088142
 20
-63.926245
  0
TEXT
  7
TextStyle03
  8
寸法
  6
CONTINUOUS
 10
63.21875
 20
-63.55
  1
78.2
 40
3.0
 72
     5
 11
69.78125
 21
-63.55
  0
ENDBLK
  0
BLOCK
  2
*DIM_0011
 70
    65
 10
0.0
 20
0.0
  0
LINE
  8
寸法
  6
CONTINUOUS
 10
66.088142
 20
-84.510843
 11
74.352465
 21
-84.510843
  0
LINE
  8
寸法
  6
CONTINUOUS
 10
63.481328
 20
-80.794345
 11
74.352465
 21
-80.794345
  0
LINE
  8
寸法
  6
CONTINUOUS
 10
74.352465
 20
-84.510843
 11
74.352465
 21
-80.794345
  0
POINT
  8
寸法
 10
74.352465
 20
-84.510843
  0
POINT
  8
寸法
 10
74.352465
 20
-80.794345
  0
TEXT
  7
TextStyle03
  8
寸法
  6
CONTINUOUS
 10
77.3
 20
-86.775
  1
111.5
 40
3.0
 50
90.0
 72
     5
 11
77.3
 21
-78.525
  0
ENDBLK
  0
BLOCK
  2
*DIM_0012
 70
    65
 10
0.0
 20
0.0
  0
LINE
  8
寸法
  6
CONTINUOUS
 10
-110.792143
 20
-79.010843
 11
-110.792143
 21
-63.926245
  0
LINE
  8
寸法
  6
CONTINUOUS
 10
-108.18533
 20
-63.926245
 11
-110.792143
 21
-63.926245
  0
POINT
  8
寸法
 10
-108.18533
 20
-63.926245
  0
POINT
  8
寸法
 10
-110.792143
 20
-63.926245
  0
TEXT
  7
TextStyle03
  8
寸法
  6
CONTINUOUS
 10
-119.55625
 20
-63.55
  1
78.2
 40
3.0
 72
     5
 11
-112.99375
 21
-63.55
  0
ENDBLK
  0
BLOCK
  2
*DIM_0013
 70
    65
 10
0.0
 20
0.0
  0
LINE
  8
寸法
  6
CONTINUOUS
 10
58.481328
 20
-63.926245
 11
-108.18533
 21
-63.926245
  0
POINT
  8
寸法
 10
58.481328
 20
-63.926245
  0
POINT
  8
寸法
 10
-108.18533
 20
-63.926245
  0
TEXT
  7
TextStyle03
  8
寸法
  6
CONTINUOUS
 10
-36.61875
 20
-63.55
  1
呼称寸法　5000
 40
3.0
 72
     5
 11
-13.18125
 21
-63.55
  0
ENDBLK
  0
BLOCK
  2
*DIM_0014
 70
    65
 10
0.0
 20
0.0
  0
LINE
  8
寸法
  6
BYBLOCK
 62
     0
 10
-91.51867
 20
19.684293
 11
-91.51867
 21
14.541837
  0
LINE
  8
寸法
  6
BYBLOCK
 62
     0
 10
-24.852002
 20
19.684295
 11
-24.852002
 21
14.541837
  0
LINE
  8
寸法
  6
BYBLOCK
 62
     0
 10
-91.51867
 20
14.541837
 11
-24.852002
 21
14.541837
  0
POINT
  8
寸法
 62
     0
 10
-91.51867
 20
14.541837
  0
POINT
  8
寸法
 62
     0
 10
-24.852002
 20
14.541837
  0
TEXT
  7
TextStyle03
  8
寸法
  6
CONTINUOUS
 62
     0
 10
-61.48125
 20
14.9
  1
2000
 40
3.0
 72
     5
 11
-54.91875
 21
14.9
  0
ENDBLK
  0
BLOCK
  2
*DIM_0015
 70
    65
 10
0.0
 20
0.0
  0
LINE
  8
寸法
  6
BYBLOCK
 62
     0
 10
41.814665
 20
19.684293
 11
41.814665
 21
14.541837
  0
LINE
  8
寸法
  6
BYBLOCK
 62
     0
 10
-24.852002
 20
14.541837
 11
41.814665
 21
14.541837
  0
POINT
  8
寸法
 62
     0
 10
41.814665
 20
14.541837
  0
TEXT
  7
TextStyle03
  8
寸法
  6
CONTINUOUS
 62
     0
 10
5.16875
 20
14.9
  1
2000
 40
3.0
 72
     5
 11
11.73125
 21
14.9
  0
ENDBLK
  0
BLOCK
  2
*DIM_0016
 70
    65
 10
0.0
 20
0.0
  0
LINE
  8
寸法
  6
BYBLOCK
 62
     0
 10
-111.185337
 20
39.98109
 11
-124.478175
 21
39.98109
  0
LINE
  8
寸法
  6
BYBLOCK
 62
     0
 10
-111.185337
 20
26.647755
 11
-124.478175
 21
26.647755
  0
LINE
  8
寸法
  6
BYBLOCK
 62
     0
 10
-124.478175
 20
39.98109
 11
-124.478175
 21
26.647755
  0
POINT
  8
寸法
 62
     0
 10
-124.478175
 20
39.98109
  0
POINT
  8
寸法
 62
     0
 10
-124.478175
 20
26.647755
  0
TEXT
  7
TextStyle03
  8
寸法
  6
CONTINUOUS
 62
     0
 10
-124.875
 20
30.8625
  1
400
 40
3.0
 50
90.0
 72
     5
 11
-124.875
 21
35.7375
  0
ENDBLK
  0
BLOCK
  2
*DIM_0017
 70
    65
 10
0.0
 20
0.0
  0
LINE
  8
寸法
  6
BYBLOCK
 62
     0
 10
-99.852002
 20
46.314422
 11
-99.852002
 21
75.422495
  0
LINE
  8
寸法
  6
BYBLOCK
 62
     0
 10
-74.852002
 20
46.314422
 11
-74.852002
 21
75.422495
  0
LINE
  8
寸法
  6
BYBLOCK
 62
     0
 10
-99.852002
 20
75.422495
 11
-74.852002
 21
75.422495
  0
POINT
  8
寸法
 62
     0
 10
-99.852002
 20
75.422495
  0
POINT
  8
寸法
 62
     0
 10
-74.852002
 20
75.422495
  0
TEXT
  7
TextStyle03
  8
寸法
  6
CONTINUOUS
 62
     0
 10
-89.8375
 20
75.775
  1
750
 40
3.0
 72
     5
 11
-84.9625
 21
75.775
  0
ENDBLK
  0
BLOCK
  2
*DIM_0018
 70
    65
 10
0.0
 20
0.0
  0
LINE
  8
寸法
  6
BYBLOCK
 62
     0
 10
-49.852002
 20
46.314422
 11
-49.852002
 21
75.422495
  0
LINE
  8
寸法
  6
BYBLOCK
 62
     0
 10
-74.852002
 20
75.422495
 11
-49.852002
 21
75.422495
  0
POINT
  8
寸法
 62
     0
 10
-49.852002
 20
75.422495
  0
TEXT
  7
TextStyle03
  8
寸法
  6
CONTINUOUS
 62
     0
 10
-64.8375
 20
75.775
  1
750
 40
3.0
 72
     5
 11
-59.9625
 21
75.775
  0
ENDBLK
  0
BLOCK
  2
*DIM_0019
 70
    65
 10
0.0
 20
0.0
  0
LINE
  8
寸法
  6
BYBLOCK
 62
     0
 10
-24.852002
 20
46.314422
 11
-24.852002
 21
75.422495
  0
LINE
  8
寸法
  6
BYBLOCK
 62
     0
 10
-49.852002
 20
75.422495
 11
-24.852002
 21
75.422495
  0
POINT
  8
寸法
 62
     0
 10
-24.852002
 20
75.422495
  0
TEXT
  7
TextStyle03
  8
寸法
  6
CONTINUOUS
 62
     0
 10
-39.8375
 20
75.775
  1
750
 40
3.0
 72
     5
 11
-34.9625
 21
75.775
  0
ENDBLK
  0
BLOCK
  2
*DIM_0020
 70
    65
 10
0.0
 20
0.0
  0
LINE
  8
寸法
  6
BYBLOCK
 62
     0
 10
0.147998
 20
46.314422
 11
0.147998
 21
75.422495
  0
LINE
  8
寸法
  6
BYBLOCK
 62
     0
 10
-24.852002
 20
75.422495
 11
0.147998
 21
75.422495
  0
POINT
  8
寸法
 62
     0
 10
0.147998
 20
75.422495
  0
TEXT
  7
TextStyle03
  8
寸法
  6
CONTINUOUS
 62
     0
 10
-14.8375
 20
75.775
  1
750
 40
3.0
 72
     5
 11
-9.9625
 21
75.775
  0
ENDBLK
  0
BLOCK
  2
*DIM_0021
 70
    65
 10
0.0
 20
0.0
  0
LINE
  8
寸法
  6
BYBLOCK
 62
     0
 10
25.147998
 20
46.314422
 11
25.147998
 21
75.422495
  0
LINE
  8
寸法
  6
BYBLOCK
 62
     0
 10
0.147998
 20
75.422495
 11
25.147998
 21
75.422495
  0
POINT
  8
寸法
 62
     0
 10
25.147998
 20
75.422495
  0
TEXT
  7
TextStyle03
  8
寸法
  6
CONTINUOUS
 62
     0
 10
10.1625
 20
75.775
  1
750
 40
3.0
 72
     5
 11
15.0375
 21
75.775
  0
ENDBLK
  0
BLOCK
  2
*DIM_0022
 70
    65
 10
0.0
 20
0.0
  0
LINE
  8
寸法
  6
BYBLOCK
 62
     0
 10
50.147998
 20
46.314422
 11
50.147998
 21
75.422495
  0
LINE
  8
寸法
  6
BYBLOCK
 62
     0
 10
25.147998
 20
75.422495
 11
50.147998
 21
75.422495
  0
POINT
  8
寸法
 62
     0
 10
50.147998
 20
75.422495
  0
TEXT
  7
TextStyle03
  8
寸法
  6
CONTINUOUS
 62
     0
 10
35.1625
 20
75.775
  1
750
 40
3.0
 72
     5
 11
40.0375
 21
75.775
  0
ENDBLK
  0
BLOCK
  2
*DIM_0023
 70
    65
 10
0.0
 20
0.0
  0
LINE
  8
寸法
  6
CONTINUOUS
 10
131.003533
 20
-59.648393
 11
131.003533
 21
-47.3523
  0
LINE
  8
寸法
  6
CONTINUOUS
 10
163.216865
 20
-59.648393
 11
163.216865
 21
-47.3523
  0
LINE
  8
寸法
  6
CONTINUOUS
 10
131.003533
 20
-47.3523
 11
163.216865
 21
-47.3523
  0
POINT
  8
寸法
 10
131.003533
 20
-47.3523
  0
POINT
  8
寸法
 10
163.216865
 20
-47.3523
  0
TEXT
  7
TextStyle03
  8
寸法
  6
CONTINUOUS
 10
142.95
 20
-46.975
  1
966.4
 40
3.0
 72
     5
 11
151.2
 21
-46.975
  0
ENDBLK
  0
BLOCK
  2
*DIM_0024
 70
    65
 10
0.0
 20
0.0
  0
LINE
  8
寸法
  6
CONTINUOUS
 10
168.216865
 20
-64.648393
 11
178.981072
 21
-64.648393
  0
LINE
  8
寸法
  6
CONTINUOUS
 10
168.216865
 20
-83.981728
 11
178.981072
 21
-83.981728
  0
LINE
  8
寸法
  6
CONTINUOUS
 10
178.981072
 20
-64.648393
 11
178.981072
 21
-83.981728
  0
POINT
  8
寸法
 10
178.981072
 20
-64.648393
  0
POINT
  8
寸法
 10
178.981072
 20
-83.981728
  0
TEXT
  7
TextStyle03
  8
寸法
  6
CONTINUOUS
 10
178.575
 20
-76.7375
  1
580
 40
3.0
 50
90.0
 72
     5
 11
178.575
 21
-71.8625
  0
ENDBLK
  0
ENDSEC
  0
SECTION
  2
ENTITIES
  0
POLYLINE
  8
通り芯
  6
CONTINUOUS
 66
     1
 70
     1
  0
VERTEX
  8
通り芯
 10
-210.0
 20
-148.5
  0
VERTEX
  8
通り芯
 10
210.0
 20
-148.5
  0
VERTEX
  8
通り芯
 10
210.0
 20
148.5
  0
VERTEX
  8
通り芯
 10
-210.0
 20
148.5
  0
SEQEND
  0
INSERT
  2
*GRP_0001
  8
型材断面
  6
CONTINUOUS
 10
0.0
 20
0.0
  0
LINE
  8
型材断面
  6
CONTINUOUS
 10
172.08993
 20
21.157608
 11
171.63993
 21
21.157608
  0
LINE
  8
型材断面
  6
CONTINUOUS
 62
    47
 10
171.63993
 20
20.707608
 11
171.13993
 21
20.707608
  0
LINE
  8
型材断面
  6
CONTINUOUS
 62
    47
 10
170.344312
 20
23.264423
 11
171.13993
 21
20.707608
  0
LINE
  8
型材断面
  6
CONTINUOUS
 10
171.63993
 20
21.157608
 11
171.63993
 21
20.707608
  0
LINE
  8
型材断面
  6
CONTINUOUS
 10
171.63993
 20
45.921235
 11
171.63993
 21
20.707608
  0
LINE
  8
型材断面
  6
CONTINUOUS
 10
171.13993
 20
45.921235
 11
171.13993
 21
20.707608
  0
LINE
  8
型材断面
  6
CONTINUOUS
 10
172.08993
 20
45.471235
 11
171.63993
 21
45.471235
  0
LINE
  8
型材断面
  6
CONTINUOUS
 62
    47
 10
171.63993
 20
45.921235
 11
171.13993
 21
45.921235
  0
LINE
  8
型材断面
  6
CONTINUOUS
 62
    47
 10
170.344312
 20
43.364423
 11
171.13993
 21
45.921235
  0
LINE
  8
型材断面
  6
CONTINUOUS
 10
171.63993
 20
45.471235
 11
171.63993
 21
45.921235
  0
LINE
  8
型材断面
  6
CONTINUOUS
 10
170.344312
 20
23.264423
 11
170.344312
 21
43.364423
  0
LINE
  8
型材断面
  6
CONTINUOUS
 10
172.08993
 20
21.157608
 11
172.08993
 21
45.471235
  0
LINE
  8
型材断面
  6
CONTINUOUS
 10
169.256765
 20
21.647758
 11
169.256762
 21
21.697758
  0
LINE
  8
型材断面
  6
CONTINUOUS
 10
169.256765
 20
21.647758
 11
168.42343
 21
21.647758
  0
LINE
  8
型材断面
  6
CONTINUOUS
 10
167.923432
 20
23.314422
 11
168.42343
 21
23.314422
  0
LINE
  8
型材断面
  6
CONTINUOUS
 10
168.42343
 20
21.647758
 11
168.42343
 21
23.314422
  0
INSERT
  2
*GRP_0002
  8
型材断面
  6
CONTINUOUS
 10
0.0
 20
0.0
  0
LINE
  8
型材断面
  6
CONTINUOUS
 10
169.256765
 20
44.981085
 11
169.256762
 21
44.931085
  0
LINE
  8
型材断面
  6
CONTINUOUS
 10
169.256765
 20
44.981085
 11
168.42343
 21
44.981085
  0
LINE
  8
型材断面
  6
CONTINUOUS
 10
167.923432
 20
43.314422
 11
168.42343
 21
43.314422
  0
LINE
  8
型材断面
  6
CONTINUOUS
 10
168.42343
 20
44.981085
 11
168.42343
 21
43.314422
  0
INSERT
  2
*GRP_0003
  8
型材断面
  6
CONTINUOUS
 10
0.0
 20
0.0
  0
LINE
  8
型材断面
  6
CONTINUOUS
 10
167.92343
 20
23.314422
 11
167.92343
 21
43.314422
  0
LINE
  8
型材断面
  6
CONTINUOUS
 10
169.256762
 20
21.647758
 11
169.256762
 21
44.981085
  0
LINE
  8
型材断面
  6
CONTINUOUS
 10
168.42343
 20
21.647758
 11
168.42343
 21
44.981085
  0
LINE
  8
型材断面
  6
CONTINUOUS
 10
169.256762
 20
23.264423
 11
170.344312
 21
23.264423
  0
LINE
  8
型材断面
  6
CONTINUOUS
 10
169.256762
 20
43.364423
 11
170.344312
 21
43.364423
  0
LINE
  8
型材断面
  6
DASHDOT
 10
-24.852002
 20
-86.575325
 11
-24.852002
 21
43.314422
  0
LINE
  8
型材断面
  6
CONTINUOUS
 10
60.638142
 20
-84.960843
 11
60.638142
 21
-84.510843
  0
LINE
  8
型材断面
  6
CONTINUOUS
 62
    47
 10
61.088142
 20
-84.510843
 11
61.088142
 21
-84.010843
  0
LINE
  8
型材断面
  6
CONTINUOUS
 62
    47
 10
58.531328
 20
-83.215225
 11
61.088142
 21
-84.010843
  0
LINE
  8
型材断面
  6
CONTINUOUS
 10
60.638142
 20
-84.510843
 11
61.088142
 21
-84.510843
  0
LINE
  8
型材断面
  6
CONTINUOUS
 10
60.147992
 20
-82.127678
 11
60.097992
 21
-82.127675
  0
LINE
  8
型材断面
  6
CONTINUOUS
 10
60.147992
 20
-82.127678
 11
60.147992
 21
-81.294343
  0
LINE
  8
型材断面
  6
CONTINUOUS
 10
58.481328
 20
-80.794345
 11
58.481328
 21
-81.294343
  0
LINE
  8
型材断面
  6
CONTINUOUS
 10
60.147992
 20
-81.294343
 11
58.481328
 21
-81.294343
  0
INSERT
  2
*GRP_0004
  8
型材断面
  6
CONTINUOUS
 10
0.0
 20
0.0
  0
LINE
  8
型材断面
  6
CONTINUOUS
 10
58.531328
 20
-82.127675
 11
58.531328
 21
-83.215225
  0
LINE
  8
型材断面
  6
CONTINUOUS
 10
61.088142
 20
20.707608
 11
61.088142
 21
45.921235
  0
LINE
  8
型材断面
  6
CONTINUOUS
 10
60.147992
 20
21.647758
 11
60.147992
 21
44.981085
  0
LINE
  8
型材断面
  6
DASHDOT
 10
58.481328
 20
-86.575325
 11
58.481328
 21
23.314422
  0
LINE
  8
型材断面
  6
DASHDOT
 10
173.704413
 20
23.314422
 11
58.481328
 21
23.314422
  0
LINE
  8
型材断面
  6
DASHDOT
 10
173.704413
 20
43.314422
 11
58.481328
 21
43.314422
  0
LINE
  8
型材断面
  6
CONTINUOUS
 10
58.481328
 20
23.314422
 11
58.481328
 21
33.314422
  0
LINE
  8
型材断面
  6
CONTINUOUS
 10
58.481328
 20
43.314422
 11
58.481328
 21
33.314422
  0
LINE
  8
型材断面
  6
CONTINUOUS
 10
57.647995
 20
32.897755
 11
58.481328
 21
32.897755
  0
LINE
  8
型材断面
  6
CONTINUOUS
 10
57.647995
 20
33.731087
 11
58.481328
 21
33.731087
  0
LINE
  8
型材断面
  6
CONTINUOUS
 10
57.647995
 20
32.897755
 11
57.647995
 21
24.147755
  0
LINE
  8
型材断面
  6
CONTINUOUS
 10
61.088142
 20
20.707608
 11
57.647995
 21
24.147755
  0
LINE
  8
型材断面
  6
CONTINUOUS
 10
61.088142
 20
45.921235
 11
57.647995
 21
42.48109
  0
LINE
  8
型材断面
  6
CONTINUOUS
 10
57.647995
 20
33.731087
 11
57.647995
 21
42.48109
  0
LINE
  8
型材断面
  6
CONTINUOUS
 10
-110.342143
 20
-84.960843
 11
-110.342143
 21
-84.510843
  0
LINE
  8
型材断面
  6
CONTINUOUS
 62
    47
 10
-110.792143
 20
-84.510843
 11
-110.792143
 21
-84.010843
  0
LINE
  8
型材断面
  6
CONTINUOUS
 62
    47
 10
-108.23533
 20
-83.215225
 11
-110.792143
 21
-84.010843
  0
LINE
  8
型材断面
  6
CONTINUOUS
 10
-110.342143
 20
-84.510843
 11
-110.792143
 21
-84.510843
  0
LINE
  8
型材断面
  6
CONTINUOUS
 10
-109.851992
 20
-82.127678
 11
-109.801992
 21
-82.127675
  0
LINE
  8
型材断面
  6
CONTINUOUS
 10
-109.851992
 20
-82.127678
 11
-109.851992
 21
-81.294343
  0
LINE
  8
型材断面
  6
CONTINUOUS
 10
-108.18533
 20
-80.794345
 11
-108.18533
 21
-81.294343
  0
LINE
  8
型材断面
  6
CONTINUOUS
 10
-109.851992
 20
-81.294343
 11
-108.18533
 21
-81.294343
  0
INSERT
  2
*GRP_0005
  8
型材断面
  6
CONTINUOUS
 10
0.0
 20
0.0
  0
LINE
  8
型材断面
  6
CONTINUOUS
 10
-108.23533
 20
-82.127675
 11
-108.23533
 21
-83.215225
  0
LINE
  8
型材断面
  6
CONTINUOUS
 10
-109.851992
 20
44.981085
 11
-109.851992
 21
21.647758
  0
LINE
  8
型材断面
  6
CONTINUOUS
 10
-110.792143
 20
45.921235
 11
-110.792143
 21
20.707608
  0
LINE
  8
型材断面
  6
DASHDOT
 10
-108.18533
 20
-86.575325
 11
-108.18533
 21
23.314422
  0
LINE
  8
型材断面
  6
DASHDOT
 10
173.704413
 20
33.314422
 11
-108.18533
 21
33.314422
  0
LINE
  8
型材断面
  6
CONTINUOUS
 10
-107.351998
 20
32.897755
 11
-108.18533
 21
32.897755
  0
LINE
  8
型材断面
  6
CONTINUOUS
 10
-107.351998
 20
33.731087
 11
-108.18533
 21
33.731087
  0
LINE
  8
型材断面
  6
CONTINUOUS
 10
-108.18533
 20
23.314422
 11
-108.18533
 21
33.314422
  0
LINE
  8
型材断面
  6
CONTINUOUS
 10
-108.18533
 20
43.314422
 11
-108.18533
 21
33.314422
  0
LINE
  8
型材断面
  6
CONTINUOUS
 10
-107.351998
 20
32.897755
 11
-107.351998
 21
24.147755
  0
LINE
  8
型材断面
  6
CONTINUOUS
 10
-107.351998
 20
33.731087
 11
-107.351998
 21
42.48109
  0
LINE
  8
型材断面
  6
CONTINUOUS
 10
-110.792143
 20
45.921235
 11
-107.351998
 21
42.48109
  0
LINE
  8
型材断面
  6
CONTINUOUS
 10
-110.792143
 20
20.707608
 11
-107.351998
 21
24.147755
  0
LINE
  8
型材断面
  6
CONTINUOUS
 10
-110.792143
 20
-84.510843
 11
61.088142
 21
-84.510843
  0
LINE
  8
型材断面
  6
CONTINUOUS
 10
-110.792143
 20
-84.010843
 11
61.088142
 21
-84.010843
  0
LINE
  8
型材断面
  6
CONTINUOUS
 10
58.531328
 20
-83.215225
 11
-108.23533
 21
-83.215225
  0
LINE
  8
型材断面
  6
CONTINUOUS
 10
60.638142
 20
-84.960843
 11
-110.342143
 21
-84.960843
  0
LINE
  8
型材断面
  6
CONTINUOUS
 10
58.481328
 20
-80.794343
 11
-108.18533
 21
-80.794343
  0
LINE
  8
型材断面
  6
CONTINUOUS
 10
60.147992
 20
-82.127675
 11
-109.851992
 21
-82.127675
  0
LINE
  8
型材断面
  6
CONTINUOUS
 10
60.147992
 20
-81.294343
 11
-109.851992
 21
-81.294343
  0
LINE
  8
型材断面
  6
CONTINUOUS
 10
60.147992
 20
44.981085
 11
-109.851992
 21
44.981085
  0
LINE
  8
型材断面
  6
CONTINUOUS
 10
61.088142
 20
45.921235
 11
-110.792143
 21
45.921235
  0
LINE
  8
型材断面
  6
CONTINUOUS
 10
60.147992
 20
21.647758
 11
-109.851992
 21
21.647758
  0
LINE
  8
型材断面
  6
CONTINUOUS
 10
61.088142
 20
20.707608
 11
-110.792143
 21
20.707608
  0
LINE
  8
型材断面
  6
CONTINUOUS
 10
58.481328
 20
23.314422
 11
-108.18533
 21
23.314422
  0
LINE
  8
型材断面
  6
CONTINUOUS
 10
58.481328
 20
43.314422
 11
-108.18533
 21
43.314422
  0
LINE
  8
型材断面
  6
CONTINUOUS
 10
-91.51867
 20
45.944552
 11
-93.0143
 21
48.53506
  0
LINE
  8
型材断面
  6
CONTINUOUS
 10
-91.51867
 20
45.944552
 11
-90.02304
 21
48.53506
  0
LINE
  8
型材断面
  6
CONTINUOUS
 10
-90.02304
 20
48.53506
 11
-93.0143
 21
48.53506
  0
LINE
  8
型材断面
  6
CONTINUOUS
 10
-149.037545
 20
87.82177
 11
-150.533175
 21
85.231263
  0
LINE
  8
型材断面
  6
CONTINUOUS
 10
-149.037545
 20
87.82177
 11
-147.541915
 21
85.231263
  0
LINE
  8
型材断面
  6
CONTINUOUS
 10
-147.541915
 20
85.231263
 11
-150.533175
 21
85.231263
  0
LINE
  8
型材断面
  6
CONTINUOUS
 10
-155.060132
 20
84.292668
 11
-108.818355
 21
84.292668
  0
LINE
  8
型材断面
  6
CONTINUOUS
 10
-110.815467
 20
33.314422
 11
-113.405975
 21
34.810052
  0
LINE
  8
型材断面
  6
CONTINUOUS
 10
-110.815467
 20
33.314422
 11
-113.405975
 21
31.818793
  0
LINE
  8
型材断面
  6
CONTINUOUS
 10
-113.405975
 20
31.818793
 11
-113.405975
 21
34.810052
  0
LINE
  8
型材断面
  6
CONTINUOUS
 10
-91.51867
 20
20.684293
 11
-93.0143
 21
18.093785
  0
LINE
  8
型材断面
  6
CONTINUOUS
 10
-91.51867
 20
20.684293
 11
-90.02304
 21
18.093785
  0
LINE
  8
型材断面
  6
CONTINUOUS
 10
-90.02304
 20
18.093785
 11
-93.0143
 21
18.093785
  0
LINE
  8
型材断面
  6
CONTINUOUS
 10
41.814665
 20
45.944552
 11
43.310295
 21
48.53506
  0
LINE
  8
型材断面
  6
CONTINUOUS
 10
41.814665
 20
45.944552
 11
40.319035
 21
48.53506
  0
LINE
  8
型材断面
  6
CONTINUOUS
 10
40.319035
 20
48.53506
 11
43.310295
 21
48.53506
  0
LINE
  8
型材断面
  6
CONTINUOUS
 10
61.111463
 20
33.314422
 11
63.70197
 21
34.810052
  0
LINE
  8
型材断面
  6
CONTINUOUS
 10
61.111463
 20
33.314422
 11
63.70197
 21
31.818793
  0
LINE
  8
型材断面
  6
CONTINUOUS
 10
63.70197
 20
31.818793
 11
63.70197
 21
34.810052
  0
LINE
  8
型材断面
  6
CONTINUOUS
 10
41.814665
 20
20.684293
 11
43.310295
 21
18.093785
  0
LINE
  8
型材断面
  6
CONTINUOUS
 10
41.814665
 20
20.684293
 11
40.319035
 21
18.093785
  0
LINE
  8
型材断面
  6
CONTINUOUS
 10
40.319035
 20
18.093785
 11
43.310295
 21
18.093785
  0
LINE
  8
型材断面
  6
CONTINUOUS
 10
-24.852002
 20
45.94455
 11
-23.356372
 21
48.535058
  0
LINE
  8
型材断面
  6
CONTINUOUS
 10
-24.852002
 20
45.94455
 11
-26.347632
 21
48.535058
  0
LINE
  8
型材断面
  6
CONTINUOUS
 10
-26.347632
 20
48.535058
 11
-23.356372
 21
48.535058
  0
LINE
  8
型材断面
  6
CONTINUOUS
 10
-24.852002
 20
20.68429
 11
-23.356372
 21
18.093783
  0
LINE
  8
型材断面
  6
CONTINUOUS
 10
-24.852002
 20
20.68429
 11
-26.347632
 21
18.093783
  0
LINE
  8
型材断面
  6
CONTINUOUS
 10
-26.347632
 20
18.093783
 11
-23.356372
 21
18.093783
  0
LINE
  8
型材断面
  6
CONTINUOUS
 10
-155.060132
 20
78.99565
 11
-108.818355
 21
78.99565
  0
LINE
  8
型材断面
  6
CONTINUOUS
 10
-25.26867
 20
24.147755
 11
-25.26867
 21
23.314422
  0
LINE
  8
型材断面
  6
CONTINUOUS
 10
-24.435335
 20
24.147755
 11
-24.435335
 21
23.314422
  0
LINE
  8
型材断面
  6
DASHDOT
 10
-75.021997
 20
23.314422
 11
-75.021997
 21
43.314422
  0
LINE
  8
型材断面
  6
CONTINUOUS
 10
-76.10533
 20
24.981087
 11
-76.10533
 21
41.647758
  0
LINE
  8
型材断面
  6
CONTINUOUS
 10
-73.938698
 20
24.971393
 11
-73.938698
 21
41.638062
  0
LINE
  8
型材断面
  6
CONTINUOUS
 10
-75.271997
 20
24.981087
 11
-75.271997
 21
41.647758
  0
LINE
  8
型材断面
  6
CONTINUOUS
 10
-74.77203
 20
24.981087
 11
-74.77203
 21
41.647758
  0
LINE
  8
型材断面
  6
CONTINUOUS
 10
-76.10533
 20
24.981087
 11
-73.938698
 21
24.981087
  0
LINE
  8
型材断面
  6
CONTINUOUS
 10
-76.10533
 20
41.647758
 11
-73.938698
 21
41.647758
  0
LINE
  8
型材断面
  6
DASHDOT
 10
-41.57533
 20
23.314422
 11
-41.57533
 21
43.314422
  0
LINE
  8
型材断面
  6
CONTINUOUS
 10
-42.658662
 20
24.981087
 11
-42.658662
 21
41.647758
  0
LINE
  8
型材断面
  6
CONTINUOUS
 10
-40.49203
 20
24.971393
 11
-40.49203
 21
41.638062
  0
LINE
  8
型材断面
  6
CONTINUOUS
 10
-41.82533
 20
24.981087
 11
-41.82533
 21
41.647758
  0
LINE
  8
型材断面
  6
CONTINUOUS
 10
-41.325363
 20
24.981087
 11
-41.325363
 21
41.647758
  0
LINE
  8
型材断面
  6
CONTINUOUS
 10
-42.658662
 20
24.981087
 11
-40.49203
 21
24.981087
  0
LINE
  8
型材断面
  6
CONTINUOUS
 10
-42.658662
 20
41.647758
 11
-40.49203
 21
41.647758
  0
LINE
  8
型材断面
  6
DASHDOT
 10
25.317993
 20
23.314422
 11
25.317993
 21
43.314422
  0
LINE
  8
型材断面
  6
CONTINUOUS
 10
26.401325
 20
24.981087
 11
26.401325
 21
41.647758
  0
LINE
  8
型材断面
  6
CONTINUOUS
 10
24.234692
 20
24.971393
 11
24.234692
 21
41.638062
  0
LINE
  8
型材断面
  6
CONTINUOUS
 10
25.567993
 20
24.981087
 11
25.567993
 21
41.647758
  0
LINE
  8
型材断面
  6
CONTINUOUS
 10
25.068025
 20
24.981087
 11
25.068025
 21
41.647758
  0
LINE
  8
型材断面
  6
CONTINUOUS
 10
26.401325
 20
24.981087
 11
24.234692
 21
24.981087
  0
LINE
  8
型材断面
  6
CONTINUOUS
 10
26.401325
 20
41.647758
 11
24.234692
 21
41.647758
  0
LINE
  8
型材断面
  6
DASHDOT
 10
-8.128675
 20
23.314422
 11
-8.128675
 21
43.314422
  0
LINE
  8
型材断面
  6
CONTINUOUS
 10
-7.045342
 20
24.981087
 11
-7.045342
 21
41.647758
  0
LINE
  8
型材断面
  6
CONTINUOUS
 10
-9.211975
 20
24.971393
 11
-9.211975
 21
41.638062
  0
LINE
  8
型材断面
  6
CONTINUOUS
 10
-7.878675
 20
24.981087
 11
-7.878675
 21
41.647758
  0
LINE
  8
型材断面
  6
CONTINUOUS
 10
-8.378643
 20
24.981087
 11
-8.378643
 21
41.647758
  0
LINE
  8
型材断面
  6
CONTINUOUS
 10
-7.045342
 20
24.981087
 11
-9.211975
 21
24.981087
  0
LINE
  8
型材断面
  6
CONTINUOUS
 10
-7.045342
 20
41.647758
 11
-9.211975
 21
41.647758
  0
LINE
  8
型材断面
  6
CONTINUOUS
 10
41.482993
 20
23.314422
 11
41.482993
 21
24.147755
  0
LINE
  8
型材断面
  6
CONTINUOUS
 10
42.316328
 20
23.314422
 11
42.316328
 21
24.147755
  0
LINE
  8
型材断面
  6
CONTINUOUS
 10
57.647992
 20
24.147755
 11
42.316328
 21
24.147755
  0
LINE
  8
型材断面
  6
CONTINUOUS
 10
9.011327
 20
24.147755
 11
9.011327
 21
23.314422
  0
LINE
  8
型材断面
  6
CONTINUOUS
 10
8.177993
 20
24.147755
 11
8.177993
 21
23.314422
  0
LINE
  8
型材断面
  6
CONTINUOUS
 10
41.482993
 20
24.147755
 11
9.011327
 21
24.147755
  0
LINE
  8
型材断面
  6
CONTINUOUS
 10
-24.435335
 20
24.147755
 11
8.177993
 21
24.147755
  0
LINE
  8
型材断面
  6
CONTINUOUS
 10
-91.186997
 20
23.314422
 11
-91.186997
 21
24.147755
  0
LINE
  8
型材断面
  6
CONTINUOUS
 10
-92.020333
 20
23.314422
 11
-92.020333
 21
24.147755
  0
LINE
  8
型材断面
  6
CONTINUOUS
 10
-107.351998
 20
24.147755
 11
-92.020333
 21
24.147755
  0
LINE
  8
型材断面
  6
CONTINUOUS
 10
-58.715333
 20
24.147755
 11
-58.715333
 21
23.314422
  0
LINE
  8
型材断面
  6
CONTINUOUS
 10
-57.881998
 20
24.147755
 11
-57.881998
 21
23.314422
  0
LINE
  8
型材断面
  6
CONTINUOUS
 10
-91.186997
 20
24.147755
 11
-58.715333
 21
24.147755
  0
LINE
  8
型材断面
  6
CONTINUOUS
 10
-25.26867
 20
24.147755
 11
-57.881998
 21
24.147755
  0
LINE
  8
型材断面
  6
CONTINUOUS
 10
-25.26867
 20
42.48109
 11
-25.26867
 21
43.314422
  0
LINE
  8
型材断面
  6
CONTINUOUS
 10
-24.435335
 20
42.48109
 11
-24.435335
 21
43.314422
  0
LINE
  8
型材断面
  6
CONTINUOUS
 10
41.482993
 20
43.314422
 11
41.482993
 21
42.48109
  0
LINE
  8
型材断面
  6
CONTINUOUS
 10
42.316328
 20
43.314422
 11
42.316328
 21
42.48109
  0
LINE
  8
型材断面
  6
CONTINUOUS
 10
57.647992
 20
42.48109
 11
42.316328
 21
42.48109
  0
LINE
  8
型材断面
  6
CONTINUOUS
 10
9.011327
 20
42.48109
 11
9.011327
 21
43.314422
  0
LINE
  8
型材断面
  6
CONTINUOUS
 10
8.177993
 20
42.48109
 11
8.177993
 21
43.314422
  0
LINE
  8
型材断面
  6
CONTINUOUS
 10
41.482993
 20
42.48109
 11
9.011327
 21
42.48109
  0
LINE
  8
型材断面
  6
CONTINUOUS
 10
-24.435335
 20
42.48109
 11
8.177993
 21
42.48109
  0
LINE
  8
型材断面
  6
CONTINUOUS
 10
-91.186997
 20
43.314422
 11
-91.186997
 21
42.48109
  0
LINE
  8
型材断面
  6
CONTINUOUS
 10
-92.020333
 20
43.314422
 11
-92.020333
 21
42.48109
  0
LINE
  8
型材断面
  6
CONTINUOUS
 10
-107.351998
 20
42.48109
 11
-92.020333
 21
42.48109
  0
LINE
  8
型材断面
  6
CONTINUOUS
 10
-58.715333
 20
42.48109
 11
-58.715333
 21
43.314422
  0
LINE
  8
型材断面
  6
CONTINUOUS
 10
-57.881998
 20
42.48109
 11
-57.881998
 21
43.314422
  0
LINE
  8
型材断面
  6
CONTINUOUS
 10
-91.186997
 20
42.48109
 11
-58.715333
 21
42.48109
  0
LINE
  8
型材断面
  6
CONTINUOUS
 10
-25.26867
 20
42.48109
 11
-57.881998
 21
42.48109
  0
LINE
  8
型材断面
  6
CONTINUOUS
 10
130.149592
 20
-41.882545
 11
151.287168
 21
-41.882545
  0
POLYLINE
  8
ガラス
  6
CONTINUOUS
 66
     1
 70
     1
  0
VERTEX
  8
ガラス
 10
163.216865
 20
-64.648393
  0
VERTEX
  8
ガラス
 10
131.003533
 20
-64.648393
  0
VERTEX
  8
ガラス
 10
131.003533
 20
-83.981728
  0
VERTEX
  8
ガラス
 10
163.216865
 20
-83.981728
  0
SEQEND
  0
TEXT
  7
TextStyle03
  8
文字
  6
CONTINUOUS
 10
78.1
 20
125.25
  1
シリーズ：ＳＴＦＦＫＬ
 40
5.0
 72
     5
 11
139.35
 21
125.25
  0
TEXT
  7
TextStyle03
  8
文字
  6
CONTINUOUS
 10
78.1
 20
119.625
  1
　　　　　（固定）600×5000タイプ
 40
5.0
 72
     5
 11
170.2875
 21
119.625
  0
TEXT
  7
TextStyle03
  8
文字
  6
CONTINUOUS
 10
78.1
 20
114.0
  1
図面名　：外観姿図
 40
5.0
 72
     5
 11
128.1
 21
114.0
  0
TEXT
  7
TextStyle03
  8
文字
  6
CONTINUOUS
 10
78.1
 20
108.375
  1
　　　　　　
 40
5.0
 72
     5
 11
111.225
 21
108.375
  0
TEXT
  7
TextStyle03
  8
文字
  6
CONTINUOUS
 10
-146.2
 20
85.45
  1
は排水穴位置を示す
 40
3.0
 72
     5
 11
-116.2
 21
85.45
  0
TEXT
  7
TextStyle03
  8
文字
  6
CONTINUOUS
 10
-129.225
 20
11.775
  1
アンカーピッチ
 40
3.0
 50
90.0
 72
     5
 11
-129.225
 21
35.025
  0
TEXT
  7
TextStyle03
  8
文字
  6
CONTINUOUS
 10
-97.475
 20
80.75
  1
アンカーピッチ
 40
3.0
 72
     5
 11
-74.225
 21
80.75
  0
TEXT
  7
TextStyle03
  8
文字
  6
CONTINUOUS
 10
-149.925
 20
79.925
  1
アンカー数量　１８ヶ所
 40
3.0
 72
     5
 11
-113.175
 21
79.925
  0
TEXT
  7
TextStyle03
  8
文字
  6
CONTINUOUS
 10
150.6
 20
-81.875
  1
×５枚
 40
3.0
 72
     5
 11
160.35
 21
-81.875
  0
TEXT
  7
TextStyle03
  8
文字
  6
CONTINUOUS
 10
132.225
 20
-40.4
  1
ガラス寸法
 40
3.0
 72
     5
 11
148.725
 21
-40.4
  0
INSERT
  2
*DIM_0006
  8
寸法
  6
CONTINUOUS
 10
0.0
 20
0.0
  0
INSERT
  2
*DIM_0007
  8
寸法
  6
CONTINUOUS
 10
0.0
 20
0.0
  0
INSERT
  2
*DIM_0008
  8
寸法
  6
CONTINUOUS
 10
0.0
 20
0.0
  0
INSERT
  2
*DIM_0009
  8
寸法
  6
CONTINUOUS
 10
0.0
 20
0.0
  0
INSERT
  2
*DIM_0010
  8
寸法
  6
CONTINUOUS
 10
0.0
 20
0.0
  0
INSERT
  2
*DIM_0011
  8
寸法
  6
CONTINUOUS
 10
0.0
 20
0.0
  0
INSERT
  2
*DIM_0012
  8
寸法
  6
CONTINUOUS
 10
0.0
 20
0.0
  0
INSERT
  2
*DIM_0013
  8
寸法
  6
CONTINUOUS
 10
0.0
 20
0.0
  0
INSERT
  2
*DIM_0014
  8
寸法
  6
CONTINUOUS
 10
0.0
 20
0.0
  0
INSERT
  2
*DIM_0015
  8
寸法
  6
CONTINUOUS
 10
0.0
 20
0.0
  0
INSERT
  2
*DIM_0016
  8
寸法
  6
CONTINUOUS
 10
0.0
 20
0.0
  0
INSERT
  2
*DIM_0017
  8
寸法
  6
CONTINUOUS
 10
0.0
 20
0.0
  0
INSERT
  2
*DIM_0018
  8
寸法
  6
CONTINUOUS
 10
0.0
 20
0.0
  0
INSERT
  2
*DIM_0019
  8
寸法
  6
CONTINUOUS
 10
0.0
 20
0.0
  0
INSERT
  2
*DIM_0020
  8
寸法
  6
CONTINUOUS
 10
0.0
 20
0.0
  0
INSERT
  2
*DIM_0021
  8
寸法
  6
CONTINUOUS
 10
0.0
 20
0.0
  0
INSERT
  2
*DIM_0022
  8
寸法
  6
CONTINUOUS
 10
0.0
 20
0.0
  0
INSERT
  2
*DIM_0023
  8
寸法
  6
CONTINUOUS
 10
0.0
 20
0.0
  0
INSERT
  2
*DIM_0024
  8
寸法
  6
CONTINUOUS
 10
0.0
 20
0.0
  0
LINE
  8
曲げ物
  6
CONTINUOUS
 10
-23.049245
 20
35.11718
 11
-26.744557
 21
31.421868
  0
LINE
  8
曲げ物
  6
CONTINUOUS
 10
-23.752715
 20
33.58107
 11
-25.208445
 21
32.12534
  0
LINE
  8
曲げ物
  6
CONTINUOUS
 10
-24.585355
 20
34.41371
 11
-26.041085
 21
32.95798
  0
LINE
  8
曲げ物
  6
CONTINUOUS
 10
10.29743
 20
35.11718
 11
6.602117
 21
31.421868
  0
LINE
  8
曲げ物
  6
CONTINUOUS
 10
9.59396
 20
33.58107
 11
8.13823
 21
32.12534
  0
LINE
  8
曲げ物
  6
CONTINUOUS
 10
8.76132
 20
34.41371
 11
7.30559
 21
32.95798
  0
LINE
  8
曲げ物
  6
CONTINUOUS
 10
43.677427
 20
35.11718
 11
39.982115
 21
31.421868
  0
LINE
  8
曲げ物
  6
CONTINUOUS
 10
42.973957
 20
33.58107
 11
41.518227
 21
32.12534
  0
LINE
  8
曲げ物
  6
CONTINUOUS
 10
42.141317
 20
34.41371
 11
40.685587
 21
32.95798
  0
LINE
  8
曲げ物
  6
CONTINUOUS
 10
-89.775918
 20
35.11718
 11
-93.47123
 21
31.421868
  0
LINE
  8
曲げ物
  6
CONTINUOUS
 10
-90.479388
 20
33.58107
 11
-91.935117
 21
32.12534
  0
LINE
  8
曲げ物
  6
CONTINUOUS
 10
-91.312028
 20
34.41371
 11
-92.767757
 21
32.95798
  0
LINE
  8
曲げ物
  6
CONTINUOUS
 10
-56.429242
 20
35.11718
 11
-60.124555
 21
31.421868
  0
LINE
  8
曲げ物
  6
CONTINUOUS
 10
-57.132712
 20
33.58107
 11
-58.588443
 21
32.12534
  0
LINE
  8
曲げ物
  6
CONTINUOUS
 10
-57.965352
 20
34.41371
 11
-59.421083
 21
32.95798
  0
LINE
  8
曲げ物
  6
CONTINUOUS
 10
-23.049245
 20
35.11718
 11
-26.744557
 21
31.421868
  0
LINE
  8
曲げ物
  6
CONTINUOUS
 10
-23.752715
 20
33.58107
 11
-25.208445
 21
32.12534
  0
LINE
  8
曲げ物
  6
CONTINUOUS
 10
-24.585355
 20
34.41371
 11
-26.041085
 21
32.95798
  0
LINE
  8
St
  6
CONTINUOUS
 62
    47
 10
171.63993
 20
21.157608
 11
171.63993
 21
20.707608
  0
LINE
  8
St
  6
CONTINUOUS
 62
    47
 10
171.63993
 20
45.471235
 11
171.63993
 21
45.921235
  0
LINE
  8
St
  6
CONTINUOUS
 62
    47
 10
60.638142
 20
-84.510843
 11
61.088142
 21
-84.510843
  0
LINE
  8
St
  6
CONTINUOUS
 62
    47
 10
-110.342143
 20
-84.510843
 11
-110.792143
 21
-84.510843
  0
ENDSEC
  0
EOF
