  0
SECTION
  2
HEADER
  9
$EXTMIN
 10
-210.0
 20
-148.5
  9
$EXTMAX
 10
210.0
 20
148.5
  9
$PDMODE
 70
    32
  9
$PDSIZE
 40
1.5
  9
$LTSCALE
 40
10.0
  0
ENDSEC
  0
SECTION
  2
TABLES
  0
TABLE
  2
LTYPE
 70
    15
  0
LTYPE
  2
CONTINUOUS
 70
    64
  3
実線
 72
    65
 73
     0
 40
0.0
  0
LTYPE
  2
DASHED
 70
    64
  3
破線A
 72
    65
 73
     2
 40
0.6
 49
0.4
 49
-0.2
  0
LTYPE
  2
DASHEDX2
 70
    64
  3
破線B
 72
    65
 73
     2
 40
1.3
 49
0.9
 49
-0.4
  0
LTYPE
  2
DASHDOT
 70
    64
  3
１点鎖線A
 72
    65
 73
     4
 40
0.5375
 49
0.375
 49
-0.05
 49
0.0625
 49
-0.05
  0
LTYPE
  2
DASHDOTX2
 70
    64
  3
１点鎖線B
 72
    65
 73
     4
 40
1.075
 49
0.75
 49
-0.1
 49
0.125
 49
-0.1
  0
LTYPE
  2
DIVIDE2
 70
    64
  3
２点鎖線A
 72
    65
 73
     6
 40
0.5125
 49
0.3
 49
-0.0375
 49
0.05
 49
-0.0375
 49
0.05
 49
-0.0375
  0
LTYPE
  2
DIVIDE
 70
    64
  3
２点鎖線B
 72
    65
 73
     6
 40
1.05
 49
0.55
 49
-0.1
 49
0.1
 49
-0.1
 49
0.1
 49
-0.1
  0
LTYPE
  2
DOT
 70
    64
  3
点線A
 72
    65
 73
     2
 40
0.1125
 49
0.0625
 49
-0.05
  0
LTYPE
  2
DOTX2
 70
    64
  3
点線B
 72
    65
 73
     2
 40
0.275
 49
0.15
 49
-0.125
  0
LTYPE
  2
CONTINUOUS
 70
    64
  3
実線
 72
    65
 73
     0
 40
0.0
  0
LTYPE
  2
CONTINUOUS
 70
    64
  3
実線
 72
    65
 73
     0
 40
0.0
  0
LTYPE
  2
CONTINUOUS
 70
    64
  3
実線
 72
    65
 73
     0
 40
0.0
  0
LTYPE
  2
CONTINUOUS
 70
    64
  3
実線
 72
    65
 73
     0
 40
0.0
  0
LTYPE
  2
CONTINUOUS
 70
    64
  3
実線
 72
    65
 73
     0
 40
0.0
  0
LTYPE
  2
CONTINUOUS
 70
    64
  3
実線
 72
    65
 73
     0
 40
0.0
  0
ENDTAB
  0
TABLE
  2
LAYER
 70
    34
  0
LAYER
  2
通り芯
 70
     0
 62
    15
  6
CONTINUOUS
  0
LAYER
  2
補助線
 70
     0
 62
    16
  6
DOT
  0
LAYER
  2
躯体
 70
     0
 62
    31
  6
CONTINUOUS
  0
LAYER
  2
型材
 70
     0
 62
    32
  6
CONTINUOUS
  0
LAYER
  2
型材断面
 70
     0
 62
    47
  6
CONTINUOUS
  0
LAYER
  2
ガラス
 70
     0
 62
    48
  6
CONTINUOUS
  0
LAYER
  2
ゴム等
 70
     0
 62
    63
  6
CONTINUOUS
  0
LAYER
  2
ボルト／ビス
 70
     0
 62
    64
  6
CONTINUOUS
  0
LAYER
  2
文字
 70
     0
 62
    79
  6
CONTINUOUS
  0
LAYER
  2
寸法
 70
     0
 62
    80
  6
CONTINUOUS
  0
LAYER
  2
ﾊｯﾁﾝｸﾞ
 70
     0
 62
    95
  6
CONTINUOUS
  0
LAYER
  2
別途部材
 70
     0
 62
    96
  6
CONTINUOUS
  0
LAYER
  2
曲げ物
 70
     0
 62
   111
  6
CONTINUOUS
  0
LAYER
  2
鉄骨等
 70
     0
 62
   112
  6
CONTINUOUS
  0
LAYER
  2
St
 70
     0
 62
   127
  6
CONTINUOUS
  0
LAYER
  2
その他部品等
 70
     0
 62
   128
  6
CONTINUOUS
  0
LAYER
  2
ｶﾞｽｹｯﾄ
 70
     0
 62
   143
  6
CONTINUOUS
  0
LAYER
  2
ｽｹｯﾁ
 70
     0
 62
    14
  6
CONTINUOUS
  0
LAYER
  2
0
 70
     0
 62
    17
  6
CONTINUOUS
  0
LAYER
  2
1
 70
     0
 62
    30
  6
CONTINUOUS
  0
LAYER
  2
4
 70
     0
 62
    33
  6
CONTINUOUS
  0
LAYER
  2
ﾚｲﾔ3
 70
     0
 62
    46
  6
CONTINUOUS
  0
LAYER
  2
外形線
 70
     0
 62
    49
  6
CONTINUOUS
  0
LAYER
  2
部品
 70
     0
 62
    14
  6
CONTINUOUS
  0
LAYER
  2
サッシ芯
 70
     0
 62
    17
  6
DASHDOTX2
  0
LAYER
  2
寸法線
 70
     0
 62
    62
  6
CONTINUOUS
  0
LAYER
  2
姿図外形線
 70
     0
 62
    65
  6
CONTINUOUS
  0
LAYER
  2
姿補助線
 70
     0
 62
    30
  6
CONTINUOUS
  0
LAYER
  2
透視線
 70
     0
 62
    78
  6
DOT
  0
LAYER
  2
用紙
 70
     0
 62
    81
  6
CONTINUOUS
  0
LAYER
  2
実線図枠
 70
     0
 62
    94
  6
CONTINUOUS
  0
LAYER
  2
補助図枠
 70
     0
 62
    97
  6
CONTINUOUS
  0
LAYER
  2
建具記号
 70
     0
 62
   110
  6
CONTINUOUS
  0
LAYER
  2
補助文字
 70
     0
 62
   113
  6
CONTINUOUS
  0
ENDTAB
  0
TABLE
  2
STYLE
 70
    10
  0
STYLE
  2
STANDARD
 70
     0
 40
1.0
 41
1.0
 42
1.0
 50
0.0
 71
     0
  3
TXT
  4
BIGFONT
  0
STYLE
  2
TATE
 70
     4
 40
1.0
 41
1.0
 42
1.0
 50
0.0
 71
     0
  3
TXT
  4
BIGFONT
  0
STYLE
  2
TextStyle03
 70
     0
 40
1.0
 41
1.0
 42
1.0
 50
0.0
 71
     0
  3
MONOTXT
  4
BIGFONT
  0
STYLE
  2
TextStyle04
 70
     0
 40
1.0
 41
1.0
 42
1.0
 50
0.0
 71
     0
  3
MONOTXT
  4
BIGFONT
  0
STYLE
  2
TextStyle05
 70
     0
 40
1.0
 41
1.0
 42
1.0
 50
0.0
 71
     0
  3
MONOTXT
  4
BIGFONT
  0
STYLE
  2
TextStyle06
 70
     0
 40
1.0
 41
1.0
 42
1.0
 50
0.0
 71
     0
  3
MONOTXT
  4
BIGFONT
  0
STYLE
  2
TextStyle07
 70
     0
 40
1.0
 41
1.0
 42
1.0
 50
0.0
 71
     0
  3
MONOTXT
  4
BIGFONT
  0
STYLE
  2
TextStyle08
 70
     0
 40
1.0
 41
1.0
 42
1.0
 50
0.0
 71
     0
  3
MONOTXT
  4
BIGFONT
  0
STYLE
  2
TextStyle09
 70
     0
 40
1.0
 41
1.0
 42
1.0
 50
0.0
 71
     0
  3
MONOTXT
  4
BIGFONT
  0
STYLE
  2
TextStyle10
 70
     0
 40
1.0
 41
1.0
 42
1.0
 50
0.0
 71
     0
  3
MONOTXT
  4
BIGFONT
  0
ENDTAB
  0
ENDSEC
  0
SECTION
  2
BLOCKS
  0
BLOCK
  2
*GRP_0001
 70
    65
 10
0.0
 20
0.0
  0
LINE
  8
型材断面
  6
CONTINUOUS
 10
195.0
 20
133.5
 11
195.0
 21
-133.5
  0
LINE
  8
型材断面
  6
CONTINUOUS
 10
195.0
 20
-133.5
 11
-185.0
 21
-133.5
  0
LINE
  8
型材断面
  6
CONTINUOUS
 10
-185.0
 20
-133.5
 11
-185.0
 21
133.5
  0
LINE
  8
型材断面
  6
CONTINUOUS
 10
195.0
 20
133.5
 11
-185.0
 21
133.5
  0
LINE
  8
型材断面
  6
CONTINUOUS
 10
145.0
 20
-133.5
 11
145.0
 21
-118.5
  0
LINE
  8
型材断面
  6
CONTINUOUS
 10
195.0
 20
-118.5
 11
145.0
 21
-118.5
  0
ENDBLK
  0
BLOCK
  2
*GRP_0002
 70
    65
 10
0.0
 20
0.0
  0
LINE
  8
ボルト／ビス
  6
CONTINUOUS
 10
168.42343
 20
10.61442
 11
168.356765
 21
10.61442
  0
LINE
  8
ボルト／ビス
  6
CONTINUOUS
 10
168.356765
 20
10.61442
 11
168.356765
 21
11.34775
  0
LINE
  8
ボルト／ビス
  6
CONTINUOUS
 10
168.356765
 20
11.34775
 11
168.42343
 21
11.34775
  0
LINE
  8
ボルト／ビス
  6
CONTINUOUS
 10
168.42343
 20
10.61442
 11
168.42343
 21
11.34775
  0
LINE
  8
ボルト／ビス
  6
CONTINUOUS
 10
168.32343
 20
10.681085
 11
168.356765
 21
10.681085
  0
LINE
  8
ボルト／ビス
  6
CONTINUOUS
 10
168.32343
 20
10.681085
 11
168.32343
 21
11.281085
  0
LINE
  8
ボルト／ビス
  6
CONTINUOUS
 10
168.32343
 20
11.281085
 11
168.356762
 21
11.281085
  0
LINE
  8
ボルト／ビス
  6
CONTINUOUS
 62
    64
 10
168.12343
 20
10.82071
 11
168.135105
 21
10.788635
  0
ARC
  8
ボルト／ビス
  6
CONTINUOUS
 62
    64
 10
168.22841
 20
10.836748
 40
0.104978
 50
152.721989
 51
180.000022
  0
ARC
  8
ボルト／ビス
  6
CONTINUOUS
 62
    64
 10
168.525833
 20
10.981086
 40
0.402401
 50
166.165024
 51
193.835007
  0
LINE
  8
ボルト／ビス
  6
CONTINUOUS
 62
    64
 10
168.12343
 20
11.14146
 11
168.135105
 21
11.173535
  0
ARC
  8
ボルト／ビス
  6
CONTINUOUS
 62
    64
 10
168.22841
 20
11.125423
 40
0.104978
 50
180.000022
 51
207.278055
  0
LINE
  8
ボルト／ビス
  6
CONTINUOUS
 62
    64
 10
168.12343
 20
10.82071
 11
168.12343
 21
11.14146
  0
LINE
  8
ボルト／ビス
  6
CONTINUOUS
 62
    64
 10
168.135105
 20
11.173535
 11
168.256762
 21
11.173535
  0
LINE
  8
ボルト／ビス
  6
CONTINUOUS
 62
    64
 10
168.135105
 20
11.07731
 11
168.256765
 21
11.07731
  0
LINE
  8
ボルト／ビス
  6
CONTINUOUS
 62
    64
 10
168.135105
 20
10.788635
 11
168.256762
 21
10.788635
  0
LINE
  8
ボルト／ビス
  6
CONTINUOUS
 62
    64
 10
168.135105
 20
10.88486
 11
168.256762
 21
10.88486
  0
LINE
  8
ボルト／ビス
  6
CONTINUOUS
 10
168.256762
 20
10.788635
 11
168.256762
 21
11.173535
  0
LINE
  8
ボルト／ビス
  6
CONTINUOUS
 10
168.256762
 20
10.781085
 11
168.32343
 21
10.781085
  0
LINE
  8
ボルト／ビス
  6
CONTINUOUS
 10
168.256762
 20
10.781085
 11
168.256762
 21
11.181085
  0
LINE
  8
ボルト／ビス
  6
CONTINUOUS
 10
168.256762
 20
11.181085
 11
168.32343
 21
11.181085
  0
LINE
  8
ボルト／ビス
  6
CONTINUOUS
 62
    64
 10
168.42343
 20
11.081085
 11
168.42343
 21
11.081085
  0
ENDBLK
  0
BLOCK
  2
*GRP_0003
 70
    65
 10
0.0
 20
0.0
  0
LINE
  8
ボルト／ビス
  6
CONTINUOUS
 10
168.42343
 20
56.014425
 11
168.356765
 21
56.014425
  0
LINE
  8
ボルト／ビス
  6
CONTINUOUS
 10
168.356765
 20
56.014425
 11
168.356765
 21
55.281092
  0
LINE
  8
ボルト／ビス
  6
CONTINUOUS
 10
168.356765
 20
55.281092
 11
168.42343
 21
55.281092
  0
LINE
  8
ボルト／ビス
  6
CONTINUOUS
 10
168.42343
 20
56.014425
 11
168.42343
 21
55.281092
  0
LINE
  8
ボルト／ビス
  6
CONTINUOUS
 10
168.32343
 20
55.947758
 11
168.356765
 21
55.947758
  0
LINE
  8
ボルト／ビス
  6
CONTINUOUS
 10
168.32343
 20
55.947758
 11
168.32343
 21
55.34776
  0
LINE
  8
ボルト／ビス
  6
CONTINUOUS
 10
168.32343
 20
55.34776
 11
168.356762
 21
55.34776
  0
LINE
  8
ボルト／ビス
  6
CONTINUOUS
 62
    64
 10
168.12343
 20
55.808135
 11
168.135105
 21
55.840207
  0
ARC
  8
ボルト／ビス
  6
CONTINUOUS
 62
    64
 10
168.22841
 20
55.792094
 40
0.104978
 50
179.999978
 51
207.278011
  0
ARC
  8
ボルト／ビス
  6
CONTINUOUS
 62
    64
 10
168.525833
 20
55.647757
 40
0.402401
 50
166.164993
 51
193.834976
  0
LINE
  8
ボルト／ビス
  6
CONTINUOUS
 62
    64
 10
168.12343
 20
55.487385
 11
168.135105
 21
55.455307
  0
ARC
  8
ボルト／ビス
  6
CONTINUOUS
 62
    64
 10
168.22841
 20
55.50342
 40
0.104978
 50
152.721945
 51
179.999978
  0
LINE
  8
ボルト／ビス
  6
CONTINUOUS
 62
    64
 10
168.12343
 20
55.808135
 11
168.12343
 21
55.487385
  0
LINE
  8
ボルト／ビス
  6
CONTINUOUS
 62
    64
 10
168.135105
 20
55.455307
 11
168.256762
 21
55.455307
  0
LINE
  8
ボルト／ビス
  6
CONTINUOUS
 62
    64
 10
168.135105
 20
55.551535
 11
168.256765
 21
55.551535
  0
LINE
  8
ボルト／ビス
  6
CONTINUOUS
 62
    64
 10
168.135105
 20
55.840207
 11
168.256762
 21
55.840207
  0
LINE
  8
ボルト／ビス
  6
CONTINUOUS
 62
    64
 10
168.135105
 20
55.743982
 11
168.256762
 21
55.743982
  0
LINE
  8
ボルト／ビス
  6
CONTINUOUS
 10
168.256762
 20
55.840207
 11
168.256762
 21
55.455307
  0
LINE
  8
ボルト／ビス
  6
CONTINUOUS
 10
168.256762
 20
55.847758
 11
168.32343
 21
55.847758
  0
LINE
  8
ボルト／ビス
  6
CONTINUOUS
 10
168.256762
 20
55.847758
 11
168.256762
 21
55.44776
  0
LINE
  8
ボルト／ビス
  6
CONTINUOUS
 10
168.256762
 20
55.44776
 11
168.32343
 21
55.44776
  0
LINE
  8
ボルト／ビス
  6
CONTINUOUS
 62
    64
 10
168.42343
 20
55.54776
 11
168.42343
 21
55.54776
  0
ENDBLK
  0
BLOCK
  2
*GRP_0004
 70
    65
 10
0.0
 20
0.0
  0
LINE
  8
ボルト／ビス
  6
CONTINUOUS
 10
76.181328
 20
-81.294343
 11
76.181328
 21
-81.227678
  0
LINE
  8
ボルト／ビス
  6
CONTINUOUS
 10
76.181328
 20
-81.227678
 11
75.447998
 21
-81.227678
  0
LINE
  8
ボルト／ビス
  6
CONTINUOUS
 10
75.447998
 20
-81.227678
 11
75.447998
 21
-81.294343
  0
LINE
  8
ボルト／ビス
  6
CONTINUOUS
 10
76.181328
 20
-81.294343
 11
75.447998
 21
-81.294343
  0
LINE
  8
ボルト／ビス
  6
CONTINUOUS
 10
76.114662
 20
-81.194343
 11
76.114662
 21
-81.227678
  0
LINE
  8
ボルト／ビス
  6
CONTINUOUS
 10
76.114662
 20
-81.194343
 11
75.514662
 21
-81.194343
  0
LINE
  8
ボルト／ビス
  6
CONTINUOUS
 10
75.514662
 20
-81.194343
 11
75.514662
 21
-81.227675
  0
LINE
  8
ボルト／ビス
  6
CONTINUOUS
 62
    64
 10
75.975037
 20
-80.994343
 11
76.007113
 21
-81.006017
  0
ARC
  8
ボルト／ビス
  6
CONTINUOUS
 62
    64
 10
75.958998
 20
-81.099323
 40
0.104978
 50
89.999978
 51
117.278011
  0
ARC
  8
ボルト／ビス
  6
CONTINUOUS
 62
    64
 10
75.814661
 20
-81.396746
 40
0.402401
 50
76.164993
 51
103.834976
  0
LINE
  8
ボルト／ビス
  6
CONTINUOUS
 62
    64
 10
75.654287
 20
-80.994343
 11
75.622213
 21
-81.006017
  0
ARC
  8
ボルト／ビス
  6
CONTINUOUS
 62
    64
 10
75.670324
 20
-81.099323
 40
0.104978
 50
62.721945
 51
89.999978
  0
LINE
  8
ボルト／ビス
  6
CONTINUOUS
 62
    64
 10
75.975037
 20
-80.994343
 11
75.654287
 21
-80.994343
  0
LINE
  8
ボルト／ビス
  6
CONTINUOUS
 62
    64
 10
75.622213
 20
-81.006017
 11
75.622213
 21
-81.127675
  0
LINE
  8
ボルト／ビス
  6
CONTINUOUS
 62
    64
 10
75.718438
 20
-81.006017
 11
75.718438
 21
-81.127678
  0
LINE
  8
ボルト／ビス
  6
CONTINUOUS
 62
    64
 10
76.007113
 20
-81.006017
 11
76.007113
 21
-81.127675
  0
LINE
  8
ボルト／ビス
  6
CONTINUOUS
 62
    64
 10
75.910887
 20
-81.006017
 11
75.910887
 21
-81.127675
  0
LINE
  8
ボルト／ビス
  6
CONTINUOUS
 10
76.007113
 20
-81.127675
 11
75.622213
 21
-81.127675
  0
LINE
  8
ボルト／ビス
  6
CONTINUOUS
 10
76.014662
 20
-81.127675
 11
76.014662
 21
-81.194343
  0
LINE
  8
ボルト／ビス
  6
CONTINUOUS
 10
76.014662
 20
-81.127675
 11
75.614662
 21
-81.127675
  0
LINE
  8
ボルト／ビス
  6
CONTINUOUS
 10
75.614662
 20
-81.127675
 11
75.614662
 21
-81.194343
  0
LINE
  8
ボルト／ビス
  6
CONTINUOUS
 62
    64
 10
75.714662
 20
-81.294343
 11
75.714662
 21
-81.294343
  0
ENDBLK
  0
BLOCK
  2
*GRP_0005
 70
    65
 10
0.0
 20
0.0
  0
LINE
  8
ボルト／ビス
  6
CONTINUOUS
 10
-125.88533
 20
-81.294343
 11
-125.88533
 21
-81.227678
  0
LINE
  8
ボルト／ビス
  6
CONTINUOUS
 10
-125.88533
 20
-81.227678
 11
-125.151998
 21
-81.227678
  0
LINE
  8
ボルト／ビス
  6
CONTINUOUS
 10
-125.151998
 20
-81.227678
 11
-125.151998
 21
-81.294343
  0
LINE
  8
ボルト／ビス
  6
CONTINUOUS
 10
-125.88533
 20
-81.294343
 11
-125.151998
 21
-81.294343
  0
LINE
  8
ボルト／ビス
  6
CONTINUOUS
 10
-125.818663
 20
-81.194343
 11
-125.818663
 21
-81.227678
  0
LINE
  8
ボルト／ビス
  6
CONTINUOUS
 10
-125.818663
 20
-81.194343
 11
-125.218665
 21
-81.194343
  0
LINE
  8
ボルト／ビス
  6
CONTINUOUS
 10
-125.218665
 20
-81.194343
 11
-125.218665
 21
-81.227675
  0
LINE
  8
ボルト／ビス
  6
CONTINUOUS
 62
    64
 10
-125.67904
 20
-80.994343
 11
-125.711113
 21
-81.006017
  0
ARC
  8
ボルト／ビス
  6
CONTINUOUS
 62
    64
 10
-125.663
 20
-81.099323
 40
0.104978
 50
62.721989
 51
90.000022
  0
ARC
  8
ボルト／ビス
  6
CONTINUOUS
 62
    64
 10
-125.518663
 20
-81.396746
 40
0.402401
 50
76.165024
 51
103.835007
  0
LINE
  8
ボルト／ビス
  6
CONTINUOUS
 62
    64
 10
-125.35829
 20
-80.994343
 11
-125.326213
 21
-81.006017
  0
ARC
  8
ボルト／ビス
  6
CONTINUOUS
 62
    64
 10
-125.374325
 20
-81.099323
 40
0.104978
 50
90.000022
 51
117.278055
  0
LINE
  8
ボルト／ビス
  6
CONTINUOUS
 62
    64
 10
-125.67904
 20
-80.994343
 11
-125.35829
 21
-80.994343
  0
LINE
  8
ボルト／ビス
  6
CONTINUOUS
 62
    64
 10
-125.326213
 20
-81.006017
 11
-125.326213
 21
-81.127675
  0
LINE
  8
ボルト／ビス
  6
CONTINUOUS
 62
    64
 10
-125.42244
 20
-81.006017
 11
-125.42244
 21
-81.127678
  0
LINE
  8
ボルト／ビス
  6
CONTINUOUS
 62
    64
 10
-125.711113
 20
-81.006017
 11
-125.711113
 21
-81.127675
  0
LINE
  8
ボルト／ビス
  6
CONTINUOUS
 62
    64
 10
-125.614887
 20
-81.006017
 11
-125.614887
 21
-81.127675
  0
LINE
  8
ボルト／ビス
  6
CONTINUOUS
 10
-125.711113
 20
-81.127675
 11
-125.326213
 21
-81.127675
  0
LINE
  8
ボルト／ビス
  6
CONTINUOUS
 10
-125.718663
 20
-81.127675
 11
-125.718663
 21
-81.194343
  0
LINE
  8
ボルト／ビス
  6
CONTINUOUS
 10
-125.718663
 20
-81.127675
 11
-125.318665
 21
-81.127675
  0
LINE
  8
ボルト／ビス
  6
CONTINUOUS
 10
-125.318665
 20
-81.127675
 11
-125.318665
 21
-81.194343
  0
LINE
  8
ボルト／ビス
  6
CONTINUOUS
 62
    64
 10
-125.418665
 20
-81.294343
 11
-125.418665
 21
-81.294343
  0
ENDBLK
  0
BLOCK
  2
*DIM_0006
 70
    65
 10
0.0
 20
0.0
  0
LINE
  8
寸法
  6
CONTINUOUS
 10
166.13993
 20
9.040942
 11
151.055333
 21
9.040942
  0
LINE
  8
寸法
  6
CONTINUOUS
 10
151.055333
 20
11.647755
 11
151.055333
 21
9.040942
  0
POINT
  8
寸法
 10
151.055333
 20
11.647755
  0
POINT
  8
寸法
 10
151.055333
 20
9.040942
  0
TEXT
  7
TextStyle03
  8
寸法
  6
CONTINUOUS
 10
150.65
 20
0.31875
  1
78.2
 40
3.0
 50
90.0
 72
     5
 11
150.65
 21
6.88125
  0
ENDBLK
  0
BLOCK
  2
*DIM_0007
 70
    65
 10
0.0
 20
0.0
  0
LINE
  8
寸法
  6
CONTINUOUS
 10
166.13993
 20
57.587905
 11
151.055333
 21
57.587905
  0
LINE
  8
寸法
  6
CONTINUOUS
 10
151.055333
 20
54.98109
 11
151.055333
 21
57.587905
  0
POINT
  8
寸法
 10
151.055333
 20
54.98109
  0
POINT
  8
寸法
 10
151.055333
 20
57.587905
  0
TEXT
  7
TextStyle03
  8
寸法
  6
CONTINUOUS
 10
150.65
 20
59.76875
  1
78.2
 40
3.0
 50
90.0
 72
     5
 11
150.65
 21
66.33125
  0
ENDBLK
  0
BLOCK
  2
*DIM_0008
 70
    65
 10
0.0
 20
0.0
  0
LINE
  8
寸法
  6
CONTINUOUS
 10
151.055333
 20
11.647755
 11
151.055333
 21
54.98109
  0
POINT
  8
寸法
 10
151.055333
 20
11.647755
  0
POINT
  8
寸法
 10
151.055333
 20
54.98109
  0
TEXT
  7
TextStyle03
  8
寸法
  6
CONTINUOUS
 10
150.65
 20
21.60625
  1
呼称寸法　1300
 40
3.0
 50
90.0
 72
     5
 11
150.65
 21
45.04375
  0
ENDBLK
  0
BLOCK
  2
*DIM_0009
 70
    65
 10
0.0
 20
0.0
  0
LINE
  8
寸法
  6
CONTINUOUS
 10
171.63993
 20
4.04094
 11
171.63993
 21
-4.223383
  0
LINE
  8
寸法
  6
CONTINUOUS
 10
167.923432
 20
6.647755
 11
167.923432
 21
-4.223383
  0
LINE
  8
寸法
  6
CONTINUOUS
 10
171.63993
 20
-4.223383
 11
167.923432
 21
-4.223383
  0
POINT
  8
寸法
 10
171.63993
 20
-4.223383
  0
POINT
  8
寸法
 10
167.923432
 20
-4.223383
  0
TEXT
  7
TextStyle03
  8
寸法
  6
CONTINUOUS
 10
165.625
 20
-7.225
  1
111.5
 40
3.0
 50
360.0
 72
     5
 11
173.875
 21
-7.225
  0
ENDBLK
  0
BLOCK
  2
*DIM_0010
 70
    65
 10
0.0
 20
0.0
  0
LINE
  8
寸法
  6
CONTINUOUS
 10
77.754808
 20
-79.010843
 11
77.754808
 21
-63.926245
  0
LINE
  8
寸法
  6
CONTINUOUS
 10
75.147992
 20
-63.926245
 11
77.754808
 21
-63.926245
  0
POINT
  8
寸法
 10
75.147992
 20
-63.926245
  0
POINT
  8
寸法
 10
77.754808
 20
-63.926245
  0
TEXT
  7
TextStyle03
  8
寸法
  6
CONTINUOUS
 10
79.89375
 20
-63.55
  1
78.2
 40
3.0
 72
     5
 11
86.45625
 21
-63.55
  0
ENDBLK
  0
BLOCK
  2
*DIM_0011
 70
    65
 10
0.0
 20
0.0
  0
LINE
  8
寸法
  6
CONTINUOUS
 10
82.754808
 20
-84.510843
 11
91.01913
 21
-84.510843
  0
LINE
  8
寸法
  6
CONTINUOUS
 10
80.147992
 20
-80.794345
 11
91.01913
 21
-80.794345
  0
LINE
  8
寸法
  6
CONTINUOUS
 10
91.01913
 20
-84.510843
 11
91.01913
 21
-80.794345
  0
POINT
  8
寸法
 10
91.01913
 20
-84.510843
  0
POINT
  8
寸法
 10
91.01913
 20
-80.794345
  0
TEXT
  7
TextStyle03
  8
寸法
  6
CONTINUOUS
 10
94.0
 20
-86.775
  1
111.5
 40
3.0
 50
90.0
 72
     5
 11
94.0
 21
-78.525
  0
ENDBLK
  0
BLOCK
  2
*DIM_0012
 70
    65
 10
0.0
 20
0.0
  0
LINE
  8
寸法
  6
CONTINUOUS
 10
-127.458807
 20
-79.010843
 11
-127.458807
 21
-63.926245
  0
LINE
  8
寸法
  6
CONTINUOUS
 10
-124.851995
 20
-63.926245
 11
-127.458807
 21
-63.926245
  0
POINT
  8
寸法
 10
-124.851995
 20
-63.926245
  0
POINT
  8
寸法
 10
-127.458807
 20
-63.926245
  0
TEXT
  7
TextStyle03
  8
寸法
  6
CONTINUOUS
 10
-136.20625
 20
-63.55
  1
78.2
 40
3.0
 72
     5
 11
-129.64375
 21
-63.55
  0
ENDBLK
  0
BLOCK
  2
*DIM_0013
 70
    65
 10
0.0
 20
0.0
  0
LINE
  8
寸法
  6
CONTINUOUS
 10
75.147992
 20
-63.926245
 11
-124.851995
 21
-63.926245
  0
POINT
  8
寸法
 10
75.147992
 20
-63.926245
  0
POINT
  8
寸法
 10
-124.851995
 20
-63.926245
  0
TEXT
  7
TextStyle03
  8
寸法
  6
CONTINUOUS
 10
-36.59375
 20
-63.55
  1
呼称寸法　6000
 40
3.0
 72
     5
 11
-13.15625
 21
-63.55
  0
ENDBLK
  0
BLOCK
  2
*DIM_0014
 70
    65
 10
0.0
 20
0.0
  0
LINE
  8
寸法
  6
BYBLOCK
 62
     0
 10
-108.185335
 20
8.017627
 11
-108.185335
 21
2.933575
  0
LINE
  8
寸法
  6
BYBLOCK
 62
     0
 10
-24.852002
 20
8.017627
 11
-24.852002
 21
2.933575
  0
LINE
  8
寸法
  6
BYBLOCK
 62
     0
 10
-108.185335
 20
2.933575
 11
-24.852002
 21
2.933575
  0
POINT
  8
寸法
 62
     0
 10
-108.185335
 20
2.933575
  0
POINT
  8
寸法
 62
     0
 10
-24.852002
 20
2.933575
  0
TEXT
  7
TextStyle03
  8
寸法
  6
CONTINUOUS
 62
     0
 10
-69.83125
 20
3.3
  1
2500
 40
3.0
 72
     5
 11
-63.26875
 21
3.3
  0
ENDBLK
  0
BLOCK
  2
*DIM_0015
 70
    65
 10
0.0
 20
0.0
  0
LINE
  8
寸法
  6
BYBLOCK
 62
     0
 10
58.48133
 20
8.017627
 11
58.48133
 21
2.933575
  0
LINE
  8
寸法
  6
BYBLOCK
 62
     0
 10
-24.852002
 20
2.933575
 11
58.48133
 21
2.933575
  0
POINT
  8
寸法
 62
     0
 10
58.48133
 20
2.933575
  0
TEXT
  7
TextStyle03
  8
寸法
  6
CONTINUOUS
 62
     0
 10
13.49375
 20
3.3
  1
2500
 40
3.0
 72
     5
 11
20.05625
 21
3.3
  0
ENDBLK
  0
BLOCK
  2
*DIM_0016
 70
    65
 10
0.0
 20
0.0
  0
LINE
  8
寸法
  6
BYBLOCK
 62
     0
 10
-127.852002
 20
21.647755
 11
-156.797167
 21
21.647755
  0
LINE
  8
寸法
  6
BYBLOCK
 62
     0
 10
-127.852002
 20
44.98109
 11
-156.797167
 21
44.98109
  0
LINE
  8
寸法
  6
BYBLOCK
 62
     0
 10
-156.797167
 20
21.647755
 11
-156.797167
 21
44.98109
  0
POINT
  8
寸法
 62
     0
 10
-156.797167
 20
21.647755
  0
POINT
  8
寸法
 62
     0
 10
-156.797167
 20
44.98109
  0
TEXT
  7
TextStyle03
  8
寸法
  6
CONTINUOUS
 62
     0
 10
-157.225
 20
30.8625
  1
700
 40
3.0
 50
90.0
 72
     5
 11
-157.225
 21
35.7375
  0
ENDBLK
  0
BLOCK
  2
*DIM_0017
 70
    65
 10
0.0
 20
0.0
  0
LINE
  8
寸法
  6
BYBLOCK
 62
     0
 10
-118.185335
 20
57.981087
 11
-118.185335
 21
87.08916
  0
LINE
  8
寸法
  6
BYBLOCK
 62
     0
 10
-94.852002
 20
57.981087
 11
-94.852002
 21
87.08916
  0
LINE
  8
寸法
  6
BYBLOCK
 62
     0
 10
-118.185335
 20
87.08916
 11
-94.852002
 21
87.08916
  0
POINT
  8
寸法
 62
     0
 10
-118.185335
 20
87.08916
  0
POINT
  8
寸法
 62
     0
 10
-94.852002
 20
87.08916
  0
TEXT
  7
TextStyle03
  8
寸法
  6
CONTINUOUS
 62
     0
 10
-108.9875
 20
87.45
  1
700
 40
3.0
 72
     5
 11
-104.1125
 21
87.45
  0
ENDBLK
  0
BLOCK
  2
*DIM_0018
 70
    65
 10
0.0
 20
0.0
  0
LINE
  8
寸法
  6
BYBLOCK
 62
     0
 10
-71.51867
 20
57.981087
 11
-71.51867
 21
87.08916
  0
LINE
  8
寸法
  6
BYBLOCK
 62
     0
 10
-94.852002
 20
87.08916
 11
-71.51867
 21
87.08916
  0
POINT
  8
寸法
 62
     0
 10
-71.51867
 20
87.08916
  0
TEXT
  7
TextStyle03
  8
寸法
  6
CONTINUOUS
 62
     0
 10
-85.6625
 20
87.45
  1
700
 40
3.0
 72
     5
 11
-80.7875
 21
87.45
  0
ENDBLK
  0
BLOCK
  2
*DIM_0019
 70
    65
 10
0.0
 20
0.0
  0
LINE
  8
寸法
  6
BYBLOCK
 62
     0
 10
-48.185335
 20
57.981087
 11
-48.185335
 21
87.08916
  0
LINE
  8
寸法
  6
BYBLOCK
 62
     0
 10
-71.51867
 20
87.08916
 11
-48.185335
 21
87.08916
  0
POINT
  8
寸法
 62
     0
 10
-48.185335
 20
87.08916
  0
TEXT
  7
TextStyle03
  8
寸法
  6
CONTINUOUS
 62
     0
 10
-62.3125
 20
87.45
  1
700
 40
3.0
 72
     5
 11
-57.4375
 21
87.45
  0
ENDBLK
  0
BLOCK
  2
*DIM_0020
 70
    65
 10
0.0
 20
0.0
  0
LINE
  8
寸法
  6
BYBLOCK
 62
     0
 10
-24.852002
 20
57.981087
 11
-24.852002
 21
87.08916
  0
LINE
  8
寸法
  6
BYBLOCK
 62
     0
 10
-48.185335
 20
87.08916
 11
-24.852002
 21
87.08916
  0
POINT
  8
寸法
 62
     0
 10
-24.852002
 20
87.08916
  0
TEXT
  7
TextStyle03
  8
寸法
  6
CONTINUOUS
 62
     0
 10
-38.9875
 20
87.45
  1
700
 40
3.0
 72
     5
 11
-34.1125
 21
87.45
  0
ENDBLK
  0
BLOCK
  2
*DIM_0021
 70
    65
 10
0.0
 20
0.0
  0
LINE
  8
寸法
  6
BYBLOCK
 62
     0
 10
-1.51867
 20
57.981087
 11
-1.51867
 21
87.08916
  0
LINE
  8
寸法
  6
BYBLOCK
 62
     0
 10
-24.852002
 20
87.08916
 11
-1.51867
 21
87.08916
  0
POINT
  8
寸法
 62
     0
 10
-1.51867
 20
87.08916
  0
TEXT
  7
TextStyle03
  8
寸法
  6
CONTINUOUS
 62
     0
 10
-15.6625
 20
87.45
  1
700
 40
3.0
 72
     5
 11
-10.7875
 21
87.45
  0
ENDBLK
  0
BLOCK
  2
*DIM_0022
 70
    65
 10
0.0
 20
0.0
  0
LINE
  8
寸法
  6
BYBLOCK
 62
     0
 10
21.814665
 20
57.981087
 11
21.814665
 21
87.08916
  0
LINE
  8
寸法
  6
BYBLOCK
 62
     0
 10
-1.51867
 20
87.08916
 11
21.814665
 21
87.08916
  0
POINT
  8
寸法
 62
     0
 10
21.814665
 20
87.08916
  0
TEXT
  7
TextStyle03
  8
寸法
  6
CONTINUOUS
 62
     0
 10
7.6875
 20
87.45
  1
700
 40
3.0
 72
     5
 11
12.5625
 21
87.45
  0
ENDBLK
  0
BLOCK
  2
*DIM_0023
 70
    65
 10
0.0
 20
0.0
  0
LINE
  8
寸法
  6
BYBLOCK
 62
     0
 10
45.147998
 20
57.981087
 11
45.147998
 21
87.08916
  0
LINE
  8
寸法
  6
BYBLOCK
 62
     0
 10
21.814665
 20
87.08916
 11
45.147998
 21
87.08916
  0
POINT
  8
寸法
 62
     0
 10
45.147998
 20
87.08916
  0
TEXT
  7
TextStyle03
  8
寸法
  6
CONTINUOUS
 62
     0
 10
31.0125
 20
87.45
  1
700
 40
3.0
 72
     5
 11
35.8875
 21
87.45
  0
ENDBLK
  0
BLOCK
  2
*DIM_0024
 70
    65
 10
0.0
 20
0.0
  0
LINE
  8
寸法
  6
BYBLOCK
 62
     0
 10
68.48133
 20
57.981087
 11
68.48133
 21
87.08916
  0
LINE
  8
寸法
  6
BYBLOCK
 62
     0
 10
45.147998
 20
87.08916
 11
68.48133
 21
87.08916
  0
POINT
  8
寸法
 62
     0
 10
68.48133
 20
87.08916
  0
TEXT
  7
TextStyle03
  8
寸法
  6
CONTINUOUS
 62
     0
 10
54.3375
 20
87.45
  1
700
 40
3.0
 72
     5
 11
59.2125
 21
87.45
  0
ENDBLK
  0
BLOCK
  2
*DIM_0025
 70
    65
 10
0.0
 20
0.0
  0
LINE
  8
寸法
  6
CONTINUOUS
 10
130.18668
 20
-34.29929
 11
130.18668
 21
-26.78334
  0
LINE
  8
寸法
  6
CONTINUOUS
 10
162.380012
 20
-34.29929
 11
162.380012
 21
-26.78334
  0
LINE
  8
寸法
  6
CONTINUOUS
 10
130.18668
 20
-26.78334
 11
162.380012
 21
-26.78334
  0
POINT
  8
寸法
 10
130.18668
 20
-26.78334
  0
POINT
  8
寸法
 10
162.380012
 20
-26.78334
  0
TEXT
  7
TextStyle03
  8
寸法
  6
CONTINUOUS
 10
142.15
 20
-26.425
  1
965.8
 40
3.0
 72
     5
 11
150.4
 21
-26.425
  0
ENDBLK
  0
BLOCK
  2
*DIM_0026
 70
    65
 10
0.0
 20
0.0
  0
LINE
  8
寸法
  6
CONTINUOUS
 10
167.380012
 20
-39.29929
 11
177.563658
 21
-39.29929
  0
LINE
  8
寸法
  6
CONTINUOUS
 10
167.380012
 20
-81.965955
 11
177.563658
 21
-81.965955
  0
LINE
  8
寸法
  6
CONTINUOUS
 10
177.563658
 20
-39.29929
 11
177.563658
 21
-81.965955
  0
POINT
  8
寸法
 10
177.563658
 20
-39.29929
  0
POINT
  8
寸法
 10
177.563658
 20
-81.965955
  0
TEXT
  7
TextStyle03
  8
寸法
  6
CONTINUOUS
 10
177.175
 20
-63.93125
  1
1280
 40
3.0
 50
90.0
 72
     5
 11
177.175
 21
-57.36875
  0
ENDBLK
  0
ENDSEC
  0
SECTION
  2
ENTITIES
  0
POLYLINE
  8
通り芯
  6
CONTINUOUS
 66
     1
 70
     1
  0
VERTEX
  8
通り芯
 10
-210.0
 20
-148.5
  0
VERTEX
  8
通り芯
 10
210.0
 20
-148.5
  0
VERTEX
  8
通り芯
 10
210.0
 20
148.5
  0
VERTEX
  8
通り芯
 10
-210.0
 20
148.5
  0
SEQEND
  0
INSERT
  2
*GRP_0001
  8
型材断面
  6
CONTINUOUS
 10
0.0
 20
0.0
  0
LINE
  8
型材断面
  6
CONTINUOUS
 10
172.08993
 20
9.49094
 11
171.63993
 21
9.49094
  0
LINE
  8
型材断面
  6
CONTINUOUS
 62
    47
 10
171.63993
 20
9.04094
 11
171.13993
 21
9.04094
  0
LINE
  8
型材断面
  6
CONTINUOUS
 62
    47
 10
170.344312
 20
11.597755
 11
171.13993
 21
9.04094
  0
LINE
  8
型材断面
  6
CONTINUOUS
 10
171.63993
 20
9.49094
 11
171.63993
 21
9.04094
  0
LINE
  8
型材断面
  6
CONTINUOUS
 10
169.256765
 20
9.98109
 11
169.256762
 21
10.03109
  0
LINE
  8
型材断面
  6
CONTINUOUS
 10
169.256765
 20
9.98109
 11
168.42343
 21
9.98109
  0
LINE
  8
型材断面
  6
CONTINUOUS
 10
167.923432
 20
11.647755
 11
168.42343
 21
11.647755
  0
LINE
  8
型材断面
  6
CONTINUOUS
 10
168.42343
 20
9.98109
 11
168.42343
 21
11.647755
  0
INSERT
  2
*GRP_0002
  8
型材断面
  6
CONTINUOUS
 10
0.0
 20
0.0
  0
LINE
  8
型材断面
  6
CONTINUOUS
 10
169.256762
 20
11.597755
 11
170.344312
 21
11.597755
  0
LINE
  8
型材断面
  6
CONTINUOUS
 10
172.08993
 20
57.137903
 11
171.63993
 21
57.137903
  0
LINE
  8
型材断面
  6
CONTINUOUS
 62
    47
 10
171.63993
 20
57.587903
 11
171.13993
 21
57.587903
  0
LINE
  8
型材断面
  6
CONTINUOUS
 62
    47
 10
170.344312
 20
55.03109
 11
171.13993
 21
57.587903
  0
LINE
  8
型材断面
  6
CONTINUOUS
 10
171.63993
 20
57.137903
 11
171.63993
 21
57.587903
  0
LINE
  8
型材断面
  6
CONTINUOUS
 10
169.256765
 20
56.647753
 11
169.256762
 21
56.597753
  0
LINE
  8
型材断面
  6
CONTINUOUS
 10
169.256765
 20
56.647753
 11
168.42343
 21
56.647753
  0
LINE
  8
型材断面
  6
CONTINUOUS
 10
167.923432
 20
54.98109
 11
168.42343
 21
54.98109
  0
LINE
  8
型材断面
  6
CONTINUOUS
 10
168.42343
 20
56.647753
 11
168.42343
 21
54.98109
  0
INSERT
  2
*GRP_0003
  8
型材断面
  6
CONTINUOUS
 10
0.0
 20
0.0
  0
LINE
  8
型材断面
  6
CONTINUOUS
 10
169.256762
 20
55.03109
 11
170.344312
 21
55.03109
  0
LINE
  8
型材断面
  6
DASHDOT
 10
-24.852002
 20
-86.575325
 11
-24.852002
 21
54.98109
  0
LINE
  8
型材断面
  6
CONTINUOUS
 10
171.63993
 20
57.587903
 11
171.63993
 21
9.04094
  0
LINE
  8
型材断面
  6
CONTINUOUS
 10
171.13993
 20
57.587903
 11
171.13993
 21
9.04094
  0
LINE
  8
型材断面
  6
CONTINUOUS
 10
170.344312
 20
11.597755
 11
170.344312
 21
55.03109
  0
LINE
  8
型材断面
  6
CONTINUOUS
 10
172.08993
 20
9.49094
 11
172.08993
 21
57.137903
  0
LINE
  8
型材断面
  6
CONTINUOUS
 10
167.92343
 20
11.647755
 11
167.92343
 21
54.98109
  0
LINE
  8
型材断面
  6
CONTINUOUS
 10
169.256762
 20
9.98109
 11
169.256762
 21
56.647753
  0
LINE
  8
型材断面
  6
CONTINUOUS
 10
168.42343
 20
9.98109
 11
168.42343
 21
56.647753
  0
LINE
  8
型材断面
  6
CONTINUOUS
 10
77.304808
 20
-84.960843
 11
77.304808
 21
-84.510843
  0
LINE
  8
型材断面
  6
CONTINUOUS
 62
    47
 10
77.754808
 20
-84.510843
 11
77.754808
 21
-84.010843
  0
LINE
  8
型材断面
  6
CONTINUOUS
 62
    47
 10
75.197992
 20
-83.215225
 11
77.754808
 21
-84.010843
  0
LINE
  8
型材断面
  6
CONTINUOUS
 10
77.304808
 20
-84.510843
 11
77.754808
 21
-84.510843
  0
LINE
  8
型材断面
  6
CONTINUOUS
 10
76.814658
 20
-82.127678
 11
76.764658
 21
-82.127675
  0
LINE
  8
型材断面
  6
CONTINUOUS
 10
76.814658
 20
-82.127678
 11
76.814658
 21
-81.294343
  0
LINE
  8
型材断面
  6
CONTINUOUS
 10
75.147992
 20
-80.794345
 11
75.147992
 21
-81.294343
  0
LINE
  8
型材断面
  6
CONTINUOUS
 10
76.814658
 20
-81.294343
 11
75.147992
 21
-81.294343
  0
INSERT
  2
*GRP_0004
  8
型材断面
  6
CONTINUOUS
 10
0.0
 20
0.0
  0
LINE
  8
型材断面
  6
CONTINUOUS
 10
75.197992
 20
-82.127675
 11
75.197992
 21
-83.215225
  0
LINE
  8
型材断面
  6
CONTINUOUS
 10
74.31466
 20
32.897755
 11
75.147992
 21
32.897755
  0
LINE
  8
型材断面
  6
CONTINUOUS
 10
74.31466
 20
33.731087
 11
75.147992
 21
33.731087
  0
LINE
  8
型材断面
  6
DASHDOT
 10
75.147992
 20
-86.575325
 11
75.147992
 21
11.647755
  0
LINE
  8
型材断面
  6
DASHDOT
 10
173.704413
 20
11.647755
 11
75.147992
 21
11.647755
  0
LINE
  8
型材断面
  6
CONTINUOUS
 10
75.147992
 20
11.647755
 11
75.147992
 21
33.314422
  0
LINE
  8
型材断面
  6
CONTINUOUS
 10
74.31466
 20
32.897755
 11
74.31466
 21
12.481087
  0
LINE
  8
型材断面
  6
CONTINUOUS
 10
77.754808
 20
9.04094
 11
74.31466
 21
12.481087
  0
LINE
  8
型材断面
  6
DASHDOT
 10
173.704413
 20
54.98109
 11
75.147992
 21
54.98109
  0
LINE
  8
型材断面
  6
CONTINUOUS
 10
75.147992
 20
54.98109
 11
75.147992
 21
33.314422
  0
LINE
  8
型材断面
  6
CONTINUOUS
 10
77.754808
 20
57.587903
 11
74.31466
 21
54.147758
  0
LINE
  8
型材断面
  6
CONTINUOUS
 10
74.31466
 20
33.731087
 11
74.31466
 21
54.147758
  0
LINE
  8
型材断面
  6
CONTINUOUS
 10
77.754808
 20
9.04094
 11
77.754808
 21
57.587903
  0
LINE
  8
型材断面
  6
CONTINUOUS
 10
76.814658
 20
9.98109
 11
76.814658
 21
56.647753
  0
LINE
  8
型材断面
  6
CONTINUOUS
 10
-127.008807
 20
-84.960843
 11
-127.008807
 21
-84.510843
  0
LINE
  8
型材断面
  6
CONTINUOUS
 62
    47
 10
-127.458807
 20
-84.510843
 11
-127.458807
 21
-84.010843
  0
LINE
  8
型材断面
  6
CONTINUOUS
 62
    47
 10
-124.901995
 20
-83.215225
 11
-127.458807
 21
-84.010843
  0
LINE
  8
型材断面
  6
CONTINUOUS
 10
-127.008807
 20
-84.510843
 11
-127.458807
 21
-84.510843
  0
LINE
  8
型材断面
  6
CONTINUOUS
 10
-126.518657
 20
-82.127678
 11
-126.468657
 21
-82.127675
  0
LINE
  8
型材断面
  6
CONTINUOUS
 10
-126.518657
 20
-82.127678
 11
-126.518657
 21
-81.294343
  0
LINE
  8
型材断面
  6
CONTINUOUS
 10
-124.851995
 20
-80.794345
 11
-124.851995
 21
-81.294343
  0
LINE
  8
型材断面
  6
CONTINUOUS
 10
-126.518657
 20
-81.294343
 11
-124.851995
 21
-81.294343
  0
INSERT
  2
*GRP_0005
  8
型材断面
  6
CONTINUOUS
 10
0.0
 20
0.0
  0
LINE
  8
型材断面
  6
CONTINUOUS
 10
-124.901995
 20
-82.127675
 11
-124.901995
 21
-83.215225
  0
LINE
  8
型材断面
  6
DASHDOT
 10
173.704413
 20
33.314422
 11
-124.851995
 21
33.314422
  0
LINE
  8
型材断面
  6
CONTINUOUS
 10
-124.018663
 20
32.897755
 11
-124.851995
 21
32.897755
  0
LINE
  8
型材断面
  6
CONTINUOUS
 10
-124.018663
 20
33.731087
 11
-124.851995
 21
33.731087
  0
LINE
  8
型材断面
  6
DASHDOT
 10
-124.851995
 20
-86.575325
 11
-124.851995
 21
11.647755
  0
LINE
  8
型材断面
  6
CONTINUOUS
 10
-124.851995
 20
11.647755
 11
-124.851995
 21
33.314422
  0
LINE
  8
型材断面
  6
CONTINUOUS
 10
-124.018663
 20
32.897755
 11
-124.018663
 21
12.481087
  0
LINE
  8
型材断面
  6
CONTINUOUS
 10
-127.458807
 20
9.04094
 11
-124.018663
 21
12.481087
  0
LINE
  8
型材断面
  6
CONTINUOUS
 10
-124.851995
 20
54.98109
 11
-124.851995
 21
33.314422
  0
LINE
  8
型材断面
  6
CONTINUOUS
 10
-124.018663
 20
33.731087
 11
-124.018663
 21
54.147758
  0
LINE
  8
型材断面
  6
CONTINUOUS
 10
-127.458807
 20
57.587903
 11
-124.018663
 21
54.147758
  0
LINE
  8
型材断面
  6
CONTINUOUS
 10
-126.518657
 20
56.647753
 11
-126.518657
 21
9.98109
  0
LINE
  8
型材断面
  6
CONTINUOUS
 10
-127.458807
 20
57.587903
 11
-127.458807
 21
9.04094
  0
LINE
  8
型材断面
  6
CONTINUOUS
 10
-127.458807
 20
-84.510843
 11
77.754808
 21
-84.510843
  0
LINE
  8
型材断面
  6
CONTINUOUS
 10
-127.458807
 20
-84.010843
 11
77.754808
 21
-84.010843
  0
LINE
  8
型材断面
  6
CONTINUOUS
 10
75.197992
 20
-83.215225
 11
-124.901995
 21
-83.215225
  0
LINE
  8
型材断面
  6
CONTINUOUS
 10
77.304808
 20
-84.960843
 11
-127.008807
 21
-84.960843
  0
LINE
  8
型材断面
  6
CONTINUOUS
 10
75.147992
 20
-80.794343
 11
-124.851995
 21
-80.794343
  0
LINE
  8
型材断面
  6
CONTINUOUS
 10
76.814658
 20
-82.127675
 11
-126.518657
 21
-82.127675
  0
LINE
  8
型材断面
  6
CONTINUOUS
 10
76.814658
 20
-81.294343
 11
-126.518657
 21
-81.294343
  0
LINE
  8
型材断面
  6
CONTINUOUS
 10
76.814658
 20
9.98109
 11
-126.518657
 21
9.98109
  0
LINE
  8
型材断面
  6
CONTINUOUS
 10
77.754808
 20
9.04094
 11
-127.458807
 21
9.04094
  0
LINE
  8
型材断面
  6
CONTINUOUS
 10
75.147992
 20
11.647755
 11
-124.851995
 21
11.647755
  0
LINE
  8
型材断面
  6
CONTINUOUS
 10
76.814658
 20
56.647753
 11
-126.518657
 21
56.647753
  0
LINE
  8
型材断面
  6
CONTINUOUS
 10
77.754808
 20
57.587903
 11
-127.458807
 21
57.587903
  0
LINE
  8
型材断面
  6
CONTINUOUS
 10
75.147992
 20
54.98109
 11
-124.851995
 21
54.98109
  0
LINE
  8
型材断面
  6
CONTINUOUS
 10
-107.863108
 20
12.481087
 11
-107.863108
 21
11.647755
  0
LINE
  8
型材断面
  6
CONTINUOUS
 10
-108.696443
 20
12.481087
 11
-108.696443
 21
11.647755
  0
LINE
  8
型材断面
  6
CONTINUOUS
 10
-75.410328
 20
12.481087
 11
-75.410328
 21
11.647755
  0
LINE
  8
型材断面
  6
CONTINUOUS
 10
-74.576992
 20
12.481087
 11
-74.576992
 21
11.647755
  0
LINE
  8
型材断面
  6
CONTINUOUS
 10
-41.982555
 20
12.481087
 11
-41.982555
 21
11.647755
  0
LINE
  8
型材断面
  6
CONTINUOUS
 10
-41.14922
 20
12.481087
 11
-41.14922
 21
11.647755
  0
LINE
  8
型材断面
  6
DASHDOT
 10
-91.70755
 20
11.647755
 11
-91.70755
 21
54.98109
  0
LINE
  8
型材断面
  6
DASHDOT
 10
-58.27977
 20
11.647755
 11
-58.27977
 21
54.98109
  0
LINE
  8
型材断面
  6
CONTINUOUS
 10
-41.982555
 20
12.481087
 11
-74.576992
 21
12.481087
  0
LINE
  8
型材断面
  6
CONTINUOUS
 10
-75.410328
 20
12.481087
 11
-107.863108
 21
12.481087
  0
LINE
  8
型材断面
  6
CONTINUOUS
 10
-108.696443
 20
12.481087
 11
-124.018663
 21
12.481087
  0
LINE
  8
型材断面
  6
CONTINUOUS
 10
-127.482132
 20
33.314422
 11
-130.07264
 21
34.810052
  0
LINE
  8
型材断面
  6
CONTINUOUS
 10
-127.482132
 20
33.314422
 11
-130.07264
 21
31.818793
  0
LINE
  8
型材断面
  6
CONTINUOUS
 10
-130.07264
 20
31.818793
 11
-130.07264
 21
34.810052
  0
LINE
  8
型材断面
  6
CONTINUOUS
 10
-108.185335
 20
57.611218
 11
-109.680965
 21
60.201725
  0
LINE
  8
型材断面
  6
CONTINUOUS
 10
-108.185335
 20
57.611218
 11
-106.689705
 21
60.201725
  0
LINE
  8
型材断面
  6
CONTINUOUS
 10
-106.689705
 20
60.201725
 11
-109.680965
 21
60.201725
  0
LINE
  8
型材断面
  6
CONTINUOUS
 10
-24.852002
 20
57.611218
 11
-26.347632
 21
60.201725
  0
LINE
  8
型材断面
  6
CONTINUOUS
 10
-24.852002
 20
57.611218
 11
-23.356372
 21
60.201725
  0
LINE
  8
型材断面
  6
CONTINUOUS
 10
-23.356372
 20
60.201725
 11
-26.347632
 21
60.201725
  0
LINE
  8
型材断面
  6
CONTINUOUS
 10
58.48133
 20
57.611218
 11
56.9857
 21
60.201725
  0
LINE
  8
型材断面
  6
CONTINUOUS
 10
58.48133
 20
57.611218
 11
59.97696
 21
60.201725
  0
LINE
  8
型材断面
  6
CONTINUOUS
 10
59.97696
 20
60.201725
 11
56.9857
 21
60.201725
  0
LINE
  8
型材断面
  6
CONTINUOUS
 10
-108.185335
 20
9.017627
 11
-109.680965
 21
6.42712
  0
LINE
  8
型材断面
  6
CONTINUOUS
 10
-108.185335
 20
9.017627
 11
-106.689705
 21
6.42712
  0
LINE
  8
型材断面
  6
CONTINUOUS
 10
-106.689705
 20
6.42712
 11
-109.680965
 21
6.42712
  0
LINE
  8
型材断面
  6
CONTINUOUS
 10
-24.852002
 20
9.017627
 11
-26.347632
 21
6.42712
  0
LINE
  8
型材断面
  6
CONTINUOUS
 10
-24.852002
 20
9.017627
 11
-23.356372
 21
6.42712
  0
LINE
  8
型材断面
  6
CONTINUOUS
 10
-23.356372
 20
6.42712
 11
-26.347632
 21
6.42712
  0
LINE
  8
型材断面
  6
CONTINUOUS
 10
58.48133
 20
9.017627
 11
56.9857
 21
6.42712
  0
LINE
  8
型材断面
  6
CONTINUOUS
 10
58.48133
 20
9.017627
 11
59.97696
 21
6.42712
  0
LINE
  8
型材断面
  6
CONTINUOUS
 10
59.97696
 20
6.42712
 11
56.9857
 21
6.42712
  0
LINE
  8
型材断面
  6
CONTINUOUS
 10
77.778127
 20
33.314422
 11
80.368635
 21
34.810052
  0
LINE
  8
型材断面
  6
CONTINUOUS
 10
77.778127
 20
33.314422
 11
80.368635
 21
31.818793
  0
LINE
  8
型材断面
  6
CONTINUOUS
 10
80.368635
 20
31.818793
 11
80.368635
 21
34.810052
  0
LINE
  8
型材断面
  6
CONTINUOUS
 10
-90.62425
 20
13.31442
 11
-92.790883
 21
13.31442
  0
LINE
  8
型材断面
  6
CONTINUOUS
 10
-90.62425
 20
53.314425
 11
-92.790883
 21
53.314425
  0
LINE
  8
型材断面
  6
CONTINUOUS
 10
-90.62425
 20
13.31442
 11
-90.62425
 21
53.314425
  0
LINE
  8
型材断面
  6
CONTINUOUS
 10
-91.457582
 20
13.31442
 11
-91.457582
 21
53.314425
  0
LINE
  8
型材断面
  6
CONTINUOUS
 10
-91.95755
 20
13.31442
 11
-91.95755
 21
53.314425
  0
LINE
  8
型材断面
  6
CONTINUOUS
 10
-92.790883
 20
13.304725
 11
-92.790883
 21
53.314425
  0
LINE
  8
型材断面
  6
CONTINUOUS
 10
-57.19647
 20
13.31442
 11
-59.363102
 21
13.31442
  0
LINE
  8
型材断面
  6
CONTINUOUS
 10
-57.19647
 20
53.314425
 11
-59.363102
 21
53.314425
  0
LINE
  8
型材断面
  6
CONTINUOUS
 10
-57.19647
 20
13.31442
 11
-57.19647
 21
53.314425
  0
LINE
  8
型材断面
  6
CONTINUOUS
 10
-58.029803
 20
13.31442
 11
-58.029803
 21
53.314425
  0
LINE
  8
型材断面
  6
CONTINUOUS
 10
-58.52977
 20
13.31442
 11
-58.52977
 21
53.314425
  0
LINE
  8
型材断面
  6
CONTINUOUS
 10
-59.363102
 20
13.304725
 11
-59.363102
 21
53.314425
  0
LINE
  8
型材断面
  6
CONTINUOUS
 10
-23.768703
 20
13.31442
 11
-25.935335
 21
13.31442
  0
LINE
  8
型材断面
  6
CONTINUOUS
 10
-23.768703
 20
53.314425
 11
-25.935335
 21
53.314425
  0
LINE
  8
型材断面
  6
CONTINUOUS
 10
-23.768703
 20
13.31442
 11
-23.768703
 21
53.314425
  0
LINE
  8
型材断面
  6
CONTINUOUS
 10
-24.602035
 20
13.31442
 11
-24.602035
 21
53.314425
  0
LINE
  8
型材断面
  6
CONTINUOUS
 10
-25.102002
 20
13.31442
 11
-25.102002
 21
53.314425
  0
LINE
  8
型材断面
  6
CONTINUOUS
 10
-25.935335
 20
13.304725
 11
-25.935335
 21
53.314425
  0
LINE
  8
型材断面
  6
CONTINUOUS
 10
58.159102
 20
12.481087
 11
58.159102
 21
11.647755
  0
LINE
  8
型材断面
  6
CONTINUOUS
 10
58.992438
 20
12.481087
 11
58.992438
 21
11.647755
  0
LINE
  8
型材断面
  6
CONTINUOUS
 10
25.706322
 20
12.481087
 11
25.706322
 21
11.647755
  0
LINE
  8
型材断面
  6
CONTINUOUS
 10
24.872988
 20
12.481087
 11
24.872988
 21
11.647755
  0
LINE
  8
型材断面
  6
CONTINUOUS
 10
-7.72145
 20
12.481087
 11
-7.72145
 21
11.647755
  0
LINE
  8
型材断面
  6
CONTINUOUS
 10
-8.554785
 20
12.481087
 11
-8.554785
 21
11.647755
  0
LINE
  8
型材断面
  6
DASHDOT
 10
42.003545
 20
11.647755
 11
42.003545
 21
54.98109
  0
LINE
  8
型材断面
  6
DASHDOT
 10
8.575765
 20
11.647755
 11
8.575765
 21
54.98109
  0
LINE
  8
型材断面
  6
CONTINUOUS
 10
-7.72145
 20
12.481087
 11
24.872988
 21
12.481087
  0
LINE
  8
型材断面
  6
CONTINUOUS
 10
25.706322
 20
12.481087
 11
58.159102
 21
12.481087
  0
LINE
  8
型材断面
  6
CONTINUOUS
 10
58.992438
 20
12.481087
 11
74.314658
 21
12.481087
  0
LINE
  8
型材断面
  6
CONTINUOUS
 10
40.920245
 20
13.31442
 11
43.086878
 21
13.31442
  0
LINE
  8
型材断面
  6
CONTINUOUS
 10
40.920245
 20
53.314425
 11
43.086878
 21
53.314425
  0
LINE
  8
型材断面
  6
CONTINUOUS
 10
40.920245
 20
13.31442
 11
40.920245
 21
53.314425
  0
LINE
  8
型材断面
  6
CONTINUOUS
 10
41.753578
 20
13.31442
 11
41.753578
 21
53.314425
  0
LINE
  8
型材断面
  6
CONTINUOUS
 10
42.253545
 20
13.31442
 11
42.253545
 21
53.314425
  0
LINE
  8
型材断面
  6
CONTINUOUS
 10
43.086878
 20
13.304725
 11
43.086878
 21
53.314425
  0
LINE
  8
型材断面
  6
CONTINUOUS
 10
7.492465
 20
13.31442
 11
9.659097
 21
13.31442
  0
LINE
  8
型材断面
  6
CONTINUOUS
 10
7.492465
 20
53.314425
 11
9.659097
 21
53.314425
  0
LINE
  8
型材断面
  6
CONTINUOUS
 10
7.492465
 20
13.31442
 11
7.492465
 21
53.314425
  0
LINE
  8
型材断面
  6
CONTINUOUS
 10
8.325798
 20
13.31442
 11
8.325798
 21
53.314425
  0
LINE
  8
型材断面
  6
CONTINUOUS
 10
8.825765
 20
13.31442
 11
8.825765
 21
53.314425
  0
LINE
  8
型材断面
  6
CONTINUOUS
 10
9.659097
 20
13.304725
 11
9.659097
 21
53.314425
  0
LINE
  8
型材断面
  6
CONTINUOUS
 10
-41.14922
 20
12.481087
 11
-8.554785
 21
12.481087
  0
LINE
  8
型材断面
  6
CONTINUOUS
 10
-107.863108
 20
54.147758
 11
-107.863108
 21
54.98109
  0
LINE
  8
型材断面
  6
CONTINUOUS
 10
-108.696443
 20
54.147758
 11
-108.696443
 21
54.98109
  0
LINE
  8
型材断面
  6
CONTINUOUS
 10
-75.410328
 20
54.147758
 11
-75.410328
 21
54.98109
  0
LINE
  8
型材断面
  6
CONTINUOUS
 10
-74.576992
 20
54.147758
 11
-74.576992
 21
54.98109
  0
LINE
  8
型材断面
  6
CONTINUOUS
 10
-41.982555
 20
54.147758
 11
-41.982555
 21
54.98109
  0
LINE
  8
型材断面
  6
CONTINUOUS
 10
-41.14922
 20
54.147758
 11
-41.14922
 21
54.98109
  0
LINE
  8
型材断面
  6
CONTINUOUS
 10
-41.982555
 20
54.147758
 11
-74.576992
 21
54.147758
  0
LINE
  8
型材断面
  6
CONTINUOUS
 10
-75.410328
 20
54.147758
 11
-107.863108
 21
54.147758
  0
LINE
  8
型材断面
  6
CONTINUOUS
 10
-108.696443
 20
54.147758
 11
-124.018663
 21
54.147758
  0
LINE
  8
型材断面
  6
CONTINUOUS
 10
58.159102
 20
54.147758
 11
58.159102
 21
54.98109
  0
LINE
  8
型材断面
  6
CONTINUOUS
 10
58.992438
 20
54.147758
 11
58.992438
 21
54.98109
  0
LINE
  8
型材断面
  6
CONTINUOUS
 10
25.706322
 20
54.147758
 11
25.706322
 21
54.98109
  0
LINE
  8
型材断面
  6
CONTINUOUS
 10
24.872988
 20
54.147758
 11
24.872988
 21
54.98109
  0
LINE
  8
型材断面
  6
CONTINUOUS
 10
-7.72145
 20
54.147758
 11
-7.72145
 21
54.98109
  0
LINE
  8
型材断面
  6
CONTINUOUS
 10
-8.554785
 20
54.147758
 11
-8.554785
 21
54.98109
  0
LINE
  8
型材断面
  6
CONTINUOUS
 10
-7.72145
 20
54.147758
 11
24.872988
 21
54.147758
  0
LINE
  8
型材断面
  6
CONTINUOUS
 10
25.706322
 20
54.147758
 11
58.159102
 21
54.147758
  0
LINE
  8
型材断面
  6
CONTINUOUS
 10
58.992438
 20
54.147758
 11
74.314658
 21
54.147758
  0
LINE
  8
型材断面
  6
CONTINUOUS
 10
-41.14922
 20
54.147758
 11
-8.554785
 21
54.147758
  0
LINE
  8
型材断面
  6
CONTINUOUS
 10
-168.309883
 20
99.488435
 11
-169.805512
 21
96.897927
  0
LINE
  8
型材断面
  6
CONTINUOUS
 10
-168.309883
 20
99.488435
 11
-166.814253
 21
96.897927
  0
LINE
  8
型材断面
  6
CONTINUOUS
 10
-166.814253
 20
96.897927
 11
-169.805512
 21
96.897927
  0
LINE
  8
型材断面
  6
CONTINUOUS
 10
-174.33247
 20
95.959332
 11
-128.090693
 21
95.959332
  0
LINE
  8
型材断面
  6
CONTINUOUS
 10
-174.33247
 20
89.881128
 11
-128.090693
 21
89.881128
  0
LINE
  8
型材断面
  6
CONTINUOUS
 10
128.565532
 20
-20.13787
 11
149.703108
 21
-20.13787
  0
POLYLINE
  8
ガラス
  6
CONTINUOUS
 66
     1
 70
     1
  0
VERTEX
  8
ガラス
 10
162.380012
 20
-39.29929
  0
VERTEX
  8
ガラス
 10
130.18668
 20
-39.29929
  0
VERTEX
  8
ガラス
 10
130.18668
 20
-81.965955
  0
VERTEX
  8
ガラス
 10
162.380012
 20
-81.965955
  0
SEQEND
  0
TEXT
  7
TextStyle03
  8
文字
  6
CONTINUOUS
 10
78.1
 20
125.25
  1
シリーズ：ＳＴＦＦＫＬ
 40
5.0
 72
     5
 11
139.35
 21
125.25
  0
TEXT
  7
TextStyle03
  8
文字
  6
CONTINUOUS
 10
78.1
 20
119.625
  1
　　　　　（固定）1300×6000タイプ
 40
5.0
 72
     5
 11
173.1
 21
119.625
  0
TEXT
  7
TextStyle03
  8
文字
  6
CONTINUOUS
 10
78.1
 20
114.0
  1
図面名　：外観姿図
 40
5.0
 72
     5
 11
128.1
 21
114.0
  0
TEXT
  7
TextStyle03
  8
文字
  6
CONTINUOUS
 10
78.1
 20
108.375
  1
　　　　　　
 40
5.0
 72
     5
 11
111.225
 21
108.375
  0
TEXT
  7
TextStyle03
  8
文字
  6
CONTINUOUS
 10
-162.425
 20
22.225
  1
アンカーピッチ
 40
3.0
 50
90.0
 72
     5
 11
-162.425
 21
45.475
  0
TEXT
  7
TextStyle03
  8
文字
  6
CONTINUOUS
 10
-111.425
 20
92.125
  1
アンカーピッチ
 40
3.0
 72
     5
 11
-88.175
 21
92.125
  0
TEXT
  7
TextStyle03
  8
文字
  6
CONTINUOUS
 10
-165.5
 20
97.1
  1
は排水穴位置を示す
 40
3.0
 72
     5
 11
-135.5
 21
97.1
  0
TEXT
  7
TextStyle03
  8
文字
  6
CONTINUOUS
 10
-169.225
 20
90.8
  1
アンカー数量　２２ヶ所
 40
3.0
 72
     5
 11
-132.475
 21
90.8
  0
TEXT
  7
TextStyle03
  8
文字
  6
CONTINUOUS
 10
148.85
 20
-79.425
  1
×６枚
 40
3.0
 72
     5
 11
158.6
 21
-79.425
  0
TEXT
  7
TextStyle03
  8
文字
  6
CONTINUOUS
 10
130.6
 20
-18.65
  1
ガラス寸法
 40
3.0
 72
     5
 11
147.1
 21
-18.65
  0
INSERT
  2
*DIM_0006
  8
寸法
  6
CONTINUOUS
 10
0.0
 20
0.0
  0
INSERT
  2
*DIM_0007
  8
寸法
  6
CONTINUOUS
 10
0.0
 20
0.0
  0
INSERT
  2
*DIM_0008
  8
寸法
  6
CONTINUOUS
 10
0.0
 20
0.0
  0
INSERT
  2
*DIM_0009
  8
寸法
  6
CONTINUOUS
 10
0.0
 20
0.0
  0
INSERT
  2
*DIM_0010
  8
寸法
  6
CONTINUOUS
 10
0.0
 20
0.0
  0
INSERT
  2
*DIM_0011
  8
寸法
  6
CONTINUOUS
 10
0.0
 20
0.0
  0
INSERT
  2
*DIM_0012
  8
寸法
  6
CONTINUOUS
 10
0.0
 20
0.0
  0
INSERT
  2
*DIM_0013
  8
寸法
  6
CONTINUOUS
 10
0.0
 20
0.0
  0
INSERT
  2
*DIM_0014
  8
寸法
  6
CONTINUOUS
 10
0.0
 20
0.0
  0
INSERT
  2
*DIM_0015
  8
寸法
  6
CONTINUOUS
 10
0.0
 20
0.0
  0
INSERT
  2
*DIM_0016
  8
寸法
  6
CONTINUOUS
 10
0.0
 20
0.0
  0
INSERT
  2
*DIM_0017
  8
寸法
  6
CONTINUOUS
 10
0.0
 20
0.0
  0
INSERT
  2
*DIM_0018
  8
寸法
  6
CONTINUOUS
 10
0.0
 20
0.0
  0
INSERT
  2
*DIM_0019
  8
寸法
  6
CONTINUOUS
 10
0.0
 20
0.0
  0
INSERT
  2
*DIM_0020
  8
寸法
  6
CONTINUOUS
 10
0.0
 20
0.0
  0
INSERT
  2
*DIM_0021
  8
寸法
  6
CONTINUOUS
 10
0.0
 20
0.0
  0
INSERT
  2
*DIM_0022
  8
寸法
  6
CONTINUOUS
 10
0.0
 20
0.0
  0
INSERT
  2
*DIM_0023
  8
寸法
  6
CONTINUOUS
 10
0.0
 20
0.0
  0
INSERT
  2
*DIM_0024
  8
寸法
  6
CONTINUOUS
 10
0.0
 20
0.0
  0
INSERT
  2
*DIM_0025
  8
寸法
  6
CONTINUOUS
 10
0.0
 20
0.0
  0
INSERT
  2
*DIM_0026
  8
寸法
  6
CONTINUOUS
 10
0.0
 20
0.0
  0
LINE
  8
曲げ物
  6
CONTINUOUS
 10
-73.872245
 20
35.11718
 11
-77.567558
 21
31.421868
  0
LINE
  8
曲げ物
  6
CONTINUOUS
 10
-74.575715
 20
33.58107
 11
-76.031445
 21
32.12534
  0
LINE
  8
曲げ物
  6
CONTINUOUS
 10
-75.408355
 20
34.41371
 11
-76.864085
 21
32.95798
  0
LINE
  8
曲げ物
  6
CONTINUOUS
 10
-40.527578
 20
35.11718
 11
-44.22289
 21
31.421868
  0
LINE
  8
曲げ物
  6
CONTINUOUS
 10
-41.231048
 20
33.58107
 11
-42.686777
 21
32.12534
  0
LINE
  8
曲げ物
  6
CONTINUOUS
 10
-42.063688
 20
34.41371
 11
-43.519417
 21
32.95798
  0
LINE
  8
曲げ物
  6
CONTINUOUS
 10
-107.182913
 20
35.11718
 11
-110.878225
 21
31.421868
  0
LINE
  8
曲げ物
  6
CONTINUOUS
 10
-107.886383
 20
33.58107
 11
-109.342112
 21
32.12534
  0
LINE
  8
曲げ物
  6
CONTINUOUS
 10
-108.719023
 20
34.41371
 11
-110.174752
 21
32.95798
  0
LINE
  8
曲げ物
  6
CONTINUOUS
 10
-7.18291
 20
35.11718
 11
-10.878222
 21
31.421868
  0
LINE
  8
曲げ物
  6
CONTINUOUS
 10
-7.88638
 20
33.58107
 11
-9.34211
 21
32.12534
  0
LINE
  8
曲げ物
  6
CONTINUOUS
 10
-8.71902
 20
34.41371
 11
-10.17475
 21
32.95798
  0
LINE
  8
曲げ物
  6
CONTINUOUS
 10
26.161758
 20
35.11718
 11
22.466445
 21
31.421868
  0
LINE
  8
曲げ物
  6
CONTINUOUS
 10
25.458288
 20
33.58107
 11
24.002557
 21
32.12534
  0
LINE
  8
曲げ物
  6
CONTINUOUS
 10
24.625648
 20
34.41371
 11
23.169917
 21
32.95798
  0
LINE
  8
曲げ物
  6
CONTINUOUS
 10
59.506423
 20
35.11718
 11
55.81111
 21
31.421868
  0
LINE
  8
曲げ物
  6
CONTINUOUS
 10
58.802952
 20
33.58107
 11
57.347222
 21
32.12534
  0
LINE
  8
曲げ物
  6
CONTINUOUS
 10
57.970312
 20
34.41371
 11
56.514582
 21
32.95798
  0
LINE
  8
St
  6
CONTINUOUS
 62
    47
 10
171.63993
 20
9.49094
 11
171.63993
 21
9.04094
  0
LINE
  8
St
  6
CONTINUOUS
 62
    47
 10
171.63993
 20
57.137903
 11
171.63993
 21
57.587903
  0
LINE
  8
St
  6
CONTINUOUS
 62
    47
 10
77.304808
 20
-84.510843
 11
77.754808
 21
-84.510843
  0
LINE
  8
St
  6
CONTINUOUS
 62
    47
 10
-127.008807
 20
-84.510843
 11
-127.458807
 21
-84.510843
  0
ENDSEC
  0
EOF
