  0
SECTION
  2
HEADER
  9
$EXTMIN
 10
-210.0
 20
-148.5
  9
$EXTMAX
 10
210.0
 20
148.5
  9
$PDMODE
 70
    32
  9
$PDSIZE
 40
1.5
  9
$LTSCALE
 40
10.0
  0
ENDSEC
  0
SECTION
  2
TABLES
  0
TABLE
  2
LTYPE
 70
    15
  0
LTYPE
  2
CONTINUOUS
 70
    64
  3
実線
 72
    65
 73
     0
 40
0.0
  0
LTYPE
  2
DASHED
 70
    64
  3
破線A
 72
    65
 73
     2
 40
0.6
 49
0.4
 49
-0.2
  0
LTYPE
  2
DASHEDX2
 70
    64
  3
破線B
 72
    65
 73
     2
 40
1.3
 49
0.9
 49
-0.4
  0
LTYPE
  2
DASHDOT
 70
    64
  3
１点鎖線A
 72
    65
 73
     4
 40
0.5375
 49
0.375
 49
-0.05
 49
0.0625
 49
-0.05
  0
LTYPE
  2
DASHDOTX2
 70
    64
  3
１点鎖線B
 72
    65
 73
     4
 40
1.075
 49
0.75
 49
-0.1
 49
0.125
 49
-0.1
  0
LTYPE
  2
DIVIDE2
 70
    64
  3
２点鎖線A
 72
    65
 73
     6
 40
0.5125
 49
0.3
 49
-0.0375
 49
0.05
 49
-0.0375
 49
0.05
 49
-0.0375
  0
LTYPE
  2
DIVIDE
 70
    64
  3
２点鎖線B
 72
    65
 73
     6
 40
1.05
 49
0.55
 49
-0.1
 49
0.1
 49
-0.1
 49
0.1
 49
-0.1
  0
LTYPE
  2
DOT
 70
    64
  3
点線A
 72
    65
 73
     2
 40
0.1125
 49
0.0625
 49
-0.05
  0
LTYPE
  2
DOTX2
 70
    64
  3
点線B
 72
    65
 73
     2
 40
0.275
 49
0.15
 49
-0.125
  0
LTYPE
  2
CONTINUOUS
 70
    64
  3
実線
 72
    65
 73
     0
 40
0.0
  0
LTYPE
  2
CONTINUOUS
 70
    64
  3
実線
 72
    65
 73
     0
 40
0.0
  0
LTYPE
  2
CONTINUOUS
 70
    64
  3
実線
 72
    65
 73
     0
 40
0.0
  0
LTYPE
  2
CONTINUOUS
 70
    64
  3
実線
 72
    65
 73
     0
 40
0.0
  0
LTYPE
  2
CONTINUOUS
 70
    64
  3
実線
 72
    65
 73
     0
 40
0.0
  0
LTYPE
  2
CONTINUOUS
 70
    64
  3
実線
 72
    65
 73
     0
 40
0.0
  0
ENDTAB
  0
TABLE
  2
LAYER
 70
    35
  0
LAYER
  2
通り芯
 70
     0
 62
    15
  6
CONTINUOUS
  0
LAYER
  2
補助線
 70
     0
 62
    16
  6
DOT
  0
LAYER
  2
躯体
 70
     0
 62
    31
  6
CONTINUOUS
  0
LAYER
  2
型材
 70
     0
 62
    32
  6
CONTINUOUS
  0
LAYER
  2
型材断面
 70
     0
 62
    47
  6
CONTINUOUS
  0
LAYER
  2
ガラス
 70
     0
 62
    48
  6
CONTINUOUS
  0
LAYER
  2
ゴム等
 70
     0
 62
    63
  6
CONTINUOUS
  0
LAYER
  2
ボルト／ビス
 70
     0
 62
    64
  6
CONTINUOUS
  0
LAYER
  2
文字
 70
     0
 62
    79
  6
CONTINUOUS
  0
LAYER
  2
寸法
 70
     0
 62
    80
  6
CONTINUOUS
  0
LAYER
  2
ﾊｯﾁﾝｸﾞ
 70
     0
 62
    95
  6
CONTINUOUS
  0
LAYER
  2
別途部材
 70
     0
 62
    96
  6
CONTINUOUS
  0
LAYER
  2
曲げ物
 70
     0
 62
   111
  6
CONTINUOUS
  0
LAYER
  2
鉄骨等
 70
     0
 62
   112
  6
CONTINUOUS
  0
LAYER
  2
St
 70
     0
 62
   127
  6
CONTINUOUS
  0
LAYER
  2
その他部品等
 70
     0
 62
   128
  6
CONTINUOUS
  0
LAYER
  2
ｶﾞｽｹｯﾄ
 70
     0
 62
   143
  6
CONTINUOUS
  0
LAYER
  2
ｽｹｯﾁ
 70
     0
 62
    14
  6
CONTINUOUS
  0
LAYER
  2
0
 70
     0
 62
    17
  6
CONTINUOUS
  0
LAYER
  2
1
 70
     0
 62
    30
  6
CONTINUOUS
  0
LAYER
  2
4
 70
     0
 62
    33
  6
CONTINUOUS
  0
LAYER
  2
ﾚｲﾔ3
 70
     0
 62
    46
  6
CONTINUOUS
  0
LAYER
  2
外形線
 70
     0
 62
    49
  6
CONTINUOUS
  0
LAYER
  2
部品
 70
     0
 62
    14
  6
CONTINUOUS
  0
LAYER
  2
サッシ芯
 70
     0
 62
    17
  6
DASHDOTX2
  0
LAYER
  2
寸法線
 70
     0
 62
    62
  6
CONTINUOUS
  0
LAYER
  2
姿図外形線
 70
     0
 62
    65
  6
CONTINUOUS
  0
LAYER
  2
姿補助線
 70
     0
 62
    30
  6
CONTINUOUS
  0
LAYER
  2
透視線
 70
     0
 62
    78
  6
DOT
  0
LAYER
  2
用紙
 70
     0
 62
    81
  6
CONTINUOUS
  0
LAYER
  2
実線図枠
 70
     0
 62
    94
  6
CONTINUOUS
  0
LAYER
  2
補助図枠
 70
     0
 62
    97
  6
CONTINUOUS
  0
LAYER
  2
建具記号
 70
     0
 62
   110
  6
CONTINUOUS
  0
LAYER
  2
補助文字
 70
     0
 62
   113
  6
CONTINUOUS
  0
LAYER
  2
SUNPO
 70
     0
 62
     6
  6
CONTINUOUS
  0
ENDTAB
  0
TABLE
  2
STYLE
 70
    10
  0
STYLE
  2
STANDARD
 70
     0
 40
1.0
 41
1.0
 42
1.0
 50
0.0
 71
     0
  3
TXT
  4
BIGFONT
  0
STYLE
  2
TATE
 70
     4
 40
1.0
 41
1.0
 42
1.0
 50
0.0
 71
     0
  3
TXT
  4
BIGFONT
  0
STYLE
  2
TextStyle03
 70
     0
 40
1.0
 41
1.0
 42
1.0
 50
0.0
 71
     0
  3
MONOTXT
  4
BIGFONT
  0
STYLE
  2
TextStyle04
 70
     0
 40
1.0
 41
1.0
 42
1.0
 50
0.0
 71
     0
  3
MONOTXT
  4
BIGFONT
  0
STYLE
  2
TextStyle05
 70
     0
 40
1.0
 41
1.0
 42
1.0
 50
0.0
 71
     0
  3
MONOTXT
  4
BIGFONT
  0
STYLE
  2
TextStyle06
 70
     0
 40
1.0
 41
1.0
 42
1.0
 50
0.0
 71
     0
  3
MONOTXT
  4
BIGFONT
  0
STYLE
  2
TextStyle07
 70
     0
 40
1.0
 41
1.0
 42
1.0
 50
0.0
 71
     0
  3
MONOTXT
  4
BIGFONT
  0
STYLE
  2
TextStyle08
 70
     0
 40
1.0
 41
1.0
 42
1.0
 50
0.0
 71
     0
  3
MONOTXT
  4
BIGFONT
  0
STYLE
  2
TextStyle09
 70
     0
 40
1.0
 41
1.0
 42
1.0
 50
0.0
 71
     0
  3
MONOTXT
  4
BIGFONT
  0
STYLE
  2
TextStyle10
 70
     0
 40
1.0
 41
1.0
 42
1.0
 50
0.0
 71
     0
  3
MONOTXT
  4
BIGFONT
  0
ENDTAB
  0
ENDSEC
  0
SECTION
  2
BLOCKS
  0
BLOCK
  2
*GRP_0001
 70
    65
 10
0.0
 20
0.0
  0
LINE
  8
型材断面
  6
CONTINUOUS
 10
195.0
 20
133.5
 11
195.0
 21
-133.5
  0
LINE
  8
型材断面
  6
CONTINUOUS
 10
195.0
 20
-133.5
 11
-185.0
 21
-133.5
  0
LINE
  8
型材断面
  6
CONTINUOUS
 10
-185.0
 20
-133.5
 11
-185.0
 21
133.5
  0
LINE
  8
型材断面
  6
CONTINUOUS
 10
195.0
 20
133.5
 11
-185.0
 21
133.5
  0
LINE
  8
型材断面
  6
CONTINUOUS
 10
145.0
 20
-133.5
 11
145.0
 21
-118.5
  0
LINE
  8
型材断面
  6
CONTINUOUS
 10
195.0
 20
-118.5
 11
145.0
 21
-118.5
  0
ENDBLK
  0
BLOCK
  2
*GRP_0002
 70
    65
 10
0.0
 20
0.0
  0
LINE
  8
ボルト／ビス
  6
CONTINUOUS
 10
-30.412432
 20
-71.217895
 11
-30.412432
 21
-71.117895
  0
LINE
  8
ボルト／ビス
  6
CONTINUOUS
 10
-30.412432
 20
-71.117895
 11
-31.51243
 21
-71.117895
  0
LINE
  8
ボルト／ビス
  6
CONTINUOUS
 10
-31.51243
 20
-71.117895
 11
-31.51243
 21
-71.217893
  0
LINE
  8
ボルト／ビス
  6
CONTINUOUS
 10
-30.412432
 20
-71.217895
 11
-31.51243
 21
-71.217893
  0
LINE
  8
ボルト／ビス
  6
CONTINUOUS
 10
-30.512432
 20
-71.067895
 11
-30.512432
 21
-71.117895
  0
LINE
  8
ボルト／ビス
  6
CONTINUOUS
 10
-30.512432
 20
-71.067895
 11
-31.41243
 21
-71.067893
  0
LINE
  8
ボルト／ビス
  6
CONTINUOUS
 10
-31.41243
 20
-71.067893
 11
-31.41243
 21
-71.117893
  0
LINE
  8
ボルト／ビス
  6
CONTINUOUS
 62
    64
 10
-30.721868
 20
-70.767893
 11
-30.673758
 21
-70.785405
  0
ARC
  8
ボルト／ビス
  6
CONTINUOUS
 62
    64
 10
-30.745927
 20
-70.925365
 40
0.157467
 50
89.999978
 51
117.278011
  0
ARC
  8
ボルト／ビス
  6
CONTINUOUS
 62
    64
 10
-30.962433
 20
-71.371499
 40
0.603602
 50
76.164993
 51
103.834976
  0
LINE
  8
ボルト／ビス
  6
CONTINUOUS
 62
    64
 10
-31.202992
 20
-70.767893
 11
-31.251108
 21
-70.785405
  0
ARC
  8
ボルト／ビス
  6
CONTINUOUS
 62
    64
 10
-31.178939
 20
-70.925364
 40
0.157467
 50
62.721945
 51
89.999978
  0
LINE
  8
ボルト／ビス
  6
CONTINUOUS
 62
    64
 10
-30.721868
 20
-70.767893
 11
-31.202992
 21
-70.767893
  0
LINE
  8
ボルト／ビス
  6
CONTINUOUS
 62
    64
 10
-31.251108
 20
-70.785405
 11
-31.251108
 21
-70.967893
  0
LINE
  8
ボルト／ビス
  6
CONTINUOUS
 62
    64
 10
-31.106768
 20
-70.785408
 11
-31.106768
 21
-70.967895
  0
LINE
  8
ボルト／ビス
  6
CONTINUOUS
 62
    64
 10
-30.673758
 20
-70.785405
 11
-30.673758
 21
-70.967893
  0
LINE
  8
ボルト／ビス
  6
CONTINUOUS
 62
    64
 10
-30.818095
 20
-70.785408
 11
-30.818095
 21
-70.967893
  0
LINE
  8
ボルト／ビス
  6
CONTINUOUS
 10
-30.673758
 20
-70.967893
 11
-31.251108
 21
-70.967893
  0
LINE
  8
ボルト／ビス
  6
CONTINUOUS
 10
-30.662432
 20
-70.967893
 11
-30.662432
 21
-71.067895
  0
LINE
  8
ボルト／ビス
  6
CONTINUOUS
 10
-30.662432
 20
-70.967893
 11
-31.26243
 21
-70.967893
  0
LINE
  8
ボルト／ビス
  6
CONTINUOUS
 10
-31.26243
 20
-70.967893
 11
-31.26243
 21
-71.067895
  0
LINE
  8
ボルト／ビス
  6
CONTINUOUS
 62
    64
 10
-31.11243
 20
-71.217893
 11
-31.11243
 21
-71.217895
  0
ENDBLK
  0
BLOCK
  2
*DIM_0003
 70
    65
 10
0.0
 20
0.0
  0
LINE
  8
寸法
  6
CONTINUOUS
 10
-28.052215
 20
-68.767642
 11
-28.052215
 21
-43.640747
  0
LINE
  8
寸法
  6
CONTINUOUS
 10
-31.962435
 20
-43.640747
 11
-28.052215
 21
-43.640747
  0
POINT
  8
寸法
 10
-31.962435
 20
-43.640747
  0
POINT
  8
寸法
 10
-28.052215
 20
-43.640747
  0
TEXT
  7
TextStyle03
  8
寸法
  6
CONTINUOUS
 10
-26.55625
 20
-43.275
  1
78.2
 40
3.0
 72
     5
 11
-19.99375
 21
-43.275
  0
ENDBLK
  0
BLOCK
  2
*GRP_0004
 70
    65
 10
0.0
 20
0.0
  0
LINE
  8
ボルト／ビス
  6
CONTINUOUS
 10
-78.512438
 20
-71.217895
 11
-78.512438
 21
-71.117895
  0
LINE
  8
ボルト／ビス
  6
CONTINUOUS
 10
-78.512438
 20
-71.117895
 11
-77.41244
 21
-71.117895
  0
LINE
  8
ボルト／ビス
  6
CONTINUOUS
 10
-77.41244
 20
-71.117895
 11
-77.41244
 21
-71.217893
  0
LINE
  8
ボルト／ビス
  6
CONTINUOUS
 10
-78.512438
 20
-71.217895
 11
-77.41244
 21
-71.217893
  0
LINE
  8
ボルト／ビス
  6
CONTINUOUS
 10
-78.412438
 20
-71.067895
 11
-78.412438
 21
-71.117895
  0
LINE
  8
ボルト／ビス
  6
CONTINUOUS
 10
-78.412438
 20
-71.067895
 11
-77.51244
 21
-71.067893
  0
LINE
  8
ボルト／ビス
  6
CONTINUOUS
 10
-77.51244
 20
-71.067893
 11
-77.51244
 21
-71.117893
  0
LINE
  8
ボルト／ビス
  6
CONTINUOUS
 62
    64
 10
-78.203002
 20
-70.767893
 11
-78.251113
 21
-70.785405
  0
ARC
  8
ボルト／ビス
  6
CONTINUOUS
 62
    64
 10
-78.178943
 20
-70.925365
 40
0.157467
 50
62.721989
 51
90.000022
  0
ARC
  8
ボルト／ビス
  6
CONTINUOUS
 62
    64
 10
-77.962437
 20
-71.371499
 40
0.603602
 50
76.165024
 51
103.835007
  0
LINE
  8
ボルト／ビス
  6
CONTINUOUS
 62
    64
 10
-77.721878
 20
-70.767893
 11
-77.673762
 21
-70.785405
  0
ARC
  8
ボルト／ビス
  6
CONTINUOUS
 62
    64
 10
-77.745931
 20
-70.925364
 40
0.157467
 50
90.000022
 51
117.278055
  0
LINE
  8
ボルト／ビス
  6
CONTINUOUS
 62
    64
 10
-78.203002
 20
-70.767893
 11
-77.721878
 21
-70.767893
  0
LINE
  8
ボルト／ビス
  6
CONTINUOUS
 62
    64
 10
-77.673762
 20
-70.785405
 11
-77.673762
 21
-70.967893
  0
LINE
  8
ボルト／ビス
  6
CONTINUOUS
 62
    64
 10
-77.818102
 20
-70.785408
 11
-77.818102
 21
-70.967895
  0
LINE
  8
ボルト／ビス
  6
CONTINUOUS
 62
    64
 10
-78.251113
 20
-70.785405
 11
-78.251113
 21
-70.967893
  0
LINE
  8
ボルト／ビス
  6
CONTINUOUS
 62
    64
 10
-78.106775
 20
-70.785408
 11
-78.106775
 21
-70.967893
  0
LINE
  8
ボルト／ビス
  6
CONTINUOUS
 10
-78.251113
 20
-70.967893
 11
-77.673762
 21
-70.967893
  0
LINE
  8
ボルト／ビス
  6
CONTINUOUS
 10
-78.262438
 20
-70.967893
 11
-78.262438
 21
-71.067895
  0
LINE
  8
ボルト／ビス
  6
CONTINUOUS
 10
-78.262438
 20
-70.967893
 11
-77.66244
 21
-70.967893
  0
LINE
  8
ボルト／ビス
  6
CONTINUOUS
 10
-77.66244
 20
-70.967893
 11
-77.66244
 21
-71.067895
  0
LINE
  8
ボルト／ビス
  6
CONTINUOUS
 62
    64
 10
-77.81244
 20
-71.217893
 11
-77.81244
 21
-71.217895
  0
ENDBLK
  0
BLOCK
  2
*DIM_0005
 70
    65
 10
0.0
 20
0.0
  0
LINE
  8
寸法
  6
CONTINUOUS
 10
-80.872655
 20
-68.767642
 11
-80.872655
 21
-43.640747
  0
LINE
  8
寸法
  6
CONTINUOUS
 10
-76.962435
 20
-43.640747
 11
-80.872655
 21
-43.640747
  0
POINT
  8
寸法
 10
-76.962435
 20
-43.640747
  0
POINT
  8
寸法
 10
-80.872655
 20
-43.640747
  0
TEXT
  7
TextStyle03
  8
寸法
  6
CONTINUOUS
 10
-88.95625
 20
-43.275
  1
78.2
 40
3.0
 72
     5
 11
-82.39375
 21
-43.275
  0
ENDBLK
  0
BLOCK
  2
*DIM_0006
 70
    65
 10
0.0
 20
0.0
  0
LINE
  8
寸法
  6
CONTINUOUS
 10
-23.052215
 20
-74.517642
 11
-9.915827
 21
-74.517642
  0
LINE
  8
寸法
  6
CONTINUOUS
 10
-26.962435
 20
-70.467897
 11
-9.915827
 21
-70.467897
  0
LINE
  8
寸法
  6
CONTINUOUS
 10
-9.915827
 20
-74.517642
 11
-9.915827
 21
-70.467897
  0
POINT
  8
寸法
 10
-9.915827
 20
-74.517642
  0
POINT
  8
寸法
 10
-9.915827
 20
-70.467897
  0
TEXT
  7
TextStyle03
  8
寸法
  6
CONTINUOUS
 10
-6.55
 20
-74.09375
  1
81
 40
3.0
 50
90.0
 72
     5
 11
-6.55
 21
-70.90625
  0
ENDBLK
  0
BLOCK
  2
*DIM_0007
 70
    65
 10
0.0
 20
0.0
  0
LINE
  8
寸法
  6
CONTINUOUS
 10
-31.962435
 20
-43.640747
 11
-76.962435
 21
-43.640747
  0
POINT
  8
寸法
 10
-31.962435
 20
-43.640747
  0
POINT
  8
寸法
 10
-76.962435
 20
-43.640747
  0
TEXT
  7
TextStyle03
  8
寸法
  6
CONTINUOUS
 10
-65.35
 20
-43.275
  1
呼称寸法　900
 40
3.0
 72
     5
 11
-43.6
 21
-43.275
  0
ENDBLK
  0
BLOCK
  2
*GRP_0008
 70
    65
 10
0.0
 20
0.0
  0
INSERT
  2
*GRP_0020
  8
補助線
  6
CONTINUOUS
 10
0.0
 20
0.0
  0
LINE
  8
ボルト／ビス
  6
CONTINUOUS
 10
-69.462435
 20
21.566845
 11
-69.212435
 21
21.711182
  0
LINE
  8
ボルト／ビス
  6
CONTINUOUS
 10
-69.462435
 20
21.566845
 11
-69.712435
 21
21.711182
  0
LINE
  8
ボルト／ビス
  6
CONTINUOUS
 10
-69.212435
 20
21.999857
 11
-69.462435
 21
22.144195
  0
LINE
  8
ボルト／ビス
  6
CONTINUOUS
 10
-69.712435
 20
21.999857
 11
-69.462435
 21
22.144195
  0
CIRCLE
  8
ボルト／ビス
  6
CONTINUOUS
 10
-69.462435
 20
21.85552
 40
0.25
  0
LINE
  8
ボルト／ビス
  6
CONTINUOUS
 10
-69.712435
 20
21.711182
 11
-69.712435
 21
21.999857
  0
LINE
  8
ボルト／ビス
  6
CONTINUOUS
 10
-69.212435
 20
21.999857
 11
-69.212435
 21
21.711182
  0
ENDBLK
  0
BLOCK
  2
*GRP_0009
 70
    65
 10
0.0
 20
0.0
  0
INSERT
  2
*GRP_0021
  8
補助線
  6
CONTINUOUS
 10
0.0
 20
0.0
  0
LINE
  8
ボルト／ビス
  6
CONTINUOUS
 10
-54.462435
 20
21.566845
 11
-54.212435
 21
21.711182
  0
LINE
  8
ボルト／ビス
  6
CONTINUOUS
 10
-54.462435
 20
21.566845
 11
-54.712435
 21
21.711182
  0
LINE
  8
ボルト／ビス
  6
CONTINUOUS
 10
-54.212435
 20
21.999857
 11
-54.462435
 21
22.144195
  0
LINE
  8
ボルト／ビス
  6
CONTINUOUS
 10
-54.712435
 20
21.999857
 11
-54.462435
 21
22.144195
  0
CIRCLE
  8
ボルト／ビス
  6
CONTINUOUS
 10
-54.462435
 20
21.85552
 40
0.25
  0
LINE
  8
ボルト／ビス
  6
CONTINUOUS
 10
-54.712435
 20
21.711182
 11
-54.712435
 21
21.999857
  0
LINE
  8
ボルト／ビス
  6
CONTINUOUS
 10
-54.212435
 20
21.999857
 11
-54.212435
 21
21.711182
  0
ENDBLK
  0
BLOCK
  2
*GRP_0010
 70
    65
 10
0.0
 20
0.0
  0
INSERT
  2
*GRP_0022
  8
補助線
  6
CONTINUOUS
 10
0.0
 20
0.0
  0
LINE
  8
ボルト／ビス
  6
CONTINUOUS
 10
-78.25111
 20
30.35552
 11
-78.106772
 21
30.60552
  0
LINE
  8
ボルト／ビス
  6
CONTINUOUS
 10
-78.25111
 20
30.35552
 11
-78.106772
 21
30.10552
  0
LINE
  8
ボルト／ビス
  6
CONTINUOUS
 10
-77.818098
 20
30.60552
 11
-77.67376
 21
30.35552
  0
LINE
  8
ボルト／ビス
  6
CONTINUOUS
 10
-77.818098
 20
30.10552
 11
-77.67376
 21
30.35552
  0
CIRCLE
  8
ボルト／ビス
  6
CONTINUOUS
 10
-77.962435
 20
30.35552
 40
0.25
  0
LINE
  8
ボルト／ビス
  6
CONTINUOUS
 10
-78.106772
 20
30.10552
 11
-77.818098
 21
30.10552
  0
LINE
  8
ボルト／ビス
  6
CONTINUOUS
 10
-77.818098
 20
30.60552
 11
-78.106772
 21
30.60552
  0
ENDBLK
  0
BLOCK
  2
*GRP_0011
 70
    65
 10
0.0
 20
0.0
  0
INSERT
  2
*GRP_0023
  8
補助線
  6
CONTINUOUS
 10
0.0
 20
0.0
  0
LINE
  8
ボルト／ビス
  6
CONTINUOUS
 10
-78.25111
 20
45.35552
 11
-78.106772
 21
45.60552
  0
LINE
  8
ボルト／ビス
  6
CONTINUOUS
 10
-78.25111
 20
45.35552
 11
-78.106772
 21
45.10552
  0
LINE
  8
ボルト／ビス
  6
CONTINUOUS
 10
-77.818098
 20
45.60552
 11
-77.67376
 21
45.35552
  0
LINE
  8
ボルト／ビス
  6
CONTINUOUS
 10
-77.818098
 20
45.10552
 11
-77.67376
 21
45.35552
  0
CIRCLE
  8
ボルト／ビス
  6
CONTINUOUS
 10
-77.962435
 20
45.35552
 40
0.25
  0
LINE
  8
ボルト／ビス
  6
CONTINUOUS
 10
-78.106772
 20
45.10552
 11
-77.818098
 21
45.10552
  0
LINE
  8
ボルト／ビス
  6
CONTINUOUS
 10
-77.818098
 20
45.60552
 11
-78.106772
 21
45.60552
  0
ENDBLK
  0
BLOCK
  2
*GRP_0012
 70
    65
 10
0.0
 20
0.0
  0
INSERT
  2
*GRP_0024
  8
補助線
  6
CONTINUOUS
 10
0.0
 20
0.0
  0
LINE
  8
ボルト／ビス
  6
CONTINUOUS
 10
-39.462435
 20
21.566845
 11
-39.712435
 21
21.711182
  0
LINE
  8
ボルト／ビス
  6
CONTINUOUS
 10
-39.462435
 20
21.566845
 11
-39.212435
 21
21.711182
  0
LINE
  8
ボルト／ビス
  6
CONTINUOUS
 10
-39.712435
 20
21.999857
 11
-39.462435
 21
22.144195
  0
LINE
  8
ボルト／ビス
  6
CONTINUOUS
 10
-39.212435
 20
21.999857
 11
-39.462435
 21
22.144195
  0
CIRCLE
  8
ボルト／ビス
  6
CONTINUOUS
 10
-39.462435
 20
21.85552
 40
0.25
  0
LINE
  8
ボルト／ビス
  6
CONTINUOUS
 10
-39.212435
 20
21.711182
 11
-39.212435
 21
21.999857
  0
LINE
  8
ボルト／ビス
  6
CONTINUOUS
 10
-39.712435
 20
21.999857
 11
-39.712435
 21
21.711182
  0
ENDBLK
  0
BLOCK
  2
*GRP_0013
 70
    65
 10
0.0
 20
0.0
  0
INSERT
  2
*GRP_0025
  8
補助線
  6
CONTINUOUS
 10
0.0
 20
0.0
  0
LINE
  8
ボルト／ビス
  6
CONTINUOUS
 10
-30.67376
 20
30.35552
 11
-30.818098
 21
30.60552
  0
LINE
  8
ボルト／ビス
  6
CONTINUOUS
 10
-30.67376
 20
30.35552
 11
-30.818098
 21
30.10552
  0
LINE
  8
ボルト／ビス
  6
CONTINUOUS
 10
-31.106772
 20
30.60552
 11
-31.25111
 21
30.35552
  0
LINE
  8
ボルト／ビス
  6
CONTINUOUS
 10
-31.106772
 20
30.10552
 11
-31.25111
 21
30.35552
  0
CIRCLE
  8
ボルト／ビス
  6
CONTINUOUS
 10
-30.962435
 20
30.35552
 40
0.25
  0
LINE
  8
ボルト／ビス
  6
CONTINUOUS
 10
-30.818098
 20
30.10552
 11
-31.106772
 21
30.10552
  0
LINE
  8
ボルト／ビス
  6
CONTINUOUS
 10
-31.106772
 20
30.60552
 11
-30.818098
 21
30.60552
  0
ENDBLK
  0
BLOCK
  2
*GRP_0014
 70
    65
 10
0.0
 20
0.0
  0
INSERT
  2
*GRP_0026
  8
補助線
  6
CONTINUOUS
 10
0.0
 20
0.0
  0
LINE
  8
ボルト／ビス
  6
CONTINUOUS
 10
-30.67376
 20
45.35552
 11
-30.818098
 21
45.60552
  0
LINE
  8
ボルト／ビス
  6
CONTINUOUS
 10
-30.67376
 20
45.35552
 11
-30.818098
 21
45.10552
  0
LINE
  8
ボルト／ビス
  6
CONTINUOUS
 10
-31.106772
 20
45.60552
 11
-31.25111
 21
45.35552
  0
LINE
  8
ボルト／ビス
  6
CONTINUOUS
 10
-31.106772
 20
45.10552
 11
-31.25111
 21
45.35552
  0
CIRCLE
  8
ボルト／ビス
  6
CONTINUOUS
 10
-30.962435
 20
45.35552
 40
0.25
  0
LINE
  8
ボルト／ビス
  6
CONTINUOUS
 10
-30.818098
 20
45.10552
 11
-31.106772
 21
45.10552
  0
LINE
  8
ボルト／ビス
  6
CONTINUOUS
 10
-31.106772
 20
45.60552
 11
-30.818098
 21
45.60552
  0
ENDBLK
  0
BLOCK
  2
*GRP_0015
 70
    65
 10
0.0
 20
0.0
  0
INSERT
  2
*GRP_0027
  8
補助線
  6
CONTINUOUS
 10
0.0
 20
0.0
  0
LINE
  8
ボルト／ビス
  6
CONTINUOUS
 10
-69.462435
 20
69.144195
 11
-69.212435
 21
68.999857
  0
LINE
  8
ボルト／ビス
  6
CONTINUOUS
 10
-69.462435
 20
69.144195
 11
-69.712435
 21
68.999857
  0
LINE
  8
ボルト／ビス
  6
CONTINUOUS
 10
-69.212435
 20
68.711182
 11
-69.462435
 21
68.566845
  0
LINE
  8
ボルト／ビス
  6
CONTINUOUS
 10
-69.712435
 20
68.711182
 11
-69.462435
 21
68.566845
  0
CIRCLE
  8
ボルト／ビス
  6
CONTINUOUS
 10
-69.462435
 20
68.85552
 40
0.25
  0
LINE
  8
ボルト／ビス
  6
CONTINUOUS
 10
-69.712435
 20
68.999857
 11
-69.712435
 21
68.711182
  0
LINE
  8
ボルト／ビス
  6
CONTINUOUS
 10
-69.212435
 20
68.711182
 11
-69.212435
 21
68.999857
  0
ENDBLK
  0
BLOCK
  2
*GRP_0016
 70
    65
 10
0.0
 20
0.0
  0
INSERT
  2
*GRP_0028
  8
補助線
  6
CONTINUOUS
 10
0.0
 20
0.0
  0
LINE
  8
ボルト／ビス
  6
CONTINUOUS
 10
-54.462435
 20
69.144195
 11
-54.212435
 21
68.999857
  0
LINE
  8
ボルト／ビス
  6
CONTINUOUS
 10
-54.462435
 20
69.144195
 11
-54.712435
 21
68.999857
  0
LINE
  8
ボルト／ビス
  6
CONTINUOUS
 10
-54.212435
 20
68.711182
 11
-54.462435
 21
68.566845
  0
LINE
  8
ボルト／ビス
  6
CONTINUOUS
 10
-54.712435
 20
68.711182
 11
-54.462435
 21
68.566845
  0
CIRCLE
  8
ボルト／ビス
  6
CONTINUOUS
 10
-54.462435
 20
68.85552
 40
0.25
  0
LINE
  8
ボルト／ビス
  6
CONTINUOUS
 10
-54.712435
 20
68.999857
 11
-54.712435
 21
68.711182
  0
LINE
  8
ボルト／ビス
  6
CONTINUOUS
 10
-54.212435
 20
68.711182
 11
-54.212435
 21
68.999857
  0
ENDBLK
  0
BLOCK
  2
*GRP_0017
 70
    65
 10
0.0
 20
0.0
  0
INSERT
  2
*GRP_0029
  8
補助線
  6
CONTINUOUS
 10
0.0
 20
0.0
  0
LINE
  8
ボルト／ビス
  6
CONTINUOUS
 10
-78.25111
 20
60.35552
 11
-78.106772
 21
60.10552
  0
LINE
  8
ボルト／ビス
  6
CONTINUOUS
 10
-78.25111
 20
60.35552
 11
-78.106772
 21
60.60552
  0
LINE
  8
ボルト／ビス
  6
CONTINUOUS
 10
-77.818098
 20
60.10552
 11
-77.67376
 21
60.35552
  0
LINE
  8
ボルト／ビス
  6
CONTINUOUS
 10
-77.818098
 20
60.60552
 11
-77.67376
 21
60.35552
  0
CIRCLE
  8
ボルト／ビス
  6
CONTINUOUS
 10
-77.962435
 20
60.35552
 40
0.25
  0
LINE
  8
ボルト／ビス
  6
CONTINUOUS
 10
-78.106772
 20
60.60552
 11
-77.818098
 21
60.60552
  0
LINE
  8
ボルト／ビス
  6
CONTINUOUS
 10
-77.818098
 20
60.10552
 11
-78.106772
 21
60.10552
  0
ENDBLK
  0
BLOCK
  2
*GRP_0018
 70
    65
 10
0.0
 20
0.0
  0
INSERT
  2
*GRP_0030
  8
補助線
  6
CONTINUOUS
 10
0.0
 20
0.0
  0
LINE
  8
ボルト／ビス
  6
CONTINUOUS
 10
-39.462435
 20
69.144195
 11
-39.712435
 21
68.999857
  0
LINE
  8
ボルト／ビス
  6
CONTINUOUS
 10
-39.462435
 20
69.144195
 11
-39.212435
 21
68.999857
  0
LINE
  8
ボルト／ビス
  6
CONTINUOUS
 10
-39.712435
 20
68.711182
 11
-39.462435
 21
68.566845
  0
LINE
  8
ボルト／ビス
  6
CONTINUOUS
 10
-39.212435
 20
68.711182
 11
-39.462435
 21
68.566845
  0
CIRCLE
  8
ボルト／ビス
  6
CONTINUOUS
 10
-39.462435
 20
68.85552
 40
0.25
  0
LINE
  8
ボルト／ビス
  6
CONTINUOUS
 10
-39.212435
 20
68.999857
 11
-39.212435
 21
68.711182
  0
LINE
  8
ボルト／ビス
  6
CONTINUOUS
 10
-39.712435
 20
68.711182
 11
-39.712435
 21
68.999857
  0
ENDBLK
  0
BLOCK
  2
*GRP_0019
 70
    65
 10
0.0
 20
0.0
  0
INSERT
  2
*GRP_0031
  8
補助線
  6
CONTINUOUS
 10
0.0
 20
0.0
  0
LINE
  8
ボルト／ビス
  6
CONTINUOUS
 10
-30.67376
 20
60.35552
 11
-30.818098
 21
60.10552
  0
LINE
  8
ボルト／ビス
  6
CONTINUOUS
 10
-30.67376
 20
60.35552
 11
-30.818098
 21
60.60552
  0
LINE
  8
ボルト／ビス
  6
CONTINUOUS
 10
-31.106772
 20
60.10552
 11
-31.25111
 21
60.35552
  0
LINE
  8
ボルト／ビス
  6
CONTINUOUS
 10
-31.106772
 20
60.60552
 11
-31.25111
 21
60.35552
  0
CIRCLE
  8
ボルト／ビス
  6
CONTINUOUS
 10
-30.962435
 20
60.35552
 40
0.25
  0
LINE
  8
ボルト／ビス
  6
CONTINUOUS
 10
-30.818098
 20
60.60552
 11
-31.106772
 21
60.60552
  0
LINE
  8
ボルト／ビス
  6
CONTINUOUS
 10
-31.106772
 20
60.10552
 11
-30.818098
 21
60.10552
  0
ENDBLK
  0
BLOCK
  2
*GRP_0020
 70
    65
 10
0.0
 20
0.0
  0
LINE
  8
補助線
  6
BYBLOCK
 62
     0
 10
-69.587435
 20
21.85552
 11
-69.337435
 21
21.85552
  0
LINE
  8
補助線
  6
BYBLOCK
 62
     0
 10
-69.462435
 20
21.73052
 11
-69.462435
 21
21.98052
  0
ENDBLK
  0
BLOCK
  2
*GRP_0021
 70
    65
 10
0.0
 20
0.0
  0
LINE
  8
補助線
  6
BYBLOCK
 62
     0
 10
-54.587435
 20
21.85552
 11
-54.337435
 21
21.85552
  0
LINE
  8
補助線
  6
BYBLOCK
 62
     0
 10
-54.462435
 20
21.73052
 11
-54.462435
 21
21.98052
  0
ENDBLK
  0
BLOCK
  2
*GRP_0022
 70
    65
 10
0.0
 20
0.0
  0
LINE
  8
補助線
  6
BYBLOCK
 62
     0
 10
-77.962435
 20
30.23052
 11
-77.962435
 21
30.48052
  0
LINE
  8
補助線
  6
BYBLOCK
 62
     0
 10
-78.087435
 20
30.35552
 11
-77.837435
 21
30.35552
  0
ENDBLK
  0
BLOCK
  2
*GRP_0023
 70
    65
 10
0.0
 20
0.0
  0
LINE
  8
補助線
  6
BYBLOCK
 62
     0
 10
-77.962435
 20
45.23052
 11
-77.962435
 21
45.48052
  0
LINE
  8
補助線
  6
BYBLOCK
 62
     0
 10
-78.087435
 20
45.35552
 11
-77.837435
 21
45.35552
  0
ENDBLK
  0
BLOCK
  2
*GRP_0024
 70
    65
 10
0.0
 20
0.0
  0
LINE
  8
補助線
  6
BYBLOCK
 62
     0
 10
-39.337435
 20
21.85552
 11
-39.587435
 21
21.85552
  0
LINE
  8
補助線
  6
BYBLOCK
 62
     0
 10
-39.462435
 20
21.73052
 11
-39.462435
 21
21.98052
  0
ENDBLK
  0
BLOCK
  2
*GRP_0025
 70
    65
 10
0.0
 20
0.0
  0
LINE
  8
補助線
  6
BYBLOCK
 62
     0
 10
-30.962435
 20
30.23052
 11
-30.962435
 21
30.48052
  0
LINE
  8
補助線
  6
BYBLOCK
 62
     0
 10
-30.837435
 20
30.35552
 11
-31.087435
 21
30.35552
  0
ENDBLK
  0
BLOCK
  2
*GRP_0026
 70
    65
 10
0.0
 20
0.0
  0
LINE
  8
補助線
  6
BYBLOCK
 62
     0
 10
-30.962435
 20
45.23052
 11
-30.962435
 21
45.48052
  0
LINE
  8
補助線
  6
BYBLOCK
 62
     0
 10
-30.837435
 20
45.35552
 11
-31.087435
 21
45.35552
  0
ENDBLK
  0
BLOCK
  2
*GRP_0027
 70
    65
 10
0.0
 20
0.0
  0
LINE
  8
補助線
  6
BYBLOCK
 62
     0
 10
-69.587435
 20
68.85552
 11
-69.337435
 21
68.85552
  0
LINE
  8
補助線
  6
BYBLOCK
 62
     0
 10
-69.462435
 20
68.98052
 11
-69.462435
 21
68.73052
  0
ENDBLK
  0
BLOCK
  2
*GRP_0028
 70
    65
 10
0.0
 20
0.0
  0
LINE
  8
補助線
  6
BYBLOCK
 62
     0
 10
-54.587435
 20
68.85552
 11
-54.337435
 21
68.85552
  0
LINE
  8
補助線
  6
BYBLOCK
 62
     0
 10
-54.462435
 20
68.98052
 11
-54.462435
 21
68.73052
  0
ENDBLK
  0
BLOCK
  2
*GRP_0029
 70
    65
 10
0.0
 20
0.0
  0
LINE
  8
補助線
  6
BYBLOCK
 62
     0
 10
-77.962435
 20
60.48052
 11
-77.962435
 21
60.23052
  0
LINE
  8
補助線
  6
BYBLOCK
 62
     0
 10
-78.087435
 20
60.35552
 11
-77.837435
 21
60.35552
  0
ENDBLK
  0
BLOCK
  2
*GRP_0030
 70
    65
 10
0.0
 20
0.0
  0
LINE
  8
補助線
  6
BYBLOCK
 62
     0
 10
-39.337435
 20
68.85552
 11
-39.587435
 21
68.85552
  0
LINE
  8
補助線
  6
BYBLOCK
 62
     0
 10
-39.462435
 20
68.98052
 11
-39.462435
 21
68.73052
  0
ENDBLK
  0
BLOCK
  2
*GRP_0031
 70
    65
 10
0.0
 20
0.0
  0
LINE
  8
補助線
  6
BYBLOCK
 62
     0
 10
-30.962435
 20
60.48052
 11
-30.962435
 21
60.23052
  0
LINE
  8
補助線
  6
BYBLOCK
 62
     0
 10
-30.837435
 20
60.35552
 11
-31.087435
 21
60.35552
  0
ENDBLK
  0
BLOCK
  2
*DIM_0032
 70
    65
 10
0.0
 20
0.0
  0
LINE
  8
寸法
  6
BYBLOCK
 62
     0
 10
-69.462435
 20
68.85552
 11
-69.462435
 21
86.794535
  0
LINE
  8
寸法
  6
BYBLOCK
 62
     0
 10
-39.462435
 20
68.85552
 11
-39.462435
 21
86.794535
  0
LINE
  8
寸法
  6
BYBLOCK
 62
     0
 10
-69.462435
 20
86.794535
 11
-39.462435
 21
86.794535
  0
POINT
  8
寸法
 62
     0
 10
-69.462435
 20
86.794535
  0
POINT
  8
寸法
 62
     0
 10
-39.462435
 20
86.794535
  0
TEXT
  7
TextStyle03
  8
寸法
  6
CONTINUOUS
 62
     0
 10
-56.9375
 20
87.125
  1
600
 40
3.0
 72
     5
 11
-52.0625
 21
87.125
  0
ENDBLK
  0
BLOCK
  2
*DIM_0033
 70
    65
 10
0.0
 20
0.0
  0
LINE
  8
寸法
  6
BYBLOCK
 62
     0
 10
-77.962435
 20
67.85552
 11
-100.870677
 21
67.85552
  0
LINE
  8
寸法
  6
BYBLOCK
 62
     0
 10
-77.962435
 20
45.35552
 11
-100.870677
 21
45.35552
  0
LINE
  8
寸法
  6
BYBLOCK
 62
     0
 10
-100.870677
 20
67.85552
 11
-100.870677
 21
45.35552
  0
POINT
  8
寸法
 62
     0
 10
-100.870677
 20
67.85552
  0
POINT
  8
寸法
 62
     0
 10
-100.870677
 20
45.35552
  0
TEXT
  7
TextStyle03
  8
寸法
  6
CONTINUOUS
 62
     0
 10
-101.275
 20
54.1125
  1
450
 40
3.0
 50
90.0
 72
     5
 11
-101.275
 21
58.9875
  0
ENDBLK
  0
BLOCK
  2
*DIM_0034
 70
    65
 10
0.0
 20
0.0
  0
LINE
  8
寸法
  6
BYBLOCK
 62
     0
 10
-77.962435
 20
22.85552
 11
-100.870677
 21
22.85552
  0
LINE
  8
寸法
  6
BYBLOCK
 62
     0
 10
-100.870677
 20
45.35552
 11
-100.870677
 21
22.85552
  0
POINT
  8
寸法
 62
     0
 10
-100.870677
 20
22.85552
  0
TEXT
  7
TextStyle03
  8
寸法
  6
CONTINUOUS
 62
     0
 10
-101.275
 20
31.6125
  1
450
 40
3.0
 50
90.0
 72
     5
 11
-101.275
 21
36.4875
  0
ENDBLK
  0
BLOCK
  2
*DIM_0035
 70
    65
 10
0.0
 20
0.0
  0
LINE
  8
寸法
  6
CONTINUOUS
 10
138.10537
 20
71.450072
 11
151.73712
 21
71.450072
  0
LINE
  8
寸法
  6
CONTINUOUS
 10
138.10537
 20
27.450072
 11
151.73712
 21
27.450072
  0
LINE
  8
寸法
  6
CONTINUOUS
 10
151.73712
 20
71.450072
 11
151.73712
 21
27.450072
  0
POINT
  8
寸法
 10
151.73712
 20
71.450072
  0
POINT
  8
寸法
 10
151.73712
 20
27.450072
  0
TEXT
  7
TextStyle03
  8
寸法
  6
CONTINUOUS
 10
151.35
 20
47.0125
  1
880
 40
3.0
 50
90.0
 72
     5
 11
151.35
 21
51.8875
  0
ENDBLK
  0
BLOCK
  2
*DIM_0036
 70
    65
 10
0.0
 20
0.0
  0
LINE
  8
寸法
  6
CONTINUOUS
 10
133.10537
 20
76.450072
 11
133.10537
 21
88.659833
  0
LINE
  8
寸法
  6
CONTINUOUS
 10
89.10537
 20
76.450072
 11
89.10537
 21
88.659833
  0
LINE
  8
寸法
  6
CONTINUOUS
 10
133.10537
 20
88.659833
 11
89.10537
 21
88.659833
  0
POINT
  8
寸法
 10
133.10537
 20
88.659833
  0
POINT
  8
寸法
 10
89.10537
 20
88.659833
  0
TEXT
  7
TextStyle03
  8
寸法
  6
CONTINUOUS
 10
108.6625
 20
89.025
  1
880
 40
3.0
 72
     5
 11
113.5375
 21
89.025
  0
ENDBLK
  0
ENDSEC
  0
SECTION
  2
ENTITIES
  0
POLYLINE
  8
通り芯
  6
CONTINUOUS
 66
     1
 70
     1
  0
VERTEX
  8
通り芯
 10
-210.0
 20
-148.5
  0
VERTEX
  8
通り芯
 10
210.0
 20
-148.5
  0
VERTEX
  8
通り芯
 10
210.0
 20
148.5
  0
VERTEX
  8
通り芯
 10
-210.0
 20
148.5
  0
SEQEND
  0
INSERT
  2
*GRP_0001
  8
型材断面
  6
CONTINUOUS
 10
0.0
 20
0.0
  0
LINE
  8
型材断面
  6
CONTINUOUS
 10
-53.837435
 20
24.10552
 11
-53.837435
 21
22.85552
  0
LINE
  8
型材断面
  6
CONTINUOUS
 10
-55.087435
 20
24.10552
 11
-55.087435
 21
22.85552
  0
LINE
  8
型材断面
  6
CONTINUOUS
 10
-28.727215
 20
-75.192642
 11
-28.727215
 21
-74.517642
  0
LINE
  8
型材断面
  6
CONTINUOUS
 62
    47
 10
-28.052215
 20
-74.517642
 11
-28.052215
 21
-73.767642
  0
LINE
  8
型材断面
  6
CONTINUOUS
 62
    47
 10
-31.887435
 20
-72.574218
 11
-28.052215
 21
-73.767642
  0
LINE
  8
型材断面
  6
CONTINUOUS
 10
-28.727215
 20
-74.517642
 11
-28.052215
 21
-74.517642
  0
LINE
  8
型材断面
  6
CONTINUOUS
 10
-29.46244
 20
-72.467895
 11
-29.53744
 21
-72.467893
  0
LINE
  8
型材断面
  6
CONTINUOUS
 10
-29.46244
 20
-72.467895
 11
-29.46244
 21
-71.217895
  0
LINE
  8
型材断面
  6
CONTINUOUS
 10
-31.962435
 20
-70.467897
 11
-31.962435
 21
-71.217893
  0
LINE
  8
型材断面
  6
CONTINUOUS
 10
-29.46244
 20
-71.217895
 11
-31.962435
 21
-71.217893
  0
LINE
  8
型材断面
  6
CONTINUOUS
 10
-31.887435
 20
-72.574218
 11
-31.887435
 21
-72.467893
  0
INSERT
  2
*GRP_0002
  8
型材断面
  6
CONTINUOUS
 10
0.0
 20
0.0
  0
LINE
  8
型材断面
  6
DASHDOT
 10
-31.962435
 20
-77.614368
 11
-31.962435
 21
22.85552
  0
LINE
  8
型材断面
  6
CONTINUOUS
 10
-33.212435
 20
24.10552
 11
-53.837435
 21
24.10552
  0
LINE
  8
型材断面
  6
CONTINUOUS
 10
-31.962435
 20
22.85552
 11
-54.462435
 21
22.85552
  0
LINE
  8
型材断面
  6
CONTINUOUS
 10
-28.052215
 20
18.9453
 11
-33.212435
 21
24.10552
  0
LINE
  8
型材断面
  6
CONTINUOUS
 10
-80.197655
 20
-75.192642
 11
-80.197655
 21
-74.517642
  0
LINE
  8
型材断面
  6
CONTINUOUS
 62
    47
 10
-80.872655
 20
-74.517642
 11
-80.872655
 21
-73.767642
  0
LINE
  8
型材断面
  6
CONTINUOUS
 62
    47
 10
-77.037435
 20
-72.574218
 11
-80.872655
 21
-73.767642
  0
LINE
  8
型材断面
  6
CONTINUOUS
 10
-80.197655
 20
-74.517642
 11
-80.872655
 21
-74.517642
  0
LINE
  8
型材断面
  6
CONTINUOUS
 10
-79.46243
 20
-72.467895
 11
-79.38743
 21
-72.467893
  0
LINE
  8
型材断面
  6
CONTINUOUS
 10
-79.46243
 20
-72.467895
 11
-79.46243
 21
-71.217895
  0
LINE
  8
型材断面
  6
CONTINUOUS
 10
-76.962435
 20
-70.467897
 11
-76.962435
 21
-71.217893
  0
LINE
  8
型材断面
  6
CONTINUOUS
 10
-79.46243
 20
-71.217895
 11
-76.962435
 21
-71.217893
  0
LINE
  8
型材断面
  6
CONTINUOUS
 10
-77.037435
 20
-72.574218
 11
-77.037435
 21
-72.467893
  0
INSERT
  2
*GRP_0004
  8
型材断面
  6
CONTINUOUS
 10
0.0
 20
0.0
  0
LINE
  8
型材断面
  6
DASHDOT
 10
-76.962435
 20
-77.614368
 11
-76.962435
 21
22.85552
  0
LINE
  8
型材断面
  6
CONTINUOUS
 10
-75.712435
 20
24.10552
 11
-55.087435
 21
24.10552
  0
LINE
  8
型材断面
  6
CONTINUOUS
 10
-76.962435
 20
22.85552
 11
-54.462435
 21
22.85552
  0
LINE
  8
型材断面
  6
CONTINUOUS
 10
-80.872655
 20
18.9453
 11
-75.712435
 21
24.10552
  0
LINE
  8
型材断面
  6
CONTINUOUS
 10
-80.872655
 20
-74.517642
 11
-28.052215
 21
-74.517642
  0
LINE
  8
型材断面
  6
CONTINUOUS
 10
-80.872655
 20
-73.767642
 11
-28.052215
 21
-73.767642
  0
LINE
  8
型材断面
  6
CONTINUOUS
 10
-31.962435
 20
-70.467895
 11
-76.962435
 21
-70.467895
  0
LINE
  8
型材断面
  6
CONTINUOUS
 10
-29.46244
 20
-72.467893
 11
-79.46243
 21
-72.467893
  0
LINE
  8
型材断面
  6
CONTINUOUS
 10
-29.46244
 20
-71.217895
 11
-79.46243
 21
-71.217895
  0
LINE
  8
型材断面
  6
CONTINUOUS
 10
-31.887435
 20
-72.574218
 11
-77.037435
 21
-72.574218
  0
LINE
  8
型材断面
  6
CONTINUOUS
 10
-28.727215
 20
-75.192642
 11
-80.197655
 21
-75.192642
  0
LINE
  8
型材断面
  6
CONTINUOUS
 10
-29.46244
 20
20.355525
 11
-79.46243
 21
20.355525
  0
LINE
  8
型材断面
  6
CONTINUOUS
 10
-28.052215
 20
18.9453
 11
-80.872655
 21
18.9453
  0
LINE
  8
型材断面
  6
CONTINUOUS
 10
-53.837435
 20
66.60552
 11
-53.837435
 21
67.85552
  0
LINE
  8
型材断面
  6
CONTINUOUS
 10
-55.087435
 20
66.60552
 11
-55.087435
 21
67.85552
  0
LINE
  8
型材断面
  6
CONTINUOUS
 10
-33.212435
 20
66.60552
 11
-53.837435
 21
66.60552
  0
LINE
  8
型材断面
  6
CONTINUOUS
 10
-31.962435
 20
67.85552
 11
-54.462435
 21
67.85552
  0
LINE
  8
型材断面
  6
CONTINUOUS
 10
-28.052215
 20
71.76574
 11
-33.212435
 21
66.60552
  0
LINE
  8
型材断面
  6
CONTINUOUS
 10
-75.712435
 20
66.60552
 11
-55.087435
 21
66.60552
  0
LINE
  8
型材断面
  6
CONTINUOUS
 10
-76.962435
 20
67.85552
 11
-54.462435
 21
67.85552
  0
LINE
  8
型材断面
  6
CONTINUOUS
 10
-80.872655
 20
71.76574
 11
-75.712435
 21
66.60552
  0
LINE
  8
型材断面
  6
CONTINUOUS
 10
-29.46244
 20
70.355515
 11
-79.46243
 21
70.355515
  0
LINE
  8
型材断面
  6
CONTINUOUS
 10
-28.052215
 20
71.76574
 11
-80.872655
 21
71.76574
  0
LINE
  8
型材断面
  6
CONTINUOUS
 10
-33.212435
 20
45.98052
 11
-31.962435
 21
45.98052
  0
LINE
  8
型材断面
  6
CONTINUOUS
 10
-33.212435
 20
44.73052
 11
-31.962435
 21
44.73052
  0
LINE
  8
型材断面
  6
CONTINUOUS
 10
-75.712435
 20
44.73052
 11
-76.962435
 21
44.73052
  0
LINE
  8
型材断面
  6
CONTINUOUS
 10
-75.712435
 20
45.98052
 11
-76.962435
 21
45.98052
  0
LINE
  8
型材断面
  6
DASHDOT
 10
-31.962435
 20
45.35552
 11
-76.962435
 21
45.35552
  0
LINE
  8
型材断面
  6
CONTINUOUS
 10
-31.962435
 20
22.85552
 11
-31.962435
 21
45.35552
  0
LINE
  8
型材断面
  6
CONTINUOUS
 10
-33.212435
 20
24.10552
 11
-33.212435
 21
44.73052
  0
LINE
  8
型材断面
  6
CONTINUOUS
 10
-33.212435
 20
45.98052
 11
-33.212435
 21
66.60552
  0
LINE
  8
型材断面
  6
CONTINUOUS
 10
-31.962435
 20
45.35552
 11
-31.962435
 21
67.85552
  0
LINE
  8
型材断面
  6
CONTINUOUS
 10
-28.052215
 20
18.9453
 11
-28.052215
 21
71.76574
  0
LINE
  8
型材断面
  6
CONTINUOUS
 10
-29.46244
 20
20.355525
 11
-29.46244
 21
70.355515
  0
LINE
  8
型材断面
  6
CONTINUOUS
 10
-75.712435
 20
45.98052
 11
-75.712435
 21
66.60552
  0
LINE
  8
型材断面
  6
CONTINUOUS
 10
-76.962435
 20
45.35552
 11
-76.962435
 21
67.85552
  0
LINE
  8
型材断面
  6
CONTINUOUS
 10
-80.872655
 20
18.9453
 11
-80.872655
 21
71.76574
  0
LINE
  8
型材断面
  6
CONTINUOUS
 10
-79.46243
 20
20.355525
 11
-79.46243
 21
70.355515
  0
LINE
  8
型材断面
  6
CONTINUOUS
 10
-75.712435
 20
24.10552
 11
-75.712435
 21
44.73052
  0
LINE
  8
型材断面
  6
CONTINUOUS
 10
-76.962435
 20
22.85552
 11
-76.962435
 21
45.35552
  0
LINE
  8
型材断面
  6
DASHDOT
 10
-54.462435
 20
-77.614368
 11
-54.462435
 21
67.85552
  0
LINE
  8
型材断面
  6
CONTINUOUS
 10
-54.462435
 20
75.879395
 11
-56.70588
 21
79.765155
  0
LINE
  8
型材断面
  6
CONTINUOUS
 10
-54.462435
 20
75.879395
 11
-52.21899
 21
79.765155
  0
LINE
  8
型材断面
  6
CONTINUOUS
 10
-52.21899
 20
79.765155
 11
-56.70588
 21
79.765155
  0
LINE
  8
型材断面
  6
CONTINUOUS
 10
-54.462435
 20
14.831645
 11
-56.70588
 21
10.945885
  0
LINE
  8
型材断面
  6
CONTINUOUS
 10
-54.462435
 20
14.831645
 11
-52.21899
 21
10.945885
  0
LINE
  8
型材断面
  6
CONTINUOUS
 10
-52.21899
 20
10.945885
 11
-56.70588
 21
10.945885
  0
LINE
  8
型材断面
  6
CONTINUOUS
 10
-23.93856
 20
45.35552
 11
-20.0528
 21
47.598965
  0
LINE
  8
型材断面
  6
CONTINUOUS
 10
-23.93856
 20
45.35552
 11
-20.0528
 21
43.112075
  0
LINE
  8
型材断面
  6
CONTINUOUS
 10
-20.0528
 20
43.112075
 11
-20.0528
 21
47.598965
  0
LINE
  8
型材断面
  6
CONTINUOUS
 10
-84.98631
 20
45.35552
 11
-88.87207
 21
47.598965
  0
LINE
  8
型材断面
  6
CONTINUOUS
 10
-84.98631
 20
45.35552
 11
-88.87207
 21
43.112075
  0
LINE
  8
型材断面
  6
CONTINUOUS
 10
-88.87207
 20
43.112075
 11
-88.87207
 21
47.598965
  0
LINE
  8
型材断面
  6
CONTINUOUS
 10
8.130888
 20
16.391707
 11
5.887442
 21
12.505948
  0
LINE
  8
型材断面
  6
CONTINUOUS
 10
8.130888
 20
16.391707
 11
10.374332
 21
12.505948
  0
LINE
  8
型材断面
  6
CONTINUOUS
 10
10.374332
 20
12.505948
 11
5.887442
 21
12.505948
  0
LINE
  8
型材断面
  6
CONTINUOUS
 10
-0.902992
 20
11.098055
 11
51.753687
 21
11.098055
  0
LINE
  8
型材断面
  6
CONTINUOUS
 10
-0.902992
 20
3.255125
 11
51.753687
 21
3.255125
  0
LINE
  8
型材断面
  6
CONTINUOUS
 10
88.36435
 20
94.469377
 11
108.037428
 21
94.469377
  0
POLYLINE
  8
ガラス
  6
CONTINUOUS
 66
     1
 70
     1
  0
VERTEX
  8
ガラス
 10
133.10537
 20
71.450072
  0
VERTEX
  8
ガラス
 10
89.10537
 20
71.450072
  0
VERTEX
  8
ガラス
 10
89.10537
 20
27.450072
  0
VERTEX
  8
ガラス
 10
133.10537
 20
27.450072
  0
SEQEND
  0
CIRCLE
  8
ボルト／ビス
  6
CONTINUOUS
 10
-69.462435
 20
21.85552
 40
0.288675
  0
CIRCLE
  8
ボルト／ビス
  6
CONTINUOUS
 10
-69.462435
 20
21.85552
 40
0.455885
  0
CIRCLE
  8
ボルト／ビス
  6
CONTINUOUS
 10
-54.462435
 20
21.85552
 40
0.288675
  0
CIRCLE
  8
ボルト／ビス
  6
CONTINUOUS
 10
-54.462435
 20
21.85552
 40
0.455885
  0
CIRCLE
  8
ボルト／ビス
  6
CONTINUOUS
 10
-77.962435
 20
30.35552
 40
0.288675
  0
CIRCLE
  8
ボルト／ビス
  6
CONTINUOUS
 10
-77.962435
 20
30.35552
 40
0.455885
  0
CIRCLE
  8
ボルト／ビス
  6
CONTINUOUS
 10
-77.962435
 20
45.35552
 40
0.288675
  0
CIRCLE
  8
ボルト／ビス
  6
CONTINUOUS
 10
-77.962435
 20
45.35552
 40
0.455885
  0
CIRCLE
  8
ボルト／ビス
  6
CONTINUOUS
 10
-39.462435
 20
21.85552
 40
0.288675
  0
CIRCLE
  8
ボルト／ビス
  6
CONTINUOUS
 10
-39.462435
 20
21.85552
 40
0.455885
  0
CIRCLE
  8
ボルト／ビス
  6
CONTINUOUS
 10
-30.962435
 20
30.35552
 40
0.288675
  0
CIRCLE
  8
ボルト／ビス
  6
CONTINUOUS
 10
-30.962435
 20
30.35552
 40
0.455885
  0
CIRCLE
  8
ボルト／ビス
  6
CONTINUOUS
 10
-30.962435
 20
45.35552
 40
0.288675
  0
CIRCLE
  8
ボルト／ビス
  6
CONTINUOUS
 10
-30.962435
 20
45.35552
 40
0.455885
  0
CIRCLE
  8
ボルト／ビス
  6
CONTINUOUS
 10
-69.462435
 20
68.85552
 40
0.288675
  0
CIRCLE
  8
ボルト／ビス
  6
CONTINUOUS
 10
-69.462435
 20
68.85552
 40
0.455885
  0
CIRCLE
  8
ボルト／ビス
  6
CONTINUOUS
 10
-54.462435
 20
68.85552
 40
0.288675
  0
CIRCLE
  8
ボルト／ビス
  6
CONTINUOUS
 10
-54.462435
 20
68.85552
 40
0.455885
  0
CIRCLE
  8
ボルト／ビス
  6
CONTINUOUS
 10
-77.962435
 20
60.35552
 40
0.288675
  0
CIRCLE
  8
ボルト／ビス
  6
CONTINUOUS
 10
-77.962435
 20
60.35552
 40
0.455885
  0
CIRCLE
  8
ボルト／ビス
  6
CONTINUOUS
 10
-39.462435
 20
68.85552
 40
0.288675
  0
CIRCLE
  8
ボルト／ビス
  6
CONTINUOUS
 10
-39.462435
 20
68.85552
 40
0.455885
  0
CIRCLE
  8
ボルト／ビス
  6
CONTINUOUS
 10
-30.962435
 20
60.35552
 40
0.288675
  0
CIRCLE
  8
ボルト／ビス
  6
CONTINUOUS
 10
-30.962435
 20
60.35552
 40
0.455885
  0
TEXT
  7
TextStyle03
  8
文字
  6
CONTINUOUS
 10
73.475
 20
125.25
  1
シリーズ：ＳＴＦＦＫ
 40
5.0
 72
     5
 11
129.1
 21
125.25
  0
TEXT
  7
TextStyle03
  8
文字
  6
CONTINUOUS
 10
73.475
 20
119.625
  1
　　　　　（固定）900×900タイプ
 40
5.0
 72
     5
 11
162.85
 21
119.625
  0
TEXT
  7
TextStyle03
  8
文字
  6
CONTINUOUS
 10
73.475
 20
114.0
  1
図面名　：外観姿図
 40
5.0
 72
     5
 11
123.475
 21
114.0
  0
TEXT
  7
TextStyle03
  8
文字
  6
CONTINUOUS
 10
73.475
 20
108.375
  1
　　　　　　
 40
5.0
 72
     5
 11
106.6
 21
108.375
  0
INSERT
  2
*GRP_0008
  8
文字
  6
CONTINUOUS
 10
0.0
 20
0.0
  0
INSERT
  2
*GRP_0009
  8
文字
  6
CONTINUOUS
 10
0.0
 20
0.0
  0
INSERT
  2
*GRP_0010
  8
文字
  6
CONTINUOUS
 10
0.0
 20
0.0
  0
INSERT
  2
*GRP_0011
  8
文字
  6
CONTINUOUS
 10
0.0
 20
0.0
  0
INSERT
  2
*GRP_0012
  8
文字
  6
CONTINUOUS
 10
0.0
 20
0.0
  0
INSERT
  2
*GRP_0013
  8
文字
  6
CONTINUOUS
 10
0.0
 20
0.0
  0
INSERT
  2
*GRP_0014
  8
文字
  6
CONTINUOUS
 10
0.0
 20
0.0
  0
INSERT
  2
*GRP_0015
  8
文字
  6
CONTINUOUS
 10
0.0
 20
0.0
  0
INSERT
  2
*GRP_0016
  8
文字
  6
CONTINUOUS
 10
0.0
 20
0.0
  0
INSERT
  2
*GRP_0017
  8
文字
  6
CONTINUOUS
 10
0.0
 20
0.0
  0
INSERT
  2
*GRP_0018
  8
文字
  6
CONTINUOUS
 10
0.0
 20
0.0
  0
INSERT
  2
*GRP_0019
  8
文字
  6
CONTINUOUS
 10
0.0
 20
0.0
  0
TEXT
  7
TextStyle03
  8
文字
  6
CONTINUOUS
 10
12.375
 20
12.8
  1
は排水穴位置を示す
 40
3.0
 72
     5
 11
42.375
 21
12.8
  0
TEXT
  7
TextStyle03
  8
文字
  6
CONTINUOUS
 10
-83.375
 20
91.025
  1
アンカーピッチ
 40
3.0
 72
     5
 11
-60.125
 21
91.025
  0
TEXT
  7
TextStyle03
  8
文字
  6
CONTINUOUS
 10
-107.025
 20
12.925
  1
アンカーピッチ
 40
3.0
 50
90.0
 72
     5
 11
-107.025
 21
36.175
  0
TEXT
  7
TextStyle03
  8
文字
  6
CONTINUOUS
 10
6.775
 20
4.6
  1
アンカー数量　６ヶ所
 40
3.0
 72
     5
 11
40.15
 21
4.6
  0
TEXT
  7
TextStyle03
  8
文字
  6
CONTINUOUS
 10
119.125
 20
30.975
  1
×１枚
 40
3.0
 72
     5
 11
128.875
 21
30.975
  0
TEXT
  7
TextStyle03
  8
文字
  6
CONTINUOUS
 10
90.0
 20
95.6
  1
ガラス寸法
 40
3.0
 72
     5
 11
106.5
 21
95.6
  0
INSERT
  2
*DIM_0003
  8
寸法
  6
CONTINUOUS
 10
0.0
 20
0.0
  0
INSERT
  2
*DIM_0005
  8
寸法
  6
CONTINUOUS
 10
0.0
 20
0.0
  0
INSERT
  2
*DIM_0006
  8
寸法
  6
CONTINUOUS
 10
0.0
 20
0.0
  0
INSERT
  2
*DIM_0007
  8
寸法
  6
CONTINUOUS
 10
0.0
 20
0.0
  0
INSERT
  2
*DIM_0032
  8
寸法
  6
CONTINUOUS
 10
0.0
 20
0.0
  0
INSERT
  2
*DIM_0033
  8
寸法
  6
CONTINUOUS
 10
0.0
 20
0.0
  0
INSERT
  2
*DIM_0034
  8
寸法
  6
CONTINUOUS
 10
0.0
 20
0.0
  0
INSERT
  2
*DIM_0035
  8
寸法
  6
CONTINUOUS
 10
0.0
 20
0.0
  0
INSERT
  2
*DIM_0036
  8
寸法
  6
CONTINUOUS
 10
0.0
 20
0.0
  0
LINE
  8
曲げ物
  6
CONTINUOUS
 10
-51.636545
 20
48.18141
 11
-57.179512
 21
42.638443
  0
LINE
  8
曲げ物
  6
CONTINUOUS
 10
-52.69175
 20
45.877245
 11
-54.875345
 21
43.69365
  0
LINE
  8
曲げ物
  6
CONTINUOUS
 10
-53.94071
 20
47.126205
 11
-56.124305
 21
44.94261
  0
LINE
  8
St
  6
CONTINUOUS
 62
    47
 10
-28.727215
 20
-74.517642
 11
-28.052215
 21
-74.517642
  0
LINE
  8
St
  6
CONTINUOUS
 62
    47
 10
-80.197655
 20
-74.517642
 11
-80.872655
 21
-74.517642
  0
ENDSEC
  0
EOF
