  0
SECTION
  2
HEADER
  9
$EXTMIN
 10
-210.0
 20
-148.5
  9
$EXTMAX
 10
210.0
 20
148.5
  9
$PDMODE
 70
    32
  9
$PDSIZE
 40
1.5
  9
$LTSCALE
 40
10.0
  0
ENDSEC
  0
SECTION
  2
TABLES
  0
TABLE
  2
LTYPE
 70
    15
  0
LTYPE
  2
CONTINUOUS
 70
    64
  3
実線
 72
    65
 73
     0
 40
0.0
  0
LTYPE
  2
DASHED
 70
    64
  3
破線A
 72
    65
 73
     2
 40
0.6
 49
0.4
 49
-0.2
  0
LTYPE
  2
DASHEDX2
 70
    64
  3
破線B
 72
    65
 73
     2
 40
1.3
 49
0.9
 49
-0.4
  0
LTYPE
  2
DASHDOT
 70
    64
  3
１点鎖線A
 72
    65
 73
     4
 40
0.5375
 49
0.375
 49
-0.05
 49
0.0625
 49
-0.05
  0
LTYPE
  2
DASHDOTX2
 70
    64
  3
１点鎖線B
 72
    65
 73
     4
 40
1.075
 49
0.75
 49
-0.1
 49
0.125
 49
-0.1
  0
LTYPE
  2
DIVIDE2
 70
    64
  3
２点鎖線A
 72
    65
 73
     6
 40
0.5125
 49
0.3
 49
-0.0375
 49
0.05
 49
-0.0375
 49
0.05
 49
-0.0375
  0
LTYPE
  2
DIVIDE
 70
    64
  3
２点鎖線B
 72
    65
 73
     6
 40
1.05
 49
0.55
 49
-0.1
 49
0.1
 49
-0.1
 49
0.1
 49
-0.1
  0
LTYPE
  2
DOT
 70
    64
  3
点線A
 72
    65
 73
     2
 40
0.1125
 49
0.0625
 49
-0.05
  0
LTYPE
  2
DOTX2
 70
    64
  3
点線B
 72
    65
 73
     2
 40
0.275
 49
0.15
 49
-0.125
  0
LTYPE
  2
CONTINUOUS
 70
    64
  3
実線
 72
    65
 73
     0
 40
0.0
  0
LTYPE
  2
CONTINUOUS
 70
    64
  3
実線
 72
    65
 73
     0
 40
0.0
  0
LTYPE
  2
CONTINUOUS
 70
    64
  3
実線
 72
    65
 73
     0
 40
0.0
  0
LTYPE
  2
CONTINUOUS
 70
    64
  3
実線
 72
    65
 73
     0
 40
0.0
  0
LTYPE
  2
CONTINUOUS
 70
    64
  3
実線
 72
    65
 73
     0
 40
0.0
  0
LTYPE
  2
CONTINUOUS
 70
    64
  3
実線
 72
    65
 73
     0
 40
0.0
  0
ENDTAB
  0
TABLE
  2
LAYER
 70
    35
  0
LAYER
  2
通り芯
 70
     0
 62
    15
  6
CONTINUOUS
  0
LAYER
  2
補助線
 70
     0
 62
    16
  6
DOT
  0
LAYER
  2
躯体
 70
     0
 62
    31
  6
CONTINUOUS
  0
LAYER
  2
型材
 70
     0
 62
    32
  6
CONTINUOUS
  0
LAYER
  2
型材断面
 70
     0
 62
    47
  6
CONTINUOUS
  0
LAYER
  2
ガラス
 70
     0
 62
    48
  6
CONTINUOUS
  0
LAYER
  2
ゴム等
 70
     0
 62
    63
  6
CONTINUOUS
  0
LAYER
  2
ボルト／ビス
 70
     0
 62
    64
  6
CONTINUOUS
  0
LAYER
  2
文字
 70
     0
 62
    79
  6
CONTINUOUS
  0
LAYER
  2
寸法
 70
     0
 62
    80
  6
CONTINUOUS
  0
LAYER
  2
ﾊｯﾁﾝｸﾞ
 70
     0
 62
    95
  6
CONTINUOUS
  0
LAYER
  2
別途部材
 70
     0
 62
    96
  6
CONTINUOUS
  0
LAYER
  2
曲げ物
 70
     0
 62
   111
  6
CONTINUOUS
  0
LAYER
  2
鉄骨等
 70
     0
 62
   112
  6
CONTINUOUS
  0
LAYER
  2
St
 70
     0
 62
   127
  6
CONTINUOUS
  0
LAYER
  2
その他部品等
 70
     0
 62
   128
  6
CONTINUOUS
  0
LAYER
  2
ｶﾞｽｹｯﾄ
 70
     0
 62
   143
  6
CONTINUOUS
  0
LAYER
  2
ｽｹｯﾁ
 70
     0
 62
    14
  6
CONTINUOUS
  0
LAYER
  2
0
 70
     0
 62
    17
  6
CONTINUOUS
  0
LAYER
  2
1
 70
     0
 62
    30
  6
CONTINUOUS
  0
LAYER
  2
4
 70
     0
 62
    33
  6
CONTINUOUS
  0
LAYER
  2
ﾚｲﾔ3
 70
     0
 62
    46
  6
CONTINUOUS
  0
LAYER
  2
外形線
 70
     0
 62
    49
  6
CONTINUOUS
  0
LAYER
  2
部品
 70
     0
 62
    14
  6
CONTINUOUS
  0
LAYER
  2
サッシ芯
 70
     0
 62
    17
  6
DASHDOTX2
  0
LAYER
  2
寸法線
 70
     0
 62
    62
  6
CONTINUOUS
  0
LAYER
  2
姿図外形線
 70
     0
 62
    65
  6
CONTINUOUS
  0
LAYER
  2
姿補助線
 70
     0
 62
    30
  6
CONTINUOUS
  0
LAYER
  2
透視線
 70
     0
 62
    78
  6
DOT
  0
LAYER
  2
用紙
 70
     0
 62
    81
  6
CONTINUOUS
  0
LAYER
  2
実線図枠
 70
     0
 62
    94
  6
CONTINUOUS
  0
LAYER
  2
補助図枠
 70
     0
 62
    97
  6
CONTINUOUS
  0
LAYER
  2
建具記号
 70
     0
 62
   110
  6
CONTINUOUS
  0
LAYER
  2
補助文字
 70
     0
 62
   113
  6
CONTINUOUS
  0
LAYER
  2
SUNPO
 70
     0
 62
     6
  6
CONTINUOUS
  0
ENDTAB
  0
TABLE
  2
STYLE
 70
    10
  0
STYLE
  2
STANDARD
 70
     0
 40
1.0
 41
1.0
 42
1.0
 50
0.0
 71
     0
  3
TXT
  4
BIGFONT
  0
STYLE
  2
TATE
 70
     4
 40
1.0
 41
1.0
 42
1.0
 50
0.0
 71
     0
  3
TXT
  4
BIGFONT
  0
STYLE
  2
TextStyle03
 70
     0
 40
1.0
 41
1.0
 42
1.0
 50
0.0
 71
     0
  3
MONOTXT
  4
BIGFONT
  0
STYLE
  2
TextStyle04
 70
     0
 40
1.0
 41
1.0
 42
1.0
 50
0.0
 71
     0
  3
MONOTXT
  4
BIGFONT
  0
STYLE
  2
TextStyle05
 70
     0
 40
1.0
 41
1.0
 42
1.0
 50
0.0
 71
     0
  3
MONOTXT
  4
BIGFONT
  0
STYLE
  2
TextStyle06
 70
     0
 40
1.0
 41
1.0
 42
1.0
 50
0.0
 71
     0
  3
MONOTXT
  4
BIGFONT
  0
STYLE
  2
TextStyle07
 70
     0
 40
1.0
 41
1.0
 42
1.0
 50
0.0
 71
     0
  3
MONOTXT
  4
BIGFONT
  0
STYLE
  2
TextStyle08
 70
     0
 40
1.0
 41
1.0
 42
1.0
 50
0.0
 71
     0
  3
MONOTXT
  4
BIGFONT
  0
STYLE
  2
TextStyle09
 70
     0
 40
1.0
 41
1.0
 42
1.0
 50
0.0
 71
     0
  3
MONOTXT
  4
BIGFONT
  0
STYLE
  2
TextStyle10
 70
     0
 40
1.0
 41
1.0
 42
1.0
 50
0.0
 71
     0
  3
MONOTXT
  4
BIGFONT
  0
ENDTAB
  0
ENDSEC
  0
SECTION
  2
BLOCKS
  0
BLOCK
  2
*GRP_0001
 70
    65
 10
0.0
 20
0.0
  0
LINE
  8
型材断面
  6
CONTINUOUS
 10
195.0
 20
133.5
 11
195.0
 21
-133.5
  0
LINE
  8
型材断面
  6
CONTINUOUS
 10
195.0
 20
-133.5
 11
-185.0
 21
-133.5
  0
LINE
  8
型材断面
  6
CONTINUOUS
 10
-185.0
 20
-133.5
 11
-185.0
 21
133.5
  0
LINE
  8
型材断面
  6
CONTINUOUS
 10
195.0
 20
133.5
 11
-185.0
 21
133.5
  0
LINE
  8
型材断面
  6
CONTINUOUS
 10
145.0
 20
-133.5
 11
145.0
 21
-118.5
  0
LINE
  8
型材断面
  6
CONTINUOUS
 10
195.0
 20
-118.5
 11
145.0
 21
-118.5
  0
ENDBLK
  0
BLOCK
  2
*GRP_0002
 70
    65
 10
0.0
 20
0.0
  0
LINE
  8
ボルト／ビス
  6
CONTINUOUS
 10
-37.912432
 20
-71.217895
 11
-37.912432
 21
-71.117895
  0
LINE
  8
ボルト／ビス
  6
CONTINUOUS
 10
-37.912432
 20
-71.117895
 11
-39.01243
 21
-71.117895
  0
LINE
  8
ボルト／ビス
  6
CONTINUOUS
 10
-39.01243
 20
-71.117895
 11
-39.01243
 21
-71.217893
  0
LINE
  8
ボルト／ビス
  6
CONTINUOUS
 10
-37.912432
 20
-71.217895
 11
-39.01243
 21
-71.217893
  0
LINE
  8
ボルト／ビス
  6
CONTINUOUS
 10
-38.012432
 20
-71.067895
 11
-38.012432
 21
-71.117895
  0
LINE
  8
ボルト／ビス
  6
CONTINUOUS
 10
-38.012432
 20
-71.067895
 11
-38.91243
 21
-71.067893
  0
LINE
  8
ボルト／ビス
  6
CONTINUOUS
 10
-38.91243
 20
-71.067893
 11
-38.91243
 21
-71.117893
  0
LINE
  8
ボルト／ビス
  6
CONTINUOUS
 62
    64
 10
-38.221868
 20
-70.767893
 11
-38.173758
 21
-70.785405
  0
ARC
  8
ボルト／ビス
  6
CONTINUOUS
 62
    64
 10
-38.245927
 20
-70.925365
 40
0.157467
 50
89.999978
 51
117.278011
  0
ARC
  8
ボルト／ビス
  6
CONTINUOUS
 62
    64
 10
-38.462433
 20
-71.371499
 40
0.603602
 50
76.164993
 51
103.834976
  0
LINE
  8
ボルト／ビス
  6
CONTINUOUS
 62
    64
 10
-38.702992
 20
-70.767893
 11
-38.751108
 21
-70.785405
  0
ARC
  8
ボルト／ビス
  6
CONTINUOUS
 62
    64
 10
-38.678939
 20
-70.925364
 40
0.157467
 50
62.721945
 51
89.999978
  0
LINE
  8
ボルト／ビス
  6
CONTINUOUS
 62
    64
 10
-38.221868
 20
-70.767893
 11
-38.702992
 21
-70.767893
  0
LINE
  8
ボルト／ビス
  6
CONTINUOUS
 62
    64
 10
-38.751108
 20
-70.785405
 11
-38.751108
 21
-70.967893
  0
LINE
  8
ボルト／ビス
  6
CONTINUOUS
 62
    64
 10
-38.606768
 20
-70.785408
 11
-38.606768
 21
-70.967895
  0
LINE
  8
ボルト／ビス
  6
CONTINUOUS
 62
    64
 10
-38.173758
 20
-70.785405
 11
-38.173758
 21
-70.967893
  0
LINE
  8
ボルト／ビス
  6
CONTINUOUS
 62
    64
 10
-38.318095
 20
-70.785408
 11
-38.318095
 21
-70.967893
  0
LINE
  8
ボルト／ビス
  6
CONTINUOUS
 10
-38.173758
 20
-70.967893
 11
-38.751108
 21
-70.967893
  0
LINE
  8
ボルト／ビス
  6
CONTINUOUS
 10
-38.162432
 20
-70.967893
 11
-38.162432
 21
-71.067895
  0
LINE
  8
ボルト／ビス
  6
CONTINUOUS
 10
-38.162432
 20
-70.967893
 11
-38.76243
 21
-70.967893
  0
LINE
  8
ボルト／ビス
  6
CONTINUOUS
 10
-38.76243
 20
-70.967893
 11
-38.76243
 21
-71.067895
  0
LINE
  8
ボルト／ビス
  6
CONTINUOUS
 62
    64
 10
-38.61243
 20
-71.217893
 11
-38.61243
 21
-71.217895
  0
ENDBLK
  0
BLOCK
  2
*GRP_0003
 70
    65
 10
0.0
 20
0.0
  0
LINE
  8
ボルト／ビス
  6
CONTINUOUS
 10
-71.012438
 20
-71.217895
 11
-71.012438
 21
-71.117895
  0
LINE
  8
ボルト／ビス
  6
CONTINUOUS
 10
-71.012438
 20
-71.117895
 11
-69.91244
 21
-71.117895
  0
LINE
  8
ボルト／ビス
  6
CONTINUOUS
 10
-69.91244
 20
-71.117895
 11
-69.91244
 21
-71.217893
  0
LINE
  8
ボルト／ビス
  6
CONTINUOUS
 10
-71.012438
 20
-71.217895
 11
-69.91244
 21
-71.217893
  0
LINE
  8
ボルト／ビス
  6
CONTINUOUS
 10
-70.912438
 20
-71.067895
 11
-70.912438
 21
-71.117895
  0
LINE
  8
ボルト／ビス
  6
CONTINUOUS
 10
-70.912438
 20
-71.067895
 11
-70.01244
 21
-71.067893
  0
LINE
  8
ボルト／ビス
  6
CONTINUOUS
 10
-70.01244
 20
-71.067893
 11
-70.01244
 21
-71.117893
  0
LINE
  8
ボルト／ビス
  6
CONTINUOUS
 62
    64
 10
-70.703002
 20
-70.767893
 11
-70.751113
 21
-70.785405
  0
ARC
  8
ボルト／ビス
  6
CONTINUOUS
 62
    64
 10
-70.678943
 20
-70.925365
 40
0.157467
 50
62.721989
 51
90.000022
  0
ARC
  8
ボルト／ビス
  6
CONTINUOUS
 62
    64
 10
-70.462437
 20
-71.371499
 40
0.603602
 50
76.165024
 51
103.835007
  0
LINE
  8
ボルト／ビス
  6
CONTINUOUS
 62
    64
 10
-70.221878
 20
-70.767893
 11
-70.173762
 21
-70.785405
  0
ARC
  8
ボルト／ビス
  6
CONTINUOUS
 62
    64
 10
-70.245931
 20
-70.925364
 40
0.157467
 50
90.000022
 51
117.278055
  0
LINE
  8
ボルト／ビス
  6
CONTINUOUS
 62
    64
 10
-70.703002
 20
-70.767893
 11
-70.221878
 21
-70.767893
  0
LINE
  8
ボルト／ビス
  6
CONTINUOUS
 62
    64
 10
-70.173762
 20
-70.785405
 11
-70.173762
 21
-70.967893
  0
LINE
  8
ボルト／ビス
  6
CONTINUOUS
 62
    64
 10
-70.318102
 20
-70.785408
 11
-70.318102
 21
-70.967895
  0
LINE
  8
ボルト／ビス
  6
CONTINUOUS
 62
    64
 10
-70.751113
 20
-70.785405
 11
-70.751113
 21
-70.967893
  0
LINE
  8
ボルト／ビス
  6
CONTINUOUS
 62
    64
 10
-70.606775
 20
-70.785408
 11
-70.606775
 21
-70.967893
  0
LINE
  8
ボルト／ビス
  6
CONTINUOUS
 10
-70.751113
 20
-70.967893
 11
-70.173762
 21
-70.967893
  0
LINE
  8
ボルト／ビス
  6
CONTINUOUS
 10
-70.762438
 20
-70.967893
 11
-70.762438
 21
-71.067895
  0
LINE
  8
ボルト／ビス
  6
CONTINUOUS
 10
-70.762438
 20
-70.967893
 11
-70.16244
 21
-70.967893
  0
LINE
  8
ボルト／ビス
  6
CONTINUOUS
 10
-70.16244
 20
-70.967893
 11
-70.16244
 21
-71.067895
  0
LINE
  8
ボルト／ビス
  6
CONTINUOUS
 62
    64
 10
-70.31244
 20
-71.217893
 11
-70.31244
 21
-71.217895
  0
ENDBLK
  0
BLOCK
  2
*GRP_0004
 70
    65
 10
0.0
 20
0.0
  0
INSERT
  2
*GRP_0012
  8
補助線
  6
CONTINUOUS
 10
0.0
 20
0.0
  0
LINE
  8
ボルト／ビス
  6
CONTINUOUS
 10
-61.962435
 20
21.566845
 11
-61.712435
 21
21.711182
  0
LINE
  8
ボルト／ビス
  6
CONTINUOUS
 10
-61.962435
 20
21.566845
 11
-62.212435
 21
21.711182
  0
LINE
  8
ボルト／ビス
  6
CONTINUOUS
 10
-61.712435
 20
21.999857
 11
-61.962435
 21
22.144195
  0
LINE
  8
ボルト／ビス
  6
CONTINUOUS
 10
-62.212435
 20
21.999857
 11
-61.962435
 21
22.144195
  0
CIRCLE
  8
ボルト／ビス
  6
CONTINUOUS
 10
-61.962435
 20
21.85552
 40
0.25
  0
LINE
  8
ボルト／ビス
  6
CONTINUOUS
 10
-62.212435
 20
21.711182
 11
-62.212435
 21
21.999857
  0
LINE
  8
ボルト／ビス
  6
CONTINUOUS
 10
-61.712435
 20
21.999857
 11
-61.712435
 21
21.711182
  0
ENDBLK
  0
BLOCK
  2
*GRP_0005
 70
    65
 10
0.0
 20
0.0
  0
INSERT
  2
*GRP_0013
  8
補助線
  6
CONTINUOUS
 10
0.0
 20
0.0
  0
LINE
  8
ボルト／ビス
  6
CONTINUOUS
 10
-70.75111
 20
30.35552
 11
-70.606772
 21
30.60552
  0
LINE
  8
ボルト／ビス
  6
CONTINUOUS
 10
-70.75111
 20
30.35552
 11
-70.606772
 21
30.10552
  0
LINE
  8
ボルト／ビス
  6
CONTINUOUS
 10
-70.318098
 20
30.60552
 11
-70.17376
 21
30.35552
  0
LINE
  8
ボルト／ビス
  6
CONTINUOUS
 10
-70.318098
 20
30.10552
 11
-70.17376
 21
30.35552
  0
CIRCLE
  8
ボルト／ビス
  6
CONTINUOUS
 10
-70.462435
 20
30.35552
 40
0.25
  0
LINE
  8
ボルト／ビス
  6
CONTINUOUS
 10
-70.606772
 20
30.10552
 11
-70.318098
 21
30.10552
  0
LINE
  8
ボルト／ビス
  6
CONTINUOUS
 10
-70.318098
 20
30.60552
 11
-70.606772
 21
30.60552
  0
ENDBLK
  0
BLOCK
  2
*GRP_0006
 70
    65
 10
0.0
 20
0.0
  0
INSERT
  2
*GRP_0014
  8
補助線
  6
CONTINUOUS
 10
0.0
 20
0.0
  0
LINE
  8
ボルト／ビス
  6
CONTINUOUS
 10
-46.962435
 20
21.566845
 11
-47.212435
 21
21.711182
  0
LINE
  8
ボルト／ビス
  6
CONTINUOUS
 10
-46.962435
 20
21.566845
 11
-46.712435
 21
21.711182
  0
LINE
  8
ボルト／ビス
  6
CONTINUOUS
 10
-47.212435
 20
21.999857
 11
-46.962435
 21
22.144195
  0
LINE
  8
ボルト／ビス
  6
CONTINUOUS
 10
-46.712435
 20
21.999857
 11
-46.962435
 21
22.144195
  0
CIRCLE
  8
ボルト／ビス
  6
CONTINUOUS
 10
-46.962435
 20
21.85552
 40
0.25
  0
LINE
  8
ボルト／ビス
  6
CONTINUOUS
 10
-46.712435
 20
21.711182
 11
-46.712435
 21
21.999857
  0
LINE
  8
ボルト／ビス
  6
CONTINUOUS
 10
-47.212435
 20
21.999857
 11
-47.212435
 21
21.711182
  0
ENDBLK
  0
BLOCK
  2
*GRP_0007
 70
    65
 10
0.0
 20
0.0
  0
INSERT
  2
*GRP_0015
  8
補助線
  6
CONTINUOUS
 10
0.0
 20
0.0
  0
LINE
  8
ボルト／ビス
  6
CONTINUOUS
 10
-38.17376
 20
30.35552
 11
-38.318098
 21
30.60552
  0
LINE
  8
ボルト／ビス
  6
CONTINUOUS
 10
-38.17376
 20
30.35552
 11
-38.318098
 21
30.10552
  0
LINE
  8
ボルト／ビス
  6
CONTINUOUS
 10
-38.606772
 20
30.60552
 11
-38.75111
 21
30.35552
  0
LINE
  8
ボルト／ビス
  6
CONTINUOUS
 10
-38.606772
 20
30.10552
 11
-38.75111
 21
30.35552
  0
CIRCLE
  8
ボルト／ビス
  6
CONTINUOUS
 10
-38.462435
 20
30.35552
 40
0.25
  0
LINE
  8
ボルト／ビス
  6
CONTINUOUS
 10
-38.318098
 20
30.10552
 11
-38.606772
 21
30.10552
  0
LINE
  8
ボルト／ビス
  6
CONTINUOUS
 10
-38.606772
 20
30.60552
 11
-38.318098
 21
30.60552
  0
ENDBLK
  0
BLOCK
  2
*GRP_0008
 70
    65
 10
0.0
 20
0.0
  0
INSERT
  2
*GRP_0016
  8
補助線
  6
CONTINUOUS
 10
0.0
 20
0.0
  0
LINE
  8
ボルト／ビス
  6
CONTINUOUS
 10
-46.962435
 20
54.144195
 11
-47.212435
 21
53.999857
  0
LINE
  8
ボルト／ビス
  6
CONTINUOUS
 10
-46.962435
 20
54.144195
 11
-46.712435
 21
53.999857
  0
LINE
  8
ボルト／ビス
  6
CONTINUOUS
 10
-47.212435
 20
53.711182
 11
-46.962435
 21
53.566845
  0
LINE
  8
ボルト／ビス
  6
CONTINUOUS
 10
-46.712435
 20
53.711182
 11
-46.962435
 21
53.566845
  0
CIRCLE
  8
ボルト／ビス
  6
CONTINUOUS
 10
-46.962435
 20
53.85552
 40
0.25
  0
LINE
  8
ボルト／ビス
  6
CONTINUOUS
 10
-46.712435
 20
53.999857
 11
-46.712435
 21
53.711182
  0
LINE
  8
ボルト／ビス
  6
CONTINUOUS
 10
-47.212435
 20
53.711182
 11
-47.212435
 21
53.999857
  0
ENDBLK
  0
BLOCK
  2
*GRP_0009
 70
    65
 10
0.0
 20
0.0
  0
INSERT
  2
*GRP_0017
  8
補助線
  6
CONTINUOUS
 10
0.0
 20
0.0
  0
LINE
  8
ボルト／ビス
  6
CONTINUOUS
 10
-38.17376
 20
45.35552
 11
-38.318098
 21
45.10552
  0
LINE
  8
ボルト／ビス
  6
CONTINUOUS
 10
-38.17376
 20
45.35552
 11
-38.318098
 21
45.60552
  0
LINE
  8
ボルト／ビス
  6
CONTINUOUS
 10
-38.606772
 20
45.10552
 11
-38.75111
 21
45.35552
  0
LINE
  8
ボルト／ビス
  6
CONTINUOUS
 10
-38.606772
 20
45.60552
 11
-38.75111
 21
45.35552
  0
CIRCLE
  8
ボルト／ビス
  6
CONTINUOUS
 10
-38.462435
 20
45.35552
 40
0.25
  0
LINE
  8
ボルト／ビス
  6
CONTINUOUS
 10
-38.318098
 20
45.60552
 11
-38.606772
 21
45.60552
  0
LINE
  8
ボルト／ビス
  6
CONTINUOUS
 10
-38.606772
 20
45.10552
 11
-38.318098
 21
45.10552
  0
ENDBLK
  0
BLOCK
  2
*GRP_0010
 70
    65
 10
0.0
 20
0.0
  0
INSERT
  2
*GRP_0018
  8
補助線
  6
CONTINUOUS
 10
0.0
 20
0.0
  0
LINE
  8
ボルト／ビス
  6
CONTINUOUS
 10
-61.962435
 20
54.144195
 11
-61.712435
 21
53.999857
  0
LINE
  8
ボルト／ビス
  6
CONTINUOUS
 10
-61.962435
 20
54.144195
 11
-62.212435
 21
53.999857
  0
LINE
  8
ボルト／ビス
  6
CONTINUOUS
 10
-61.712435
 20
53.711182
 11
-61.962435
 21
53.566845
  0
LINE
  8
ボルト／ビス
  6
CONTINUOUS
 10
-62.212435
 20
53.711182
 11
-61.962435
 21
53.566845
  0
CIRCLE
  8
ボルト／ビス
  6
CONTINUOUS
 10
-61.962435
 20
53.85552
 40
0.25
  0
LINE
  8
ボルト／ビス
  6
CONTINUOUS
 10
-62.212435
 20
53.999857
 11
-62.212435
 21
53.711182
  0
LINE
  8
ボルト／ビス
  6
CONTINUOUS
 10
-61.712435
 20
53.711182
 11
-61.712435
 21
53.999857
  0
ENDBLK
  0
BLOCK
  2
*GRP_0011
 70
    65
 10
0.0
 20
0.0
  0
INSERT
  2
*GRP_0019
  8
補助線
  6
CONTINUOUS
 10
0.0
 20
0.0
  0
LINE
  8
ボルト／ビス
  6
CONTINUOUS
 10
-70.75111
 20
45.35552
 11
-70.606772
 21
45.10552
  0
LINE
  8
ボルト／ビス
  6
CONTINUOUS
 10
-70.75111
 20
45.35552
 11
-70.606772
 21
45.60552
  0
LINE
  8
ボルト／ビス
  6
CONTINUOUS
 10
-70.318098
 20
45.10552
 11
-70.17376
 21
45.35552
  0
LINE
  8
ボルト／ビス
  6
CONTINUOUS
 10
-70.318098
 20
45.60552
 11
-70.17376
 21
45.35552
  0
CIRCLE
  8
ボルト／ビス
  6
CONTINUOUS
 10
-70.462435
 20
45.35552
 40
0.25
  0
LINE
  8
ボルト／ビス
  6
CONTINUOUS
 10
-70.606772
 20
45.60552
 11
-70.318098
 21
45.60552
  0
LINE
  8
ボルト／ビス
  6
CONTINUOUS
 10
-70.318098
 20
45.10552
 11
-70.606772
 21
45.10552
  0
ENDBLK
  0
BLOCK
  2
*GRP_0012
 70
    65
 10
0.0
 20
0.0
  0
LINE
  8
補助線
  6
BYBLOCK
 62
     0
 10
-62.087435
 20
21.85552
 11
-61.837435
 21
21.85552
  0
LINE
  8
補助線
  6
BYBLOCK
 62
     0
 10
-61.962435
 20
21.73052
 11
-61.962435
 21
21.98052
  0
ENDBLK
  0
BLOCK
  2
*GRP_0013
 70
    65
 10
0.0
 20
0.0
  0
LINE
  8
補助線
  6
BYBLOCK
 62
     0
 10
-70.462435
 20
30.23052
 11
-70.462435
 21
30.48052
  0
LINE
  8
補助線
  6
BYBLOCK
 62
     0
 10
-70.587435
 20
30.35552
 11
-70.337435
 21
30.35552
  0
ENDBLK
  0
BLOCK
  2
*GRP_0014
 70
    65
 10
0.0
 20
0.0
  0
LINE
  8
補助線
  6
BYBLOCK
 62
     0
 10
-46.837435
 20
21.85552
 11
-47.087435
 21
21.85552
  0
LINE
  8
補助線
  6
BYBLOCK
 62
     0
 10
-46.962435
 20
21.73052
 11
-46.962435
 21
21.98052
  0
ENDBLK
  0
BLOCK
  2
*GRP_0015
 70
    65
 10
0.0
 20
0.0
  0
LINE
  8
補助線
  6
BYBLOCK
 62
     0
 10
-38.462435
 20
30.23052
 11
-38.462435
 21
30.48052
  0
LINE
  8
補助線
  6
BYBLOCK
 62
     0
 10
-38.337435
 20
30.35552
 11
-38.587435
 21
30.35552
  0
ENDBLK
  0
BLOCK
  2
*GRP_0016
 70
    65
 10
0.0
 20
0.0
  0
LINE
  8
補助線
  6
BYBLOCK
 62
     0
 10
-46.837435
 20
53.85552
 11
-47.087435
 21
53.85552
  0
LINE
  8
補助線
  6
BYBLOCK
 62
     0
 10
-46.962435
 20
53.98052
 11
-46.962435
 21
53.73052
  0
ENDBLK
  0
BLOCK
  2
*GRP_0017
 70
    65
 10
0.0
 20
0.0
  0
LINE
  8
補助線
  6
BYBLOCK
 62
     0
 10
-38.462435
 20
45.48052
 11
-38.462435
 21
45.23052
  0
LINE
  8
補助線
  6
BYBLOCK
 62
     0
 10
-38.337435
 20
45.35552
 11
-38.587435
 21
45.35552
  0
ENDBLK
  0
BLOCK
  2
*GRP_0018
 70
    65
 10
0.0
 20
0.0
  0
LINE
  8
補助線
  6
BYBLOCK
 62
     0
 10
-62.087435
 20
53.85552
 11
-61.837435
 21
53.85552
  0
LINE
  8
補助線
  6
BYBLOCK
 62
     0
 10
-61.962435
 20
53.98052
 11
-61.962435
 21
53.73052
  0
ENDBLK
  0
BLOCK
  2
*GRP_0019
 70
    65
 10
0.0
 20
0.0
  0
LINE
  8
補助線
  6
BYBLOCK
 62
     0
 10
-70.462435
 20
45.48052
 11
-70.462435
 21
45.23052
  0
LINE
  8
補助線
  6
BYBLOCK
 62
     0
 10
-70.587435
 20
45.35552
 11
-70.337435
 21
45.35552
  0
ENDBLK
  0
BLOCK
  2
*DIM_0020
 70
    65
 10
0.0
 20
0.0
  0
LINE
  8
寸法
  6
CONTINUOUS
 10
-35.552215
 20
-68.767642
 11
-35.552215
 21
-43.640747
  0
LINE
  8
寸法
  6
CONTINUOUS
 10
-39.462435
 20
-43.640747
 11
-35.552215
 21
-43.640747
  0
POINT
  8
寸法
 10
-39.462435
 20
-43.640747
  0
POINT
  8
寸法
 10
-35.552215
 20
-43.640747
  0
TEXT
  7
TextStyle03
  8
寸法
  6
CONTINUOUS
 10
-34.05625
 20
-43.275
  1
78.2
 40
3.0
 72
     5
 11
-27.49375
 21
-43.275
  0
ENDBLK
  0
BLOCK
  2
*DIM_0021
 70
    65
 10
0.0
 20
0.0
  0
LINE
  8
寸法
  6
CONTINUOUS
 10
-73.372655
 20
-68.767642
 11
-73.372655
 21
-43.640747
  0
LINE
  8
寸法
  6
CONTINUOUS
 10
-69.462435
 20
-43.640747
 11
-73.372655
 21
-43.640747
  0
POINT
  8
寸法
 10
-69.462435
 20
-43.640747
  0
POINT
  8
寸法
 10
-73.372655
 20
-43.640747
  0
TEXT
  7
TextStyle03
  8
寸法
  6
CONTINUOUS
 10
-81.45625
 20
-43.275
  1
78.2
 40
3.0
 72
     5
 11
-74.89375
 21
-43.275
  0
ENDBLK
  0
BLOCK
  2
*DIM_0022
 70
    65
 10
0.0
 20
0.0
  0
LINE
  8
寸法
  6
CONTINUOUS
 10
-39.462435
 20
-43.640747
 11
-69.462435
 21
-43.640747
  0
POINT
  8
寸法
 10
-39.462435
 20
-43.640747
  0
POINT
  8
寸法
 10
-69.462435
 20
-43.640747
  0
TEXT
  7
TextStyle03
  8
寸法
  6
CONTINUOUS
 10
-65.35
 20
-43.275
  1
呼称寸法　600
 40
3.0
 72
     5
 11
-43.6
 21
-43.275
  0
ENDBLK
  0
BLOCK
  2
*DIM_0023
 70
    65
 10
0.0
 20
0.0
  0
LINE
  8
寸法
  6
CONTINUOUS
 10
-30.552215
 20
-74.517642
 11
-17.415827
 21
-74.517642
  0
LINE
  8
寸法
  6
CONTINUOUS
 10
-34.462435
 20
-70.467897
 11
-17.415827
 21
-70.467897
  0
LINE
  8
寸法
  6
CONTINUOUS
 10
-17.415827
 20
-74.517642
 11
-17.415827
 21
-70.467897
  0
POINT
  8
寸法
 10
-17.415827
 20
-74.517642
  0
POINT
  8
寸法
 10
-17.415827
 20
-70.467897
  0
TEXT
  7
TextStyle03
  8
寸法
  6
CONTINUOUS
 10
-17.8
 20
-74.09375
  1
81
 40
3.0
 50
90.0
 72
     5
 11
-17.8
 21
-70.90625
  0
ENDBLK
  0
BLOCK
  2
*DIM_0024
 70
    65
 10
0.0
 20
0.0
  0
LINE
  8
寸法
  6
BYBLOCK
 62
     0
 10
-64.462432
 20
53.855523
 11
-64.462432
 21
73.444702
  0
LINE
  8
寸法
  6
BYBLOCK
 62
     0
 10
-44.462432
 20
53.855523
 11
-44.462432
 21
73.444702
  0
LINE
  8
寸法
  6
BYBLOCK
 62
     0
 10
-64.462432
 20
73.444702
 11
-44.462432
 21
73.444702
  0
POINT
  8
寸法
 62
     0
 10
-64.462432
 20
73.444702
  0
POINT
  8
寸法
 62
     0
 10
-44.462432
 20
73.444702
  0
TEXT
  7
TextStyle03
  8
寸法
  6
CONTINUOUS
 62
     0
 10
-56.9125
 20
73.825
  1
400
 40
3.0
 72
     5
 11
-52.0375
 21
73.825
  0
ENDBLK
  0
BLOCK
  2
*DIM_0025
 70
    65
 10
0.0
 20
0.0
  0
LINE
  8
寸法
  6
CONTINUOUS
 10
84.346242
 20
59.435102
 11
84.346242
 21
67.374385
  0
LINE
  8
寸法
  6
CONTINUOUS
 10
113.346242
 20
59.435102
 11
113.346242
 21
67.374385
  0
LINE
  8
寸法
  6
CONTINUOUS
 10
84.346242
 20
67.374385
 11
113.346242
 21
67.374385
  0
POINT
  8
寸法
 10
84.346242
 20
67.374385
  0
POINT
  8
寸法
 10
113.346242
 20
67.374385
  0
TEXT
  7
TextStyle03
  8
寸法
  6
CONTINUOUS
 10
96.3875
 20
67.725
  1
580
 40
3.0
 72
     5
 11
101.2625
 21
67.725
  0
ENDBLK
  0
BLOCK
  2
*DIM_0026
 70
    65
 10
0.0
 20
0.0
  0
LINE
  8
寸法
  6
CONTINUOUS
 10
118.346242
 20
54.435102
 11
132.16844
 21
54.435102
  0
LINE
  8
寸法
  6
CONTINUOUS
 10
118.346242
 20
25.435102
 11
132.16844
 21
25.435102
  0
LINE
  8
寸法
  6
CONTINUOUS
 10
132.16844
 20
54.435102
 11
132.16844
 21
25.435102
  0
POINT
  8
寸法
 10
132.16844
 20
54.435102
  0
POINT
  8
寸法
 10
132.16844
 20
25.435102
  0
TEXT
  7
TextStyle03
  8
寸法
  6
CONTINUOUS
 10
131.775
 20
37.4875
  1
580
 40
3.0
 50
90.0
 72
     5
 11
131.775
 21
42.3625
  0
ENDBLK
  0
ENDSEC
  0
SECTION
  2
ENTITIES
  0
POLYLINE
  8
通り芯
  6
CONTINUOUS
 66
     1
 70
     1
  0
VERTEX
  8
通り芯
 10
-210.0
 20
-148.5
  0
VERTEX
  8
通り芯
 10
210.0
 20
-148.5
  0
VERTEX
  8
通り芯
 10
210.0
 20
148.5
  0
VERTEX
  8
通り芯
 10
-210.0
 20
148.5
  0
SEQEND
  0
INSERT
  2
*GRP_0001
  8
型材断面
  6
CONTINUOUS
 10
0.0
 20
0.0
  0
LINE
  8
型材断面
  6
CONTINUOUS
 10
-36.227215
 20
-75.192642
 11
-36.227215
 21
-74.517642
  0
LINE
  8
型材断面
  6
CONTINUOUS
 62
    47
 10
-35.552215
 20
-74.517642
 11
-35.552215
 21
-73.767642
  0
LINE
  8
型材断面
  6
CONTINUOUS
 62
    47
 10
-39.387435
 20
-72.574218
 11
-35.552215
 21
-73.767642
  0
LINE
  8
型材断面
  6
CONTINUOUS
 10
-36.227215
 20
-74.517642
 11
-35.552215
 21
-74.517642
  0
LINE
  8
型材断面
  6
CONTINUOUS
 10
-36.96244
 20
-72.467895
 11
-37.03744
 21
-72.467893
  0
LINE
  8
型材断面
  6
CONTINUOUS
 10
-36.96244
 20
-72.467895
 11
-36.96244
 21
-71.217895
  0
LINE
  8
型材断面
  6
CONTINUOUS
 10
-39.462435
 20
-70.467897
 11
-39.462435
 21
-71.217893
  0
LINE
  8
型材断面
  6
CONTINUOUS
 10
-36.96244
 20
-71.217895
 11
-39.462435
 21
-71.217893
  0
LINE
  8
型材断面
  6
CONTINUOUS
 10
-39.387435
 20
-72.574218
 11
-39.387435
 21
-72.467893
  0
INSERT
  2
*GRP_0002
  8
型材断面
  6
CONTINUOUS
 10
0.0
 20
0.0
  0
LINE
  8
型材断面
  6
CONTINUOUS
 10
-73.372655
 20
-74.517642
 11
-35.552215
 21
-74.517642
  0
LINE
  8
型材断面
  6
CONTINUOUS
 10
-73.372655
 20
-73.767642
 11
-35.552215
 21
-73.767642
  0
LINE
  8
型材断面
  6
CONTINUOUS
 10
-72.697655
 20
-75.192642
 11
-72.697655
 21
-74.517642
  0
LINE
  8
型材断面
  6
CONTINUOUS
 62
    47
 10
-73.372655
 20
-74.517642
 11
-73.372655
 21
-73.767642
  0
LINE
  8
型材断面
  6
CONTINUOUS
 62
    47
 10
-69.537435
 20
-72.574218
 11
-73.372655
 21
-73.767642
  0
LINE
  8
型材断面
  6
CONTINUOUS
 10
-72.697655
 20
-74.517642
 11
-73.372655
 21
-74.517642
  0
LINE
  8
型材断面
  6
CONTINUOUS
 10
-71.96243
 20
-72.467895
 11
-71.88743
 21
-72.467893
  0
LINE
  8
型材断面
  6
CONTINUOUS
 10
-71.96243
 20
-72.467895
 11
-71.96243
 21
-71.217895
  0
LINE
  8
型材断面
  6
CONTINUOUS
 10
-69.462435
 20
-70.467897
 11
-69.462435
 21
-71.217893
  0
LINE
  8
型材断面
  6
CONTINUOUS
 10
-71.96243
 20
-71.217895
 11
-69.462435
 21
-71.217893
  0
LINE
  8
型材断面
  6
CONTINUOUS
 10
-69.537435
 20
-72.574218
 11
-69.537435
 21
-72.467893
  0
INSERT
  2
*GRP_0003
  8
型材断面
  6
CONTINUOUS
 10
0.0
 20
0.0
  0
LINE
  8
型材断面
  6
CONTINUOUS
 10
-39.462435
 20
-70.467895
 11
-69.462435
 21
-70.467895
  0
LINE
  8
型材断面
  6
CONTINUOUS
 10
-36.96244
 20
-72.467893
 11
-71.96243
 21
-72.467893
  0
LINE
  8
型材断面
  6
CONTINUOUS
 10
-36.96244
 20
-71.217895
 11
-71.96243
 21
-71.217895
  0
LINE
  8
型材断面
  6
CONTINUOUS
 10
-39.387435
 20
-72.574218
 11
-69.537435
 21
-72.574218
  0
LINE
  8
型材断面
  6
CONTINUOUS
 10
-36.227215
 20
-75.192642
 11
-72.697655
 21
-75.192642
  0
LINE
  8
型材断面
  6
CONTINUOUS
 10
-35.552215
 20
18.9453
 11
-35.552215
 21
56.76574
  0
LINE
  8
型材断面
  6
CONTINUOUS
 10
-36.96244
 20
20.355525
 11
-36.96244
 21
55.355515
  0
LINE
  8
型材断面
  6
CONTINUOUS
 10
-36.96244
 20
55.355515
 11
-71.96243
 21
55.355515
  0
LINE
  8
型材断面
  6
CONTINUOUS
 10
-35.552215
 20
56.76574
 11
-73.372655
 21
56.76574
  0
LINE
  8
型材断面
  6
CONTINUOUS
 10
-36.96244
 20
20.355525
 11
-71.96243
 21
20.355525
  0
LINE
  8
型材断面
  6
CONTINUOUS
 10
-71.96243
 20
55.355515
 11
-71.96243
 21
20.355525
  0
LINE
  8
型材断面
  6
CONTINUOUS
 10
-35.552215
 20
18.9453
 11
-73.372655
 21
18.9453
  0
LINE
  8
型材断面
  6
CONTINUOUS
 10
-73.372655
 20
56.76574
 11
-73.372655
 21
18.9453
  0
LINE
  8
型材断面
  6
DASHDOT
 10
-39.462435
 20
-77.614368
 11
-39.462435
 21
22.85552
  0
LINE
  8
型材断面
  6
DASHDOT
 10
-69.462435
 20
-77.614368
 11
-69.462435
 21
22.85552
  0
LINE
  8
型材断面
  6
DASHDOT
 10
-54.462435
 20
-77.614368
 11
-54.462435
 21
52.85552
  0
LINE
  8
型材断面
  6
DASHDOT
 10
-39.462435
 20
37.85552
 11
-69.462435
 21
37.85552
  0
LINE
  8
型材断面
  6
CONTINUOUS
 10
-77.486308
 20
37.85552
 11
-81.372067
 21
35.612075
  0
LINE
  8
型材断面
  6
CONTINUOUS
 10
-77.486308
 20
37.85552
 11
-81.372067
 21
40.098965
  0
LINE
  8
型材断面
  6
CONTINUOUS
 10
-81.372067
 20
40.098965
 11
-81.372067
 21
35.612075
  0
LINE
  8
型材断面
  6
CONTINUOUS
 10
-31.438558
 20
37.85552
 11
-27.552797
 21
35.612075
  0
LINE
  8
型材断面
  6
CONTINUOUS
 10
-31.438558
 20
37.85552
 11
-27.552797
 21
40.098965
  0
LINE
  8
型材断面
  6
CONTINUOUS
 10
-27.552797
 20
40.098965
 11
-27.552797
 21
35.612075
  0
LINE
  8
型材断面
  6
CONTINUOUS
 10
-54.462435
 20
60.879392
 11
-56.70588
 21
64.765152
  0
LINE
  8
型材断面
  6
CONTINUOUS
 10
-54.462435
 20
60.879392
 11
-52.21899
 21
64.765152
  0
LINE
  8
型材断面
  6
CONTINUOUS
 10
-52.21899
 20
64.765152
 11
-56.70588
 21
64.765152
  0
LINE
  8
型材断面
  6
CONTINUOUS
 10
-54.462435
 20
14.831643
 11
-56.70588
 21
10.945882
  0
LINE
  8
型材断面
  6
CONTINUOUS
 10
-54.462435
 20
14.831643
 11
-52.21899
 21
10.945882
  0
LINE
  8
型材断面
  6
CONTINUOUS
 10
-52.21899
 20
10.945882
 11
-56.70588
 21
10.945882
  0
LINE
  8
型材断面
  6
CONTINUOUS
 10
-12.51175
 20
14.981502
 11
-14.755195
 21
11.095743
  0
LINE
  8
型材断面
  6
CONTINUOUS
 10
-12.51175
 20
14.981502
 11
-10.268305
 21
11.095743
  0
LINE
  8
型材断面
  6
CONTINUOUS
 10
-10.268305
 20
11.095743
 11
-14.755195
 21
11.095743
  0
LINE
  8
型材断面
  6
CONTINUOUS
 10
-21.54563
 20
9.68785
 11
31.11105
 21
9.68785
  0
LINE
  8
型材断面
  6
CONTINUOUS
 10
-21.54563
 20
2.346413
 11
31.11105
 21
2.346413
  0
LINE
  8
型材断面
  6
CONTINUOUS
 10
-40.712435
 20
38.48052
 11
-39.462435
 21
38.48052
  0
LINE
  8
型材断面
  6
CONTINUOUS
 10
-40.712435
 20
38.48052
 11
-40.712435
 21
51.60552
  0
LINE
  8
型材断面
  6
CONTINUOUS
 10
-40.712435
 20
51.60552
 11
-53.837435
 21
51.60552
  0
LINE
  8
型材断面
  6
CONTINUOUS
 10
-53.837435
 20
51.60552
 11
-53.837435
 21
52.85552
  0
LINE
  8
型材断面
  6
CONTINUOUS
 10
-40.712435
 20
37.23052
 11
-39.462435
 21
37.23052
  0
LINE
  8
型材断面
  6
CONTINUOUS
 10
-40.712435
 20
37.23052
 11
-40.712435
 21
24.10552
  0
LINE
  8
型材断面
  6
CONTINUOUS
 10
-40.712435
 20
24.10552
 11
-53.837435
 21
24.10552
  0
LINE
  8
型材断面
  6
CONTINUOUS
 10
-53.837435
 20
24.10552
 11
-53.837435
 21
22.85552
  0
LINE
  8
型材断面
  6
CONTINUOUS
 10
-68.212435
 20
37.23052
 11
-69.462435
 21
37.23052
  0
LINE
  8
型材断面
  6
CONTINUOUS
 10
-68.212435
 20
37.23052
 11
-68.212435
 21
24.10552
  0
LINE
  8
型材断面
  6
CONTINUOUS
 10
-68.212435
 20
24.10552
 11
-55.087435
 21
24.10552
  0
LINE
  8
型材断面
  6
CONTINUOUS
 10
-55.087435
 20
24.10552
 11
-55.087435
 21
22.85552
  0
LINE
  8
型材断面
  6
CONTINUOUS
 10
-68.212435
 20
38.48052
 11
-69.462435
 21
38.48052
  0
LINE
  8
型材断面
  6
CONTINUOUS
 10
-68.212435
 20
38.48052
 11
-68.212435
 21
51.60552
  0
LINE
  8
型材断面
  6
CONTINUOUS
 10
-68.212435
 20
51.60552
 11
-55.087435
 21
51.60552
  0
LINE
  8
型材断面
  6
CONTINUOUS
 10
-55.087435
 20
51.60552
 11
-55.087435
 21
52.85552
  0
LINE
  8
型材断面
  6
CONTINUOUS
 10
-69.462435
 20
22.85552
 11
-69.462435
 21
37.85552
  0
LINE
  8
型材断面
  6
CONTINUOUS
 10
-69.462435
 20
52.85552
 11
-69.462435
 21
37.85552
  0
LINE
  8
型材断面
  6
CONTINUOUS
 10
-69.462435
 20
52.85552
 11
-54.462435
 21
52.85552
  0
LINE
  8
型材断面
  6
CONTINUOUS
 10
-39.462435
 20
52.85552
 11
-54.462435
 21
52.85552
  0
LINE
  8
型材断面
  6
CONTINUOUS
 10
-39.462435
 20
22.85552
 11
-39.462435
 21
37.85552
  0
LINE
  8
型材断面
  6
CONTINUOUS
 10
-39.462435
 20
52.85552
 11
-39.462435
 21
37.85552
  0
LINE
  8
型材断面
  6
CONTINUOUS
 10
-39.462435
 20
22.85552
 11
-54.462435
 21
22.85552
  0
LINE
  8
型材断面
  6
CONTINUOUS
 10
-69.462435
 20
22.85552
 11
-54.462435
 21
22.85552
  0
LINE
  8
型材断面
  6
CONTINUOUS
 10
-35.552215
 20
56.76574
 11
-40.712435
 21
51.60552
  0
LINE
  8
型材断面
  6
CONTINUOUS
 10
-35.552215
 20
18.9453
 11
-40.712435
 21
24.10552
  0
LINE
  8
型材断面
  6
CONTINUOUS
 10
-73.372655
 20
18.9453
 11
-68.212435
 21
24.10552
  0
LINE
  8
型材断面
  6
CONTINUOUS
 10
-73.372655
 20
56.76574
 11
-68.212435
 21
51.60552
  0
LINE
  8
型材断面
  6
CONTINUOUS
 10
82.212575
 20
74.239348
 11
101.885652
 21
74.239348
  0
POLYLINE
  8
ガラス
  6
CONTINUOUS
 66
     1
 70
     1
  0
VERTEX
  8
ガラス
 10
113.346242
 20
54.435102
  0
VERTEX
  8
ガラス
 10
84.346242
 20
54.435102
  0
VERTEX
  8
ガラス
 10
84.346242
 20
25.435102
  0
VERTEX
  8
ガラス
 10
113.346242
 20
25.435102
  0
SEQEND
  0
CIRCLE
  8
ボルト／ビス
  6
CONTINUOUS
 10
-61.962435
 20
21.85552
 40
0.288675
  0
CIRCLE
  8
ボルト／ビス
  6
CONTINUOUS
 10
-61.962435
 20
21.85552
 40
0.455885
  0
CIRCLE
  8
ボルト／ビス
  6
CONTINUOUS
 10
-70.462435
 20
30.35552
 40
0.288675
  0
CIRCLE
  8
ボルト／ビス
  6
CONTINUOUS
 10
-70.462435
 20
30.35552
 40
0.455885
  0
CIRCLE
  8
ボルト／ビス
  6
CONTINUOUS
 10
-46.962435
 20
21.85552
 40
0.288675
  0
CIRCLE
  8
ボルト／ビス
  6
CONTINUOUS
 10
-46.962435
 20
21.85552
 40
0.455885
  0
CIRCLE
  8
ボルト／ビス
  6
CONTINUOUS
 10
-38.462435
 20
30.35552
 40
0.288675
  0
CIRCLE
  8
ボルト／ビス
  6
CONTINUOUS
 10
-38.462435
 20
30.35552
 40
0.455885
  0
CIRCLE
  8
ボルト／ビス
  6
CONTINUOUS
 10
-46.962435
 20
53.85552
 40
0.288675
  0
CIRCLE
  8
ボルト／ビス
  6
CONTINUOUS
 10
-46.962435
 20
53.85552
 40
0.455885
  0
CIRCLE
  8
ボルト／ビス
  6
CONTINUOUS
 10
-38.462435
 20
45.35552
 40
0.288675
  0
CIRCLE
  8
ボルト／ビス
  6
CONTINUOUS
 10
-38.462435
 20
45.35552
 40
0.455885
  0
CIRCLE
  8
ボルト／ビス
  6
CONTINUOUS
 10
-61.962435
 20
53.85552
 40
0.288675
  0
CIRCLE
  8
ボルト／ビス
  6
CONTINUOUS
 10
-61.962435
 20
53.85552
 40
0.455885
  0
CIRCLE
  8
ボルト／ビス
  6
CONTINUOUS
 10
-70.462435
 20
45.35552
 40
0.288675
  0
CIRCLE
  8
ボルト／ビス
  6
CONTINUOUS
 10
-70.462435
 20
45.35552
 40
0.455885
  0
TEXT
  7
TextStyle03
  8
文字
  6
CONTINUOUS
 10
73.475
 20
125.25
  1
シリーズ：ＳＴＦＦＫ
 40
5.0
 72
     5
 11
129.1
 21
125.25
  0
TEXT
  7
TextStyle03
  8
文字
  6
CONTINUOUS
 10
73.475
 20
119.625
  1
　　　　　（固定）600×600タイプ
 40
5.0
 72
     5
 11
162.85
 21
119.625
  0
TEXT
  7
TextStyle03
  8
文字
  6
CONTINUOUS
 10
73.475
 20
114.0
  1
図面名　：外観姿図
 40
5.0
 72
     5
 11
123.475
 21
114.0
  0
TEXT
  7
TextStyle03
  8
文字
  6
CONTINUOUS
 10
73.475
 20
108.375
  1
　　　　　　
 40
5.0
 72
     5
 11
106.6
 21
108.375
  0
INSERT
  2
*GRP_0004
  8
文字
  6
CONTINUOUS
 10
0.0
 20
0.0
  0
INSERT
  2
*GRP_0005
  8
文字
  6
CONTINUOUS
 10
0.0
 20
0.0
  0
INSERT
  2
*GRP_0006
  8
文字
  6
CONTINUOUS
 10
0.0
 20
0.0
  0
INSERT
  2
*GRP_0007
  8
文字
  6
CONTINUOUS
 10
0.0
 20
0.0
  0
INSERT
  2
*GRP_0008
  8
文字
  6
CONTINUOUS
 10
0.0
 20
0.0
  0
INSERT
  2
*GRP_0009
  8
文字
  6
CONTINUOUS
 10
0.0
 20
0.0
  0
INSERT
  2
*GRP_0010
  8
文字
  6
CONTINUOUS
 10
0.0
 20
0.0
  0
INSERT
  2
*GRP_0011
  8
文字
  6
CONTINUOUS
 10
0.0
 20
0.0
  0
TEXT
  7
TextStyle03
  8
文字
  6
CONTINUOUS
 10
-8.225
 20
11.425
  1
は排水穴位置を示す
 40
3.0
 72
     5
 11
21.775
 21
11.425
  0
TEXT
  7
TextStyle03
  8
文字
  6
CONTINUOUS
 10
-75.85
 20
79.25
  1
アンカーピッチ
 40
3.0
 72
     5
 11
-52.6
 21
79.25
  0
TEXT
  7
TextStyle03
  8
文字
  6
CONTINUOUS
 10
-13.825
 20
3.725
  1
アンカー数量　４ヶ所
 40
3.0
 72
     5
 11
19.55
 21
3.725
  0
TEXT
  7
TextStyle03
  8
文字
  6
CONTINUOUS
 10
101.525
 20
27.325
  1
×１枚
 40
3.0
 72
     5
 11
111.275
 21
27.325
  0
TEXT
  7
TextStyle03
  8
文字
  6
CONTINUOUS
 10
83.85
 20
75.375
  1
ガラス寸法
 40
3.0
 72
     5
 11
100.35
 21
75.375
  0
INSERT
  2
*DIM_0020
  8
寸法
  6
CONTINUOUS
 10
0.0
 20
0.0
  0
INSERT
  2
*DIM_0021
  8
寸法
  6
CONTINUOUS
 10
0.0
 20
0.0
  0
INSERT
  2
*DIM_0022
  8
寸法
  6
CONTINUOUS
 10
0.0
 20
0.0
  0
INSERT
  2
*DIM_0023
  8
寸法
  6
CONTINUOUS
 10
0.0
 20
0.0
  0
INSERT
  2
*DIM_0024
  8
寸法
  6
CONTINUOUS
 10
0.0
 20
0.0
  0
INSERT
  2
*DIM_0025
  8
寸法
  6
CONTINUOUS
 10
0.0
 20
0.0
  0
INSERT
  2
*DIM_0026
  8
寸法
  6
CONTINUOUS
 10
0.0
 20
0.0
  0
LINE
  8
曲げ物
  6
CONTINUOUS
 10
-51.636545
 20
40.68141
 11
-57.179512
 21
35.138443
  0
LINE
  8
曲げ物
  6
CONTINUOUS
 10
-52.69175
 20
38.377245
 11
-54.875345
 21
36.19365
  0
LINE
  8
曲げ物
  6
CONTINUOUS
 10
-53.94071
 20
39.626205
 11
-56.124305
 21
37.44261
  0
LINE
  8
St
  6
CONTINUOUS
 62
    47
 10
-36.227215
 20
-74.517642
 11
-35.552215
 21
-74.517642
  0
LINE
  8
St
  6
CONTINUOUS
 62
    47
 10
-72.697655
 20
-74.517642
 11
-73.372655
 21
-74.517642
  0
ENDSEC
  0
EOF
